  0
SECTION
  2
HEADER
  9
$ACADVER
  1
AC1027
  9
$ACADMAINTVER
 70
   125
  9
$DWGCODEPAGE
  3
ANSI_1252
  9
$LASTSAVEDBY
  1
ufficio.tecnico
  9
$REQUIREDVERSIONS
160
                 0
  9
$INSBASE
 10
0.0
 20
0.0
 30
0.0
  9
$EXTMIN
 10
0.2645157179999558
 20
0.0
 30
0.0
  9
$EXTMAX
 10
226.1364745393
 20
330.1085248967001
 30
0.0
  9
$LIMMIN
 10
0.0
 20
0.0
  9
$LIMMAX
 10
420.0
 20
297.0
  9
$ORTHOMODE
 70
     0
  9
$REGENMODE
 70
     1
  9
$FILLMODE
 70
     1
  9
$QTEXTMODE
 70
     0
  9
$MIRRTEXT
 70
     0
  9
$LTSCALE
 40
1.0
  9
$ATTMODE
 70
     1
  9
$TEXTSIZE
 40
2.5
  9
$TRACEWID
 40
1.0
  9
$TEXTSTYLE
  7
Standard
  9
$CLAYER
  8
0
  9
$CELTYPE
  6
ByLayer
  9
$CECOLOR
 62
   256
  9
$CELTSCALE
 40
1.0
  9
$DISPSILH
 70
     0
  9
$DIMSCALE
 40
1.0
  9
$DIMASZ
 40
2.5
  9
$DIMEXO
 40
0.625
  9
$DIMDLI
 40
3.75
  9
$DIMRND
 40
0.0
  9
$DIMDLE
 40
0.0
  9
$DIMEXE
 40
1.25
  9
$DIMTP
 40
0.0
  9
$DIMTM
 40
0.0
  9
$DIMTXT
 40
2.5
  9
$DIMCEN
 40
2.5
  9
$DIMTSZ
 40
0.0
  9
$DIMTOL
 70
     0
  9
$DIMLIM
 70
     0
  9
$DIMTIH
 70
     0
  9
$DIMTOH
 70
     0
  9
$DIMSE1
 70
     0
  9
$DIMSE2
 70
     0
  9
$DIMTAD
 70
     1
  9
$DIMZIN
 70
     8
  9
$DIMBLK
  1

  9
$DIMASO
 70
     1
  9
$DIMSHO
 70
     1
  9
$DIMPOST
  1

  9
$DIMAPOST
  1

  9
$DIMALT
 70
     0
  9
$DIMALTD
 70
     3
  9
$DIMALTF
 40
0.03937007874016
  9
$DIMLFAC
 40
1.0
  9
$DIMTOFL
 70
     1
  9
$DIMTVP
 40
0.0
  9
$DIMTIX
 70
     0
  9
$DIMSOXD
 70
     0
  9
$DIMSAH
 70
     0
  9
$DIMBLK1
  1

  9
$DIMBLK2
  1

  9
$DIMSTYLE
  2
ISO-25
  9
$DIMCLRD
 70
     0
  9
$DIMCLRE
 70
     0
  9
$DIMCLRT
 70
     0
  9
$DIMTFAC
 40
1.0
  9
$DIMGAP
 40
0.625
  9
$DIMJUST
 70
     0
  9
$DIMSD1
 70
     0
  9
$DIMSD2
 70
     0
  9
$DIMTOLJ
 70
     0
  9
$DIMTZIN
 70
     8
  9
$DIMALTZ
 70
     0
  9
$DIMALTTZ
 70
     0
  9
$DIMUPT
 70
     0
  9
$DIMDEC
 70
     2
  9
$DIMTDEC
 70
     2
  9
$DIMALTU
 70
     2
  9
$DIMALTTD
 70
     3
  9
$DIMTXSTY
  7
Standard
  9
$DIMAUNIT
 70
     0
  9
$DIMADEC
 70
     0
  9
$DIMALTRND
 40
0.0
  9
$DIMAZIN
 70
     0
  9
$DIMDSEP
 70
    44
  9
$DIMATFIT
 70
     3
  9
$DIMFRAC
 70
     0
  9
$DIMLDRBLK
  1

  9
$DIMLUNIT
 70
     2
  9
$DIMLWD
 70
    -2
  9
$DIMLWE
 70
    -2
  9
$DIMTMOVE
 70
     0
  9
$DIMFXL
 40
1.0
  9
$DIMFXLON
 70
     0
  9
$DIMJOGANG
 40
0.7853981633974483
  9
$DIMTFILL
 70
     0
  9
$DIMTFILLCLR
 70
     0
  9
$DIMARCSYM
 70
     0
  9
$DIMLTYPE
  6

  9
$DIMLTEX1
  6

  9
$DIMLTEX2
  6

  9
$DIMTXTDIRECTION
 70
     0
  9
$LUNITS
 70
     2
  9
$LUPREC
 70
     4
  9
$SKETCHINC
 40
1.0
  9
$FILLETRAD
 40
0.0
  9
$AUNITS
 70
     0
  9
$AUPREC
 70
     0
  9
$MENU
  1
.
  9
$ELEVATION
 40
0.0
  9
$PELEVATION
 40
0.0
  9
$THICKNESS
 40
0.0
  9
$LIMCHECK
 70
     0
  9
$CHAMFERA
 40
0.0
  9
$CHAMFERB
 40
0.0
  9
$CHAMFERC
 40
0.0
  9
$CHAMFERD
 40
0.0
  9
$SKPOLY
 70
     0
  9
$TDCREATE
 40
2459809.460856482
  9
$TDUCREATE
 40
2459809.377523148
  9
$TDUPDATE
 40
2459809.462708334
  9
$TDUUPDATE
 40
2459809.379375000
  9
$TDINDWG
 40
0.0018518519
  9
$TDUSRTIMER
 40
0.0018518519
  9
$USRTIMER
 70
     1
  9
$ANGBASE
 50
0.0
  9
$ANGDIR
 70
     0
  9
$PDMODE
 70
     0
  9
$PDSIZE
 40
0.0
  9
$PLINEWID
 40
0.0
  9
$SPLFRAME
 70
     0
  9
$SPLINETYPE
 70
     6
  9
$SPLINESEGS
 70
     8
  9
$HANDSEED
  5
541
  9
$SURFTAB1
 70
     6
  9
$SURFTAB2
 70
     6
  9
$SURFTYPE
 70
     6
  9
$SURFU
 70
     6
  9
$SURFV
 70
     6
  9
$UCSBASE
  2

  9
$UCSNAME
  2

  9
$UCSORG
 10
0.0
 20
0.0
 30
0.0
  9
$UCSXDIR
 10
1.0
 20
0.0
 30
0.0
  9
$UCSYDIR
 10
0.0
 20
1.0
 30
0.0
  9
$UCSORTHOREF
  2

  9
$UCSORTHOVIEW
 70
     0
  9
$UCSORGTOP
 10
0.0
 20
0.0
 30
0.0
  9
$UCSORGBOTTOM
 10
0.0
 20
0.0
 30
0.0
  9
$UCSORGLEFT
 10
0.0
 20
0.0
 30
0.0
  9
$UCSORGRIGHT
 10
0.0
 20
0.0
 30
0.0
  9
$UCSORGFRONT
 10
0.0
 20
0.0
 30
0.0
  9
$UCSORGBACK
 10
0.0
 20
0.0
 30
0.0
  9
$PUCSBASE
  2

  9
$PUCSNAME
  2

  9
$PUCSORG
 10
0.0
 20
0.0
 30
0.0
  9
$PUCSXDIR
 10
1.0
 20
0.0
 30
0.0
  9
$PUCSYDIR
 10
0.0
 20
1.0
 30
0.0
  9
$PUCSORTHOREF
  2

  9
$PUCSORTHOVIEW
 70
     0
  9
$PUCSORGTOP
 10
0.0
 20
0.0
 30
0.0
  9
$PUCSORGBOTTOM
 10
0.0
 20
0.0
 30
0.0
  9
$PUCSORGLEFT
 10
0.0
 20
0.0
 30
0.0
  9
$PUCSORGRIGHT
 10
0.0
 20
0.0
 30
0.0
  9
$PUCSORGFRONT
 10
0.0
 20
0.0
 30
0.0
  9
$PUCSORGBACK
 10
0.0
 20
0.0
 30
0.0
  9
$USERI1
 70
     0
  9
$USERI2
 70
     0
  9
$USERI3
 70
     0
  9
$USERI4
 70
     0
  9
$USERI5
 70
     0
  9
$USERR1
 40
0.0
  9
$USERR2
 40
0.0
  9
$USERR3
 40
0.0
  9
$USERR4
 40
0.0
  9
$USERR5
 40
0.0
  9
$WORLDVIEW
 70
     1
  9
$SHADEDGE
 70
     3
  9
$SHADEDIF
 70
    70
  9
$TILEMODE
 70
     1
  9
$MAXACTVP
 70
    64
  9
$PINSBASE
 10
0.0
 20
0.0
 30
0.0
  9
$PLIMCHECK
 70
     0
  9
$PEXTMIN
 10
0.0
 20
0.0
 30
0.0
  9
$PEXTMAX
 10
0.0
 20
0.0
 30
0.0
  9
$PLIMMIN
 10
0.0
 20
0.0
  9
$PLIMMAX
 10
12.0
 20
9.0
  9
$UNITMODE
 70
     0
  9
$VISRETAIN
 70
     1
  9
$PLINEGEN
 70
     0
  9
$PSLTSCALE
 70
     1
  9
$TREEDEPTH
 70
  3020
  9
$CMLSTYLE
  2
Standard
  9
$CMLJUST
 70
     0
  9
$CMLSCALE
 40
20.0
  9
$PROXYGRAPHICS
 70
     1
  9
$MEASUREMENT
 70
     1
  9
$CELWEIGHT
370
    -1
  9
$ENDCAPS
280
     0
  9
$JOINSTYLE
280
     0
  9
$LWDISPLAY
290
     0
  9
$INSUNITS
 70
     4
  9
$HYPERLINKBASE
  1

  9
$STYLESHEET
  1

  9
$XEDIT
290
     1
  9
$CEPSNTYPE
380
     0
  9
$PSTYLEMODE
290
     1
  9
$FINGERPRINTGUID
  2
{8AFB494F-B250-3C4F-8F1F-436685BF206D}
  9
$VERSIONGUID
  2
{282788A0-8DD2-C34C-8AE5-ABC8EECC693B}
  9
$EXTNAMES
290
     1
  9
$PSVPSCALE
 40
0.0
  9
$OLESTARTUP
290
     0
  9
$SORTENTS
280
   127
  9
$INDEXCTL
280
     0
  9
$HIDETEXT
280
     1
  9
$XCLIPFRAME
280
     2
  9
$HALOGAP
280
     0
  9
$OBSCOLOR
 70
   257
  9
$OBSLTYPE
280
     0
  9
$INTERSECTIONDISPLAY
280
     0
  9
$INTERSECTIONCOLOR
 70
   257
  9
$DIMASSOC
280
     2
  9
$PROJECTNAME
  1

  9
$CAMERADISPLAY
290
     0
  9
$LENSLENGTH
 40
50.0
  9
$CAMERAHEIGHT
 40
0.0
  9
$STEPSPERSEC
 40
2.0
  9
$STEPSIZE
 40
6.0
  9
$3DDWFPREC
 40
2.0
  9
$PSOLWIDTH
 40
5.0
  9
$PSOLHEIGHT
 40
80.0
  9
$LOFTANG1
 40
1.570796326794896
  9
$LOFTANG2
 40
1.570796326794896
  9
$LOFTMAG1
 40
0.0
  9
$LOFTMAG2
 40
0.0
  9
$LOFTPARAM
 70
     7
  9
$LOFTNORMALS
280
     1
  9
$LATITUDE
 40
37.795
  9
$LONGITUDE
 40
-122.394
  9
$NORTHDIRECTION
 40
0.0
  9
$TIMEZONE
 70
 -8000
  9
$LIGHTGLYPHDISPLAY
280
     1
  9
$TILEMODELIGHTSYNCH
280
     1
  9
$CMATERIAL
347
EC
  9
$SOLIDHIST
280
     0
  9
$SHOWHIST
280
     1
  9
$DWFFRAME
280
     2
  9
$DGNFRAME
280
     0
  9
$REALWORLDSCALE
290
     1
  9
$INTERFERECOLOR
 62
     1
  9
$INTERFEREOBJVS
345
F9
  9
$INTERFEREVPVS
346
F6
  9
$CSHADOW
280
     0
  9
$SHADOWPLANELOCATION
 40
0.0
  0
ENDSEC
  0
SECTION
  2
CLASSES
  0
CLASS
  1
ACDBDICTIONARYWDFLT
  2
AcDbDictionaryWithDefault
  3
ObjectDBX Classes
 90
        0
 91
        1
280
     0
281
     0
  0
CLASS
  1
DICTIONARYVAR
  2
AcDbDictionaryVar
  3
ObjectDBX Classes
 90
        0
 91
       11
280
     0
281
     0
  0
CLASS
  1
TABLESTYLE
  2
AcDbTableStyle
  3
ObjectDBX Classes
 90
     4095
 91
        1
280
     0
281
     0
  0
CLASS
  1
MATERIAL
  2
AcDbMaterial
  3
ObjectDBX Classes
 90
     1153
 91
        3
280
     0
281
     0
  0
CLASS
  1
VISUALSTYLE
  2
AcDbVisualStyle
  3
ObjectDBX Classes
 90
     4095
 91
       24
280
     0
281
     0
  0
CLASS
  1
SCALE
  2
AcDbScale
  3
ObjectDBX Classes
 90
     1153
 91
       17
280
     0
281
     0
  0
CLASS
  1
MLEADERSTYLE
  2
AcDbMLeaderStyle
  3
ACDB_MLEADERSTYLE_CLASS
 90
     4095
 91
        2
280
     0
281
     0
  0
CLASS
  1
CELLSTYLEMAP
  2
AcDbCellStyleMap
  3
ObjectDBX Classes
 90
     1152
 91
        1
280
     0
281
     0
  0
CLASS
  1
EXACXREFPANELOBJECT
  2
ExAcXREFPanelObject
  3
EXAC_ESW
 90
     1025
 91
        0
280
     0
281
     0
  0
CLASS
  1
NPOCOLLECTION
  2
AcDbImpNonPersistentObjectsCollection
  3
ObjectDBX Classes
 90
     1153
 91
        0
280
     0
281
     0
  0
CLASS
  1
LAYER_INDEX
  2
AcDbLayerIndex
  3
ObjectDBX Classes
 90
        0
 91
        0
280
     0
281
     0
  0
CLASS
  1
SPATIAL_INDEX
  2
AcDbSpatialIndex
  3
ObjectDBX Classes
 90
        0
 91
        0
280
     0
281
     0
  0
CLASS
  1
IDBUFFER
  2
AcDbIdBuffer
  3
ObjectDBX Classes
 90
        0
 91
        0
280
     0
281
     0
  0
CLASS
  1
ACDBSECTIONVIEWSTYLE
  2
AcDbSectionViewStyle
  3
ObjectDBX Classes
 90
     1025
 91
        1
280
     0
281
     0
  0
CLASS
  1
ACDBDETAILVIEWSTYLE
  2
AcDbDetailViewStyle
  3
ObjectDBX Classes
 90
     1025
 91
        1
280
     0
281
     0
  0
ENDSEC
  0
SECTION
  2
TABLES
  0
TABLE
  2
VPORT
  5
8
330
0
100
AcDbSymbolTable
 70
     1
1001
ACAD
1000
DbSaveVer
1071
      249
  0
VPORT
  5
EA
330
8
100
AcDbSymbolTableRecord
100
AcDbViewportTableRecord
  2
*Active
 70
     0
 10
0.0
 20
0.0
 11
1.0
 21
1.0
 12
222.3710435307721
 22
133.8936570220923
 13
0.0
 23
0.0
 14
10.0
 24
10.0
 15
10.0
 25
10.0
 16
0.0
 26
0.0
 36
1.0
 17
0.0
 27
0.0
 37
0.0
 40
371.679268305485
 41
1.720461095100864
 42
50.0
 43
0.0
 44
0.0
 50
0.0
 51
0.0
 71
     0
 72
  1000
 73
     1
 74
     3
 75
     0
 76
     1
 77
     0
 78
     0
281
     0
 65
     1
110
0.0
120
0.0
130
0.0
111
1.0
121
0.0
131
0.0
112
0.0
122
1.0
132
0.0
 79
     0
146
0.0
348
F5
 60
     3
 61
     5
292
     1
282
     1
141
0.0
142
0.0
 63
   250
421
  3355443
1001
ACAD_NAV_VCDISPLAY
1070
     3
  0
ENDTAB
  0
TABLE
  2
LTYPE
  5
5
330
0
100
AcDbSymbolTable
 70
     1
  0
LTYPE
  5
14
330
5
100
AcDbSymbolTableRecord
100
AcDbLinetypeTableRecord
  2
ByBlock
 70
     0
  3

 72
    65
 73
     0
 40
0.0
  0
LTYPE
  5
15
330
5
100
AcDbSymbolTableRecord
100
AcDbLinetypeTableRecord
  2
ByLayer
 70
     0
  3

 72
    65
 73
     0
 40
0.0
  0
LTYPE
  5
16
330
5
100
AcDbSymbolTableRecord
100
AcDbLinetypeTableRecord
  2
Continuous
 70
     0
  3
Solid line
 72
    65
 73
     0
 40
0.0
  0
ENDTAB
  0
TABLE
  2
LAYER
  5
2
102
{ACAD_XDICTIONARY
360
1FF
102
}
330
0
100
AcDbSymbolTable
 70
     3
  0
LAYER
  5
10
102
{ACAD_XDICTIONARY
360
13C
102
}
330
2
100
AcDbSymbolTableRecord
100
AcDbLayerTableRecord
  2
0
 70
     0
 62
     7
  6
Continuous
370
    -3
390
F
347
EE
348
0
  0
LAYER
  5
2A2
330
2
100
AcDbSymbolTableRecord
100
AcDbLayerTableRecord
  2
PDF _0
 70
     0
 62
     7
  6
Continuous
370
    -3
390
F
347
EE
348
0
  0
LAYER
  5
2B7
330
2
100
AcDbSymbolTableRecord
100
AcDbLayerTableRecord
  2
PDF1
 70
     0
 62
     7
  6
Continuous
370
    -3
390
F
347
EE
348
0
  0
ENDTAB
  0
TABLE
  2
STYLE
  5
3
330
0
100
AcDbSymbolTable
 70
     2
  0
STYLE
  5
11
330
3
100
AcDbSymbolTableRecord
100
AcDbTextStyleTableRecord
  2
Standard
 70
     0
 40
0.0
 41
1.0
 50
0.0
 71
     0
 42
2.5
  3
arial.ttf
  4

1001
ACAD
1000
Arial
1071
       34
  0
STYLE
  5
132
330
3
100
AcDbSymbolTableRecord
100
AcDbTextStyleTableRecord
  2
Annotativa
 70
     0
 40
0.0
 41
1.0
 50
0.0
 71
     0
 42
2.5
  3
arial.ttf
  4

1001
AcadAnnotative
1000
AnnotativeData
1002
{
1070
     1
1070
     1
1002
}
1001
ACAD
1000
Arial
1071
       34
  0
ENDTAB
  0
TABLE
  2
VIEW
  5
6
330
0
100
AcDbSymbolTable
 70
     0
  0
ENDTAB
  0
TABLE
  2
UCS
  5
7
330
0
100
AcDbSymbolTable
 70
     0
  0
ENDTAB
  0
TABLE
  2
APPID
  5
9
330
0
100
AcDbSymbolTable
 70
     8
  0
APPID
  5
12
330
9
100
AcDbSymbolTableRecord
100
AcDbRegAppTableRecord
  2
ACAD
 70
     0
  0
APPID
  5
9E
330
9
100
AcDbSymbolTableRecord
100
AcDbRegAppTableRecord
  2
ACAD_PSEXT
 70
     0
  0
APPID
  5
133
330
9
100
AcDbSymbolTableRecord
100
AcDbRegAppTableRecord
  2
AcadAnnoPO
 70
     0
  0
APPID
  5
134
330
9
100
AcDbSymbolTableRecord
100
AcDbRegAppTableRecord
  2
AcadAnnotative
 70
     0
  0
APPID
  5
135
330
9
100
AcDbSymbolTableRecord
100
AcDbRegAppTableRecord
  2
ACAD_DSTYLE_DIMJAG
 70
     0
  0
APPID
  5
136
330
9
100
AcDbSymbolTableRecord
100
AcDbRegAppTableRecord
  2
ACAD_DSTYLE_DIMTALN
 70
     0
  0
APPID
  5
165
330
9
100
AcDbSymbolTableRecord
100
AcDbRegAppTableRecord
  2
ACAD_MLEADERVER
 70
     0
  0
APPID
  5
217
330
9
100
AcDbSymbolTableRecord
100
AcDbRegAppTableRecord
  2
ACAD_NAV_VCDISPLAY
 70
     0
  0
ENDTAB
  0
TABLE
  2
DIMSTYLE
  5
A
330
0
100
AcDbSymbolTable
 70
     3
100
AcDbDimStyleTable
 71
     2
340
27
340
137
  0
DIMSTYLE
105
1B0
330
A
100
AcDbSymbolTableRecord
100
AcDbDimStyleTableRecord
  2
Standard
 70
     0
340
11
  0
DIMSTYLE
105
137
330
A
100
AcDbSymbolTableRecord
100
AcDbDimStyleTableRecord
  2
Annotativa
 70
     0
 40
0.0
 41
2.5
 42
0.625
 43
3.75
 44
1.25
 73
     0
 74
     0
 77
     1
 78
     8
140
2.5
141
2.5
143
0.03937007874016
147
0.625
171
     3
172
     1
271
     2
272
     2
274
     3
278
    44
283
     0
284
     8
340
11
1001
AcadAnnotative
1000
AnnotativeData
1002
{
1070
     1
1070
     1
1002
}
1001
ACAD_DSTYLE_DIMJAG
1070
   388
1040
1.5
1001
ACAD_DSTYLE_DIMTALN
1070
   392
1070
     0
  0
DIMSTYLE
105
27
330
A
100
AcDbSymbolTableRecord
100
AcDbDimStyleTableRecord
  2
ISO-25
 70
     0
 41
2.5
 42
0.625
 43
3.75
 44
1.25
 73
     0
 74
     0
 77
     1
 78
     8
140
2.5
141
2.5
143
0.03937007874016
147
0.625
171
     3
172
     1
271
     2
272
     2
274
     3
278
    44
283
     0
284
     8
340
11
  0
ENDTAB
  0
TABLE
  2
BLOCK_RECORD
  5
1
330
0
100
AcDbSymbolTable
 70
     1
  0
BLOCK_RECORD
  5
1F
102
{ACAD_XDICTIONARY
360
1CE
102
}
330
1
100
AcDbSymbolTableRecord
100
AcDbBlockTableRecord
  2
*Model_Space
340
22
 70
     0
280
     1
281
     0
  0
BLOCK_RECORD
  5
D2
330
1
100
AcDbSymbolTableRecord
100
AcDbBlockTableRecord
  2
*Paper_Space
340
D3
 70
     0
280
     1
281
     0
  0
BLOCK_RECORD
  5
D6
330
1
100
AcDbSymbolTableRecord
100
AcDbBlockTableRecord
  2
*Paper_Space0
340
D7
 70
     0
280
     1
281
     0
  0
ENDTAB
  0
ENDSEC
  0
SECTION
  2
BLOCKS
  0
BLOCK
  5
20
330
1F
100
AcDbEntity
  8
0
100
AcDbBlockBegin
  2
*Model_Space
 70
     0
 10
0.0
 20
0.0
 30
0.0
  3
*Model_Space
  1

  0
ENDBLK
  5
21
330
1F
100
AcDbEntity
  8
0
100
AcDbBlockEnd
  0
BLOCK
  5
D4
330
D2
100
AcDbEntity
 67
     1
  8
0
100
AcDbBlockBegin
  2
*Paper_Space
 70
     0
 10
0.0
 20
0.0
 30
0.0
  3
*Paper_Space
  1

  0
ENDBLK
  5
D5
330
D2
100
AcDbEntity
 67
     1
  8
0
100
AcDbBlockEnd
  0
BLOCK
  5
D8
330
D6
100
AcDbEntity
 67
     1
  8
0
100
AcDbBlockBegin
  2
*Paper_Space0
 70
     0
 10
0.0
 20
0.0
 30
0.0
  3
*Paper_Space0
  1

  0
ENDBLK
  5
D9
330
D6
100
AcDbEntity
 67
     1
  8
0
100
AcDbBlockEnd
  0
ENDSEC
  0
SECTION
  2
ENTITIES
  0
HATCH
  5
2A3
330
1F
100
AcDbEntity
  8
PDF _0
440
 33554559
100
AcDbHatch
 10
0.0
 20
0.0
 30
0.0
210
0.0
220
0.0
230
1.0
  2
SOLID
 70
     1
 71
     0
 91
        3
 92
        2
 72
     0
 73
     1
 93
       51
 10
194.193010742
 20
173.988266705
 10
194.2321092289
 20
174.1446606526
 10
194.2321092289
 20
174.2619561133
 10
194.2321092289
 20
174.2619561133
 10
194.2321092289
 20
174.4183500609
 10
194.193010742
 20
174.5747440085
 10
194.193010742
 20
174.6920394692
 10
194.1539122551
 20
174.8484334168
 10
194.1148137682
 20
174.9657288775
 10
194.0757152813
 20
175.0830243382
 10
194.0366167944
 20
175.2394182858
 10
193.9584198206
 20
175.3567137465
 10
193.9193213337
 20
175.4740092072
 10
193.8411243599
 20
175.5913046679
 10
193.7629273861
 20
175.7086001286
 10
193.6456319254
 20
175.8258955893
 10
193.5674349516
 20
175.9040925631
 10
193.5283364647
 20
175.94319105
 10
193.411041004
 20
176.0604865107
 10
193.2937455433
 20
176.1386834845
 10
193.1764500826
 20
176.2559789452
 10
193.0591546219
 20
176.334175919
 10
192.9418591612
 20
176.3732744059
 10
192.8245637005
 20
176.4514713797
 10
192.7072682398
 20
176.4905698666
 10
192.5899727791
 20
176.5687668404
 10
192.4335788315
 20
176.6078653273
 10
192.3162833708
 20
176.6078653273
 10
192.1598894232
 20
176.6469638142
 10
192.0425939625
 20
176.6469638142
 10
191.8862000149
 20
176.6469638142
 10
191.8080030411
 20
176.6469638142
 10
191.6516090935
 20
176.6469638142
 10
191.5343136328
 20
176.6469638142
 10
191.3779196852
 20
176.6469638142
 10
191.2215257376
 20
176.6078653273
 10
191.1042302769
 20
176.5687668404
 10
190.9869348162
 20
176.5296683535
 10
190.8696393555
 20
176.4905698666
 10
190.7132454079
 20
176.4514713797
 10
190.5959499472
 20
176.3732744059
 10
190.5177529734
 20
176.2950774321
 10
190.4004575127
 20
176.2559789452
 10
190.283162052
 20
176.1386834845
 10
190.2049650782
 20
176.0604865107
 10
190.0876696175
 20
175.9822895369
 10
190.0094726437
 20
175.8649940762
 10
189.9312756699
 20
175.7476986155
 10
189.8530786961
 20
175.6304031548
 10
189.7748817223
 20
175.5131076941
 10
189.7357832354
 20
175.4740092072
 97
        0
 92
        2
 72
     0
 73
     1
 93
      187
 10
195.1313744276
 20
173.6754788098
 10
196.3043290346
 20
173.2844939408
 10
196.4216244953
 20
173.206296967
 10
196.4998214691
 20
173.1280999932
 10
196.5780184429
 20
173.0499030194
 10
196.6171169298
 20
172.8935090718
 10
196.6171169298
 20
172.815312098
 10
196.6171169298
 20
172.6980166373
 10
196.5780184429
 20
172.5416226897
 10
196.4998214691
 20
172.4634257159
 10
196.4216244953
 20
172.3852287421
 10
196.3043290346
 20
172.3461302552
 10
196.147935087
 20
172.3461302552
 10
196.1088366001
 20
172.3461302552
 10
196.0697381132
 20
172.3461302552
 10
195.9915411394
 20
172.3852287421
 10
195.8742456787
 20
172.424327229
 10
195.756950218
 20
172.4634257159
 10
195.6005562704
 20
172.5025242028
 10
195.4050638359
 20
172.5807211766
 10
195.2095714014
 20
172.6198196635
 10
194.97498048
 20
172.6980166373
 10
194.8185865324
 20
172.7762136111
 10
194.7403895586
 20
172.6198196635
 10
194.7012910717
 20
172.5025242028
 10
194.6230940979
 20
172.3852287421
 10
194.5057986372
 20
172.2679332814
 10
194.4276016634
 20
172.1506378207001
 10
194.3494046896
 20
172.03334236
 10
194.2712077158
 20
171.9551453862
 10
194.1539122551
 20
171.8378499255
 10
194.0366167944
 20
171.7596529517
 10
193.9584198206
 20
171.6423574910001
 10
193.8411243599
 20
171.5641605172
 10
193.7238288992
 20
171.4859635434
 10
193.6065334385
 20
171.4077665696
 10
193.6065334385
 20
171.4077665696
 10
193.4501394909
 20
171.3295695958
 10
193.3328440302
 20
171.251372622
 10
193.2155485695
 20
171.2122741351
 10
193.0591546219
 20
171.1340771613
 10
192.9418591612
 20
171.0949786744
 10
192.8245637005
 20
171.0558801875
 10
192.6681697529
 20
171.0167817006
 10
192.5508742922
 20
170.9776832137
 10
192.3944803446
 20
170.9385847268
 10
192.2771848839
 20
170.9385847268
 10
192.1207909363
 20
170.8994862399
 10
191.9643969887
 20
170.8994862399
 10
191.847101528
 20
170.8994862399
 10
191.8080030411
 20
170.8994862399
 10
191.6907075804
 20
170.8994862399
 10
191.5343136328
 20
170.8994862399
 10
191.3779196852
 20
170.9385847268
 10
191.2606242245
 20
170.9385847268
 10
191.1042302769
 20
170.9776832137
 10
190.9869348162
 20
171.0167817006
 10
190.8305408686
 20
171.0558801875
 10
190.7132454079
 20
171.0949786744
 10
190.5959499472
 20
171.1340771613
 10
190.4395559996
 20
171.1731756482
 10
190.3222605389
 20
171.251372622
 10
190.2049650782
 20
171.2904711089
 10
190.0876696175
 20
171.3686680827
 10
189.9703741568
 20
171.4468650565
 10
189.8530786961
 20
171.5250620303
 10
189.7357832354
 20
171.6032590041
 10
189.6184877747
 20
171.7205544648
 10
189.5402908009
 20
171.7987514386
 10
189.4229953402
 20
171.8769484124
 10
189.3447983664
 20
171.9942438731
 10
189.2275029057
 20
172.1115393338001
 10
189.1493059319
 20
172.2288347945
 10
189.0711089581
 20
172.3070317683
 10
188.9929119843
 20
172.424327229
 10
188.9147150105
 20
172.5416226897
 10
188.8365180367
 20
172.6980166373
 10
188.7974195498
 20
172.815312098
 10
188.719222576
 20
172.9326075587
 10
188.6801240891
 20
173.0499030194
 10
188.6410256022
 20
173.1671984801
 10
188.6019271153
 20
173.3235924277
 10
188.5628286284
 20
173.4408878884
 10
188.5237301415
 20
173.597281836
 10
188.4846316546
 20
173.7145772967001
 10
188.4846316546
 20
173.8709712443
 10
188.4846316546
 20
173.988266705
 10
188.4455331677
 20
174.1446606526
 10
188.4455331677
 20
174.2619561133
 10
188.4455331677
 20
174.4183500609
 10
188.4846316546
 20
174.5356455216
 10
188.4846316546
 20
174.6920394692
 10
188.5237301415
 20
174.8484334168
 10
188.5237301415
 20
174.8875319037
 10
187.3507755345
 20
175.2394182858
 10
187.2334800738
 20
175.3176152596
 10
187.1161846131
 20
175.3958122334
 10
187.0379876393
 20
175.5131076941
 10
187.0379876393
 20
175.6304031548
 10
187.0379876393
 20
175.7086001286
 10
187.0379876393
 20
175.8649940762
 10
187.0770861262
 20
175.9822895369
 10
187.1552831
 20
176.0604865107
 10
187.2334800738
 20
176.1386834845
 10
187.3507755345
 20
176.1777819714
 10
187.5071694821
 20
176.1777819714
 10
187.5071694821
 20
176.1777819714
 10
187.5853664559
 20
176.1777819714
 10
187.6635634297
 20
176.1386834845
 10
187.7417604035
 20
176.0995849976
 10
187.8981543511
 20
176.0604865107
 10
188.0545482987
 20
176.0213880238
 10
188.2109422463
 20
175.9822895369
 10
188.4455331677
 20
175.9040925631
 10
188.6801240891
 20
175.8258955893
 10
188.7974195498
 20
175.7867971024001
 10
188.8756165236
 20
175.9040925631
 10
188.9538134974
 20
176.0213880238
 10
189.0320104712
 20
176.1386834845
 10
189.110207445
 20
176.2559789452
 10
189.1884044188
 20
176.3732744059
 10
189.3056998795
 20
176.4905698666
 10
189.3838968533
 20
176.5687668404
 10
189.501192314
 20
176.6860623011
 10
189.5793892878
 20
176.7642592749
 10
189.6966847485
 20
176.8815547356
 10
189.8139802092
 20
176.9597517094
 10
189.9312756699
 20
177.0379486832
 10
190.0485711306
 20
177.116145657
 10
190.0485711306
 20
177.116145657
 10
190.1658665913
 20
177.1943426308
 10
190.3222605389
 20
177.2725396046
 10
190.4395559996
 20
177.3116380915
 10
190.5568514603
 20
177.3898350653
 10
190.7132454079
 20
177.4289335522
 10
190.8305408686
 20
177.4680320391
 10
190.9478363293
 20
177.507130526
 10
191.1042302769
 20
177.5462290129
 10
191.2606242245
 20
177.5853274998
 10
191.3779196852
 20
177.5853274998
 10
191.5343136328
 20
177.6244259867
 10
191.6516090935
 20
177.6244259867
 10
191.8080030411
 20
177.6244259867
 10
191.8080030411
 20
177.6244259867
 10
191.9643969887
 20
177.6244259867
 10
192.1207909363
 20
177.6244259867
 10
192.238086397
 20
177.5853274998
 10
192.3944803446
 20
177.5853274998
 10
192.5508742922
 20
177.5462290129
 10
192.6681697529
 20
177.507130526
 10
192.7854652136
 20
177.507130526
 10
192.9418591612
 20
177.4289335522
 10
193.0591546219
 20
177.3898350653
 10
193.1764500826
 20
177.3507365784
 10
193.2937455433
 20
177.2725396046
 10
193.4501394909
 20
177.2334411177
 10
193.5674349516
 20
177.1552441439
 10
193.6847304123
 20
177.0770471701
 10
193.802025873
 20
176.9988501963
 10
193.8802228468
 20
176.9206532225
 10
193.9975183075
 20
176.8033577618
 10
194.1148137682
 20
176.725160788
 10
194.193010742
 20
176.6469638142
 10
194.3103062027
 20
176.5296683535
 10
194.3885031765
 20
176.4123728928
 10
194.5057986372
 20
176.334175919
 10
194.583995611
 20
176.2168804583
 10
194.6621925848
 20
176.0995849976
 10
194.7403895586
 20
175.9822895369
 10
194.7794880455
 20
175.8649940762
 10
194.8576850193
 20
175.7476986155
 10
194.8967835062
 20
175.5913046679
 10
194.97498048
 20
175.4740092072
 10
195.0140789669
 20
175.3567137465
 10
195.0531774538
 20
175.2394182858
 10
195.0922759407
 20
175.0830243382
 10
195.1313744276
 20
174.9657288775
 10
195.1313744276
 20
174.8093349299
 10
195.1704729145
 20
174.6529409823
 10
195.1704729145
 20
174.5356455216
 10
195.1704729145
 20
174.379251574
 10
195.1704729145
 20
174.2619561133
 10
195.1704729145
 20
174.1055621657
 10
195.1704729145
 20
173.988266705
 10
195.1704729145
 20
173.8318727574
 10
195.1313744276
 20
173.6754788098
 10
195.1313744276
 20
173.6754788098
 97
        0
 92
        2
 72
     0
 73
     1
 93
       52
 10
193.9193213337
 20
173.0499030194
 10
189.4229953402
 20
174.5747440085
 10
189.4229953402
 20
174.379251574
 10
189.4229953402
 20
174.2619561133
 10
189.4229953402
 20
174.2619561133
 10
189.4229953402
 20
174.1446606526
 10
189.4229953402
 20
173.988266705
 10
189.4620938271
 20
173.8318727574
 10
189.501192314
 20
173.7145772967001
 10
189.501192314
 20
173.5581833491
 10
189.5402908009
 20
173.4408878884
 10
189.6184877747
 20
173.3235924277
 10
189.6575862616
 20
173.206296967
 10
189.7357832354
 20
173.0499030194
 10
189.8139802092
 20
172.9326075587
 10
189.892177183
 20
172.8544105849
 10
189.9703741568
 20
172.7371151242
 10
190.0876696175
 20
172.6198196635
 10
190.1267681044
 20
172.5807211766
 10
190.2440635651
 20
172.4634257159
 10
190.3222605389
 20
172.3852287421
 10
190.4395559996
 20
172.3070317683
 10
190.5568514603
 20
172.2288347945
 10
190.674146921
 20
172.1506378207001
 10
190.7914423817
 20
172.0724408469
 10
190.9478363293
 20
172.03334236
 10
191.06513179
 20
171.9942438731
 10
191.1824272507
 20
171.9551453862
 10
191.3388211983
 20
171.9160468993
 10
191.456116659
 20
171.8769484124
 10
191.6125106066
 20
171.8769484124
 10
191.7689045542
 20
171.8769484124
 10
191.8080030411
 20
171.8769484124
 10
191.9643969887
 20
171.8769484124
 10
192.1207909363
 20
171.8769484124
 10
192.238086397
 20
171.9160468993
 10
192.3944803446
 20
171.9160468993
 10
192.5117758053
 20
171.9551453862
 10
192.629071266
 20
171.9942438731
 10
192.7854652136
 20
172.03334236
 10
192.9027606743
 20
172.1115393338001
 10
193.020056135
 20
172.1506378207001
 10
193.1373515957
 20
172.2288347945
 10
193.2155485695
 20
172.3070317683
 10
193.3328440302
 20
172.3852287421
 10
193.4501394909
 20
172.4634257159
 10
193.5283364647
 20
172.5807211766
 10
193.6065334385
 20
172.6589181504
 10
193.7238288992
 20
172.7762136111
 10
193.802025873
 20
172.8935090718
 10
193.8802228468
 20
173.0108045325
 10
193.9193213337
 20
173.0499030194
 97
        0
 75
     0
 76
     1
 98
        1
 10
0.0
 20
0.0
450
        0
451
        0
460
0.0
461
0.0
452
        0
462
0.0
453
        0
470

  0
HATCH
  5
2A4
330
1F
100
AcDbEntity
  8
PDF _0
440
 33554559
100
AcDbHatch
 10
0.0
 20
0.0
 30
0.0
210
0.0
220
0.0
230
1.0
  2
SOLID
 70
     1
 71
     0
 91
        1
 92
        3
 72
     0
 73
     1
 93
       10
 10
196.6171169298
 20
185.2486309322001
 10
196.6171169298
 20
179.7748427662001
 10
195.5614577835
 20
179.7748427662001
 10
195.5614577835
 20
181.9252595457
 10
188.2891392201
 20
181.9252595457
 10
188.9147150105
 20
179.6966457924001
 10
187.8199573773
 20
179.6966457924001
 10
186.8033967179
 20
183.0982141527001
 10
195.5614577835
 20
183.0982141527001
 10
195.5614577835
 20
185.2486309322001
 97
        0
 75
     0
 76
     1
 98
        1
 10
0.0
 20
0.0
450
        0
451
        0
460
0.0
461
0.0
452
        0
462
0.0
453
        0
470

  0
HATCH
  5
2A5
330
1F
100
AcDbEntity
  8
PDF _0
440
 33554559
100
AcDbHatch
 10
0.0
 20
0.0
 30
0.0
210
0.0
220
0.0
230
1.0
  2
SOLID
 70
     1
 71
     0
 91
        2
 92
        2
 72
     0
 73
     1
 93
      229
 10
192.0034954756
 20
186.5779794868
 10
191.847101528
 20
186.5779794868
 10
191.6907075804
 20
186.5779794868
 10
191.5343136328
 20
186.6170779737
 10
191.4170181721
 20
186.6170779737
 10
191.2606242245
 20
186.6170779737
 10
191.1042302769
 20
186.6170779737
 10
190.9869348162
 20
186.6170779737
 10
190.8305408686
 20
186.6561764606
 10
190.7132454079
 20
186.6561764606
 10
190.5568514603
 20
186.6561764606
 10
190.4395559996
 20
186.6952749475
 10
190.3222605389
 20
186.6952749475
 10
190.2049650782
 20
186.7343734344
 10
190.0485711306
 20
186.7343734344
 10
189.9312756699
 20
186.7734719213
 10
189.8139802092
 20
186.8125704082
 10
189.6966847485
 20
186.8125704082
 10
189.5793892878
 20
186.8516688951
 10
189.4620938271
 20
186.890767382
 10
189.3838968533
 20
186.890767382
 10
189.2666013926
 20
186.9298658689
 10
189.1493059319
 20
186.9689643558
 10
189.0320104712
 20
187.0080628427
 10
188.9538134974
 20
187.0471613296
 10
188.8365180367
 20
187.0862598165
 10
188.7583210629
 20
187.1253583034
 10
188.6410256022
 20
187.1644567903
 10
188.5628286284
 20
187.2035552772
 10
188.4846316546
 20
187.2426537641
 10
188.4064346808
 20
187.281752251
 10
188.2891392201
 20
187.3599492248
 10
188.2109422463
 20
187.3990477117
 10
188.1718437594
 20
187.4381461986
 10
188.0545482987
 20
187.5163431724
 10
187.937252838
 20
187.5945401462
 10
187.8590558642
 20
187.67273712
 10
187.7808588904
 20
187.7509340938
 10
187.6635634297
 20
187.8291310676
 10
187.5853664559
 20
187.9073280414
 10
187.5071694821
 20
187.9855250152
 10
187.4289725083
 20
188.063721989
 10
187.3898740214
 20
188.1419189628
 10
187.3116770476
 20
188.2592144235
 10
187.2334800738
 20
188.3374113973
 10
187.1943815869
 20
188.454706858
 10
187.1552831
 20
188.5329038318
 10
187.0770861262
 20
188.6501992925
 10
187.0379876393
 20
188.7674947532
 10
186.9988891524
 20
188.845691727
 10
186.9988891524
 20
188.9629871877
 10
186.9597906655
 20
189.0802826484
 10
186.9206921786
 20
189.1975781091
 10
186.9206921786
 20
189.3148735698
 10
186.8815936917
 20
189.4321690305
 10
186.8815936917
 20
189.5494644912
 10
186.8815936917
 20
189.7058584388
 10
186.8424952048
 20
189.8231538995
 10
186.8424952048
 20
189.8622523864
 10
186.8424952048
 20
189.9795478471
 10
186.8815936917
 20
190.0968433078
 10
186.8815936917
 20
190.1750402816
 10
186.8815936917
 20
190.2923357423
 10
186.8815936917
 20
190.3705327161
 10
186.9206921786
 20
190.4878281768
 10
186.9206921786
 20
190.5660251506
 10
186.9597906655
 20
190.6442221244
 10
186.9597906655
 20
190.7224190982
 10
186.9988891524
 20
190.8397145589
 10
187.0379876393
 20
190.9179115327
 10
187.0770861262
 20
190.9961085065
 10
187.1161846131
 20
191.0743054803
 10
187.1552831
 20
191.1525024541
 10
187.1943815869
 20
191.2306994279
 10
187.2334800738
 20
191.3088964017
 10
187.2725785607
 20
191.3870933755
 10
187.3116770476
 20
191.4652903493
 10
187.3898740214
 20
191.5434873231
 10
187.4289725083
 20
191.6216842969
 10
187.5071694821
 20
191.6607827838
 10
187.546267969
 20
191.7389797576
 10
187.6244649428
 20
191.8171767314
 10
187.6635634297
 20
191.8562752183
 10
187.7417604035
 20
191.9344721921
 10
187.8199573773
 20
191.973570679
 10
187.8981543511
 20
192.0517676528
 10
187.9763513249
 20
192.0908661397
 10
188.0545482987
 20
192.1299646266
 10
188.1327452725
 20
192.2081616004
 10
188.2500407332
 20
192.2472600873
 10
188.328237707
 20
192.2863585742
 10
188.4064346808
 20
192.3254570611
 10
188.5237301415
 20
192.4036540349
 10
188.6019271153
 20
192.4427525218
 10
188.719222576
 20
192.4818510087
 10
188.7974195498
 20
192.5209494956
 10
188.9147150105
 20
192.5600479825
 10
189.0320104712
 20
192.5991464694
 10
189.1493059319
 20
192.5991464694
 10
189.2666013926
 20
192.6382449563
 10
189.3838968533
 20
192.6773434432
 10
189.501192314
 20
192.7164419301
 10
189.6184877747
 20
192.755540417
 10
189.7357832354
 20
192.755540417
 10
189.892177183
 20
192.7946389039
 10
190.0094726437
 20
192.7946389039
 10
190.1658665913
 20
192.8337373908
 10
190.283162052
 20
192.8337373908
 10
190.4395559996
 20
192.8728358777
 10
190.5959499472
 20
192.8728358777
 10
190.7132454079
 20
192.8728358777
 10
190.8696393555
 20
192.9119343646
 10
191.0260333031
 20
192.9119343646
 10
191.1824272507
 20
192.9119343646
 10
191.3388211983
 20
192.9119343646
 10
191.4952151459
 20
192.9119343646
 10
191.6516090935
 20
192.9119343646
 10
191.7689045542
 20
192.9119343646
 10
191.9252985018
 20
192.9119343646
 10
192.0816924494
 20
192.9119343646
 10
192.238086397
 20
192.9119343646
 10
192.3553818577
 20
192.9119343646
 10
192.5117758053
 20
192.9119343646
 10
192.6681697529
 20
192.9119343646
 10
192.7854652136
 20
192.8728358777
 10
192.9418591612
 20
192.8728358777
 10
193.0591546219
 20
192.8728358777
 10
193.2155485695
 20
192.8337373908
 10
193.3328440302
 20
192.8337373908
 10
193.4501394909
 20
192.7946389039
 10
193.5674349516
 20
192.7946389039
 10
193.6847304123
 20
192.755540417
 10
193.802025873
 20
192.755540417
 10
193.9193213337
 20
192.7164419301
 10
194.0366167944
 20
192.6773434432
 10
194.1539122551
 20
192.6382449563
 10
194.2712077158
 20
192.6382449563
 10
194.3885031765
 20
192.5991464694
 10
194.5057986372
 20
192.5600479825
 10
194.583995611
 20
192.5209494956
 10
194.7012910717
 20
192.4818510087
 10
194.7794880455
 20
192.4427525218
 10
194.8967835062
 20
192.4036540349
 10
194.97498048
 20
192.364555548
 10
195.0922759407
 20
192.3254570611
 10
195.1704729145
 20
192.2472600873
 10
195.2486698883
 20
192.2081616004
 10
195.365965349
 20
192.1690631135
 10
195.4441623228
 20
192.1299646266
 10
195.4832608097
 20
192.0908661397
 10
195.6005562704
 20
192.0126691659
 10
195.6787532442
 20
191.9344721921
 10
195.7960487049
 20
191.8562752183
 10
195.8742456787
 20
191.7780782445
 10
195.9524426525
 20
191.6998812707
 10
196.0697381132
 20
191.58258581
 10
196.147935087
 20
191.5043888362
 10
196.1870335739
 20
191.4261918624
 10
196.2652305477
 20
191.3479948886
 10
196.3434275215
 20
191.2306994279
 10
196.3825260084
 20
191.1525024541
 10
196.4607229822
 20
191.0352069934
 10
196.4998214691
 20
190.9570100196
 10
196.538919956
 20
190.8397145589
 10
196.5780184429
 20
190.7224190982
 10
196.6171169298
 20
190.6442221244
 10
196.6562154167
 20
190.5269266637
 10
196.6953139036
 20
190.409631203
 10
196.7344123905
 20
190.2923357423
 10
196.7344123905
 20
190.1750402816
 10
196.7735108774
 20
190.0577448209
 10
196.7735108774
 20
189.9404493602
 10
196.7735108774
 20
189.7840554126
 10
196.7735108774
 20
189.6667599519
 10
196.7735108774
 20
189.6667599519
 10
196.7735108774
 20
189.5494644912
 10
196.7735108774
 20
189.3930705436
 10
196.7735108774
 20
189.2757750829
 10
196.7344123905
 20
189.1584796222
 10
196.7344123905
 20
189.0411841615
 10
196.6953139036
 20
188.9238887008
 10
196.6562154167
 20
188.8065932401
 10
196.6171169298
 20
188.7283962663
 10
196.5780184429
 20
188.6111008056
 10
196.538919956
 20
188.4938053449
 10
196.4998214691
 20
188.4156083711
 10
196.4216244953
 20
188.2983129104
 10
196.3825260084
 20
188.2201159366
 10
196.3043290346
 20
188.1028204759
 10
196.2652305477
 20
188.0246235021
 10
196.1870335739
 20
187.9464265283
 10
196.1088366001
 20
187.8291310676
 10
196.0306396263
 20
187.7509340938
 10
195.9133441656
 20
187.67273712
 10
195.8351471918
 20
187.5945401462
 10
195.756950218
 20
187.5163431724
 10
195.6396547573
 20
187.4381461986
 10
195.5614577835
 20
187.3990477117
 10
195.4832608097
 20
187.3599492248
 10
195.4050638359
 20
187.281752251
 10
195.3268668621
 20
187.2426537641
 10
195.2095714014
 20
187.2035552772
 10
195.1313744276
 20
187.1644567903
 10
195.0140789669
 20
187.1253583034
 10
194.9358819931
 20
187.0862598165
 10
194.8576850192999
 20
187.0471613296
 10
194.7403895586
 20
187.0080628427
 10
194.6230940979
 20
186.9689643558
 10
194.5448971241
 20
186.9298658689
 10
194.4276016634
 20
186.890767382
 10
194.3103062027
 20
186.8516688951
 10
194.193010742
 20
186.8125704082
 10
194.0757152813
 20
186.8125704082
 10
193.9584198206
 20
186.7734719213
 10
193.8411243599
 20
186.7343734344
 10
193.7238288992
 20
186.7343734344
 10
193.6065334385
 20
186.6952749475
 10
193.4501394909
 20
186.6952749475
 10
193.3328440302
 20
186.6561764606
 10
193.2155485695
 20
186.6561764606
 10
193.0591546219
 20
186.6561764606
 10
192.9418591612
 20
186.6170779737
 10
192.7854652136
 20
186.6170779737
 10
192.6681697529
 20
186.6170779737
 10
192.5117758053
 20
186.6170779737
 10
192.3553818577
 20
186.6170779737
 10
192.1989879101
 20
186.5779794868
 10
192.0425939625
 20
186.5779794868
 10
192.0034954756
 20
186.5779794868
 97
        0
 92
        2
 72
     0
 73
     1
 93
      176
 10
191.9643969887
 20
187.8291310676
 10
192.1207909363
 20
187.8291310676
 10
192.3162833708
 20
187.8291310676
 10
192.4726773184
 20
187.8291310676
 10
192.629071266
 20
187.8682295545
 10
192.7854652136
 20
187.8682295545
 10
192.9418591612
 20
187.8682295545
 10
193.0982531088
 20
187.8682295545
 10
193.2546470564
 20
187.9073280414
 10
193.411041004
 20
187.9073280414
 10
193.5283364647
 20
187.9464265283
 10
193.6847304123
 20
187.9464265283
 10
193.802025873
 20
187.9855250152
 10
193.9193213337
 20
188.0246235021
 10
194.0366167944
 20
188.0246235021
 10
194.1539122551
 20
188.063721989
 10
194.2712077158
 20
188.1028204759
 10
194.3885031765
 20
188.1419189628
 10
194.5057986372
 20
188.1810174497
 10
194.583995611
 20
188.2201159366
 10
194.7012910717
 20
188.2592144235
 10
194.7794880455
 20
188.2983129104
 10
194.8967835062
 20
188.3374113973
 10
194.97498048
 20
188.3765098842
 10
195.0531774538
 20
188.454706858
 10
195.1313744276
 20
188.4938053449
 10
195.2095714014
 20
188.5329038318
 10
195.2486698883
 20
188.6111008056
 10
195.3268668621
 20
188.6501992925
 10
195.365965349
 20
188.7283962663
 10
195.4441623228
 20
188.8065932401
 10
195.4832608097
 20
188.845691727
 10
195.5223592966
 20
188.9238887008
 10
195.5614577835
 20
189.0020856746
 10
195.6005562704
 20
189.0802826484
 10
195.6396547573
 20
189.1193811353
 10
195.6787532442
 20
189.1975781091
 10
195.7178517311
 20
189.2757750829
 10
195.7178517311
 20
189.3539720567
 10
195.756950218
 20
189.4321690305
 10
195.756950218
 20
189.5494644912
 10
195.756950218
 20
189.627661465
 10
195.756950218
 20
189.7058584388
 10
195.7960487049
 20
189.7840554126
 10
195.756950218
 20
189.8622523864
 10
195.756950218
 20
189.9404493602
 10
195.756950218
 20
190.018646334
 10
195.756950218
 20
190.0968433078
 10
195.7178517311
 20
190.1750402816
 10
195.7178517311
 20
190.2532372554
 10
195.6787532442
 20
190.3314342292
 10
195.6396547573
 20
190.409631203
 10
195.6005562704
 20
190.4878281768
 10
195.5614577835
 20
190.5660251506
 10
195.5223592966
 20
190.6442221244
 10
195.4832608097
 20
190.6833206113
 10
195.4050638359
 20
190.7615175851
 10
195.365965349
 20
190.800616072
 10
195.2877683752
 20
190.8788130458
 10
195.2486698883
 20
190.9179115327
 10
195.1704729145
 20
190.9961085065
 10
195.0922759407
 20
191.0352069934
 10
195.0140789669
 20
191.0743054803
 10
194.9358819931
 20
191.1525024541
 10
194.8576850192999
 20
191.191600941
 10
194.7403895586
 20
191.2306994279
 10
194.6621925848
 20
191.2697979148
 10
194.583995611
 20
191.3088964017
 10
194.4667001503
 20
191.3479948886
 10
194.3494046896
 20
191.3870933755
 10
194.2321092289
 20
191.4261918624
 10
194.1148137682
 20
191.4652903493
 10
193.9975183075
 20
191.4652903493
 10
193.8802228468
 20
191.5043888362
 10
193.7629273861
 20
191.5434873231
 10
193.6065334385
 20
191.5434873231
 10
193.4892379778
 20
191.58258581
 10
193.3328440302
 20
191.58258581
 10
193.2155485695
 20
191.6216842969
 10
193.0591546219
 20
191.6216842969
 10
192.9027606743
 20
191.6607827838
 10
192.7463667267
 20
191.6607827838
 10
192.5899727791
 20
191.6607827838
 10
192.3944803446
 20
191.6607827838
 10
192.238086397
 20
191.6607827838
 10
192.0816924494
 20
191.6998812707
 10
191.8862000149
 20
191.6998812707
 10
191.6907075804
 20
191.6998812707
 10
191.5343136328
 20
191.6607827838
 10
191.3779196852
 20
191.6607827838
 10
191.1824272507
 20
191.6607827838
 10
191.0260333031
 20
191.6607827838
 10
190.8696393555
 20
191.6607827838
 10
190.7132454079
 20
191.6216842969
 10
190.5568514603
 20
191.6216842969
 10
190.4004575127
 20
191.6216842969
 10
190.283162052
 20
191.58258581
 10
190.1267681044
 20
191.58258581
 10
189.9703741568
 20
191.5434873231
 10
189.8530786961
 20
191.5043888362
 10
189.7357832354
 20
191.5043888362
 10
189.6184877747
 20
191.4652903493
 10
189.501192314
 20
191.4261918624
 10
189.3838968533
 20
191.3870933755
 10
189.2666013926
 20
191.3479948886
 10
189.1493059319
 20
191.3479948886
 10
189.0711089581
 20
191.3088964017
 10
188.9538134974
 20
191.2697979148
 10
188.8756165236
 20
191.191600941
 10
188.7583210629
 20
191.1525024541
 10
188.6801240891
 20
191.1134039672
 10
188.6019271153
 20
191.0743054803
 10
188.5237301415
 20
191.0352069934
 10
188.4455331677
 20
190.9570100196
 10
188.4064346808
 20
190.9179115327
 10
188.328237707
 20
190.8788130458
 10
188.2500407332
 20
190.800616072
 10
188.2109422463
 20
190.7615175851
 10
188.1718437594
 20
190.6833206113
 10
188.0936467856
 20
190.6051236375
 10
188.0545482987
 20
190.5660251506
 10
188.0154498118
 20
190.4878281768
 10
188.0154498118
 20
190.409631203
 10
187.9763513249
 20
190.3314342292
 10
187.937252838
 20
190.2923357423
 10
187.8981543511
 20
190.2141387685
 10
187.8981543511
 20
190.1359417947
 10
187.8981543511
 20
190.0577448209
 10
187.8590558642
 20
189.9795478471
 10
187.8590558642
 20
189.8622523864
 10
187.8590558642
 20
189.8231538995
 10
187.8590558642
 20
189.7058584388
 10
187.8590558642
 20
189.627661465
 10
187.8981543511
 20
189.5494644912
 10
187.8981543511
 20
189.4712675174
 10
187.937252838
 20
189.3930705436
 10
187.937252838
 20
189.3148735698
 10
187.9763513249
 20
189.236676596
 10
188.0154498118
 20
189.1584796222
 10
188.0154498118
 20
189.0802826484
 10
188.0545482987
 20
189.0411841615
 10
188.0936467856
 20
188.9629871877
 10
188.1718437594
 20
188.8847902139
 10
188.2109422463
 20
188.845691727
 10
188.2500407332
 20
188.7674947532
 10
188.328237707
 20
188.7283962663
 10
188.3673361939
 20
188.6501992925
 10
188.4455331677
 20
188.6111008056
 10
188.5237301415
 20
188.5329038318
 10
188.6019271153
 20
188.4938053449
 10
188.6801240891
 20
188.454706858
 10
188.7583210629
 20
188.3765098842
 10
188.8365180367
 20
188.3374113973
 10
188.9538134974
 20
188.2983129104
 10
189.0320104712
 20
188.2592144235
 10
189.1493059319
 20
188.2201159366
 10
189.2275029057
 20
188.1810174497
 10
189.3447983664
 20
188.1419189628
 10
189.4620938271
 20
188.1028204759
 10
189.5793892878
 20
188.063721989
 10
189.6966847485
 20
188.063721989
 10
189.8139802092
 20
188.0246235021
 10
189.9312756699
 20
187.9855250152
 10
190.0485711306
 20
187.9855250152
 10
190.2049650782
 20
187.9464265283
 10
190.3222605389
 20
187.9464265283
 10
190.4786544865
 20
187.9073280414
 10
190.6350484341
 20
187.9073280414
 10
190.7914423817
 20
187.8682295545
 10
190.9478363293
 20
187.8682295545
 10
191.1042302769
 20
187.8682295545
 10
191.2606242245
 20
187.8291310676
 10
191.4170181721
 20
187.8291310676
 10
191.6125106066
 20
187.8291310676
 10
191.7689045542
 20
187.8291310676
 10
191.9643969887
 20
187.8291310676
 97
        0
 75
     0
 76
     1
 98
        1
 10
0.0
 20
0.0
450
        0
451
        0
460
0.0
461
0.0
452
        0
462
0.0
453
        0
470

  0
HATCH
  5
2A6
330
1F
100
AcDbEntity
  8
PDF _0
440
 33554559
100
AcDbHatch
 10
0.0
 20
0.0
 30
0.0
210
0.0
220
0.0
230
1.0
  2
SOLID
 70
     1
 71
     0
 91
        2
 92
        2
 72
     0
 73
     1
 93
      229
 10
192.0034954756
 20
194.0457904847001
 10
191.847101528
 20
194.0457904847001
 10
191.6907075804
 20
194.0457904847001
 10
191.5343136328
 20
194.0457904847001
 10
191.4170181721
 20
194.0457904847001
 10
191.2606242245
 20
194.0457904847001
 10
191.1042302769
 20
194.0457904847001
 10
190.9869348162
 20
194.0848889716001
 10
190.8305408686
 20
194.0848889716001
 10
190.7132454079
 20
194.0848889716001
 10
190.5568514603
 20
194.1239874585001
 10
190.4395559996
 20
194.1239874585001
 10
190.3222605389
 20
194.1630859454001
 10
190.2049650782
 20
194.1630859454001
 10
190.0485711306
 20
194.2021844323001
 10
189.9312756699
 20
194.2021844323001
 10
189.8139802092
 20
194.2412829192001
 10
189.6966847485
 20
194.2803814061001
 10
189.5793892878
 20
194.2803814061001
 10
189.4620938271
 20
194.319479893
 10
189.3838968533
 20
194.3585783799
 10
189.2666013926
 20
194.3976768668
 10
189.1493059319
 20
194.3976768668
 10
189.0320104712
 20
194.4367753537
 10
188.9538134974
 20
194.4758738406
 10
188.8365180367
 20
194.5149723275
 10
188.7583210629
 20
194.5540708144
 10
188.6410256022
 20
194.5931693013
 10
188.5628286284
 20
194.6713662751
 10
188.4846316546
 20
194.710464762
 10
188.4064346808
 20
194.7495632489
 10
188.2891392201
 20
194.7886617358
 10
188.2109422463
 20
194.8277602227
 10
188.1718437594
 20
194.8668587096
 10
188.0545482987
 20
194.9450556834
 10
187.937252838
 20
195.0232526572
 10
187.8590558642
 20
195.101449631
 10
187.7808588904
 20
195.1796466048
 10
187.6635634297
 20
195.2578435786
 10
187.5853664559
 20
195.3360405524
 10
187.5071694821
 20
195.4142375262
 10
187.4289725083
 20
195.4924345
 10
187.3898740214
 20
195.6097299607001
 10
187.3116770476
 20
195.6879269345001
 10
187.2334800738
 20
195.8052223952001
 10
187.1943815869
 20
195.883419369
 10
187.1552831
 20
196.0007148297
 10
187.0770861262
 20
196.0789118035
 10
187.0379876393
 20
196.1962072642
 10
186.9988891524
 20
196.3135027249001
 10
186.9988891524
 20
196.4307981856
 10
186.9597906655
 20
196.5089951594
 10
186.9206921786
 20
196.6262906201
 10
186.9206921786
 20
196.7435860808
 10
186.8815936917
 20
196.8999800284
 10
186.8815936917
 20
197.0172754891
 10
186.8815936917
 20
197.1345709498
 10
186.8424952048
 20
197.2518664105001
 10
186.8424952048
 20
197.3300633843001
 10
186.8424952048
 20
197.4082603581
 10
186.8815936917
 20
197.5255558188001
 10
186.8815936917
 20
197.6428512795001
 10
186.8815936917
 20
197.7210482533001
 10
186.8815936917
 20
197.8383437140001
 10
186.9206921786
 20
197.9165406878
 10
186.9206921786
 20
197.9947376616
 10
186.9597906655
 20
198.1120331223
 10
186.9597906655
 20
198.1902300961
 10
186.9988891524
 20
198.2684270699
 10
187.0379876393
 20
198.3466240437
 10
187.0770861262
 20
198.4248210175
 10
187.1161846131
 20
198.5421164782
 10
187.1552831
 20
198.620313452
 10
187.1943815869
 20
198.6985104258
 10
187.2334800738
 20
198.7767073996
 10
187.2725785607
 20
198.8158058865001
 10
187.3116770476
 20
198.8940028603001
 10
187.3898740214
 20
198.9721998341
 10
187.4289725083
 20
199.0503968079
 10
187.5071694821
 20
199.1285937817
 10
187.546267969
 20
199.1676922686
 10
187.6244649428
 20
199.2458892424
 10
187.6635634297
 20
199.3240862162
 10
187.7417604035
 20
199.3631847031
 10
187.8199573773
 20
199.4413816769001
 10
187.8981543511
 20
199.4804801638
 10
187.9763513249
 20
199.5195786507
 10
188.0545482987
 20
199.5977756245
 10
188.1327452725
 20
199.6368741114
 10
188.2500407332
 20
199.6759725983
 10
188.328237707
 20
199.7541695721
 10
188.4064346808
 20
199.7932680590001
 10
188.5237301415
 20
199.8323665459001
 10
188.6019271153
 20
199.8714650328001
 10
188.719222576
 20
199.9105635197001
 10
188.7974195498
 20
199.9496620066001
 10
188.9147150105
 20
199.9887604935
 10
189.0320104712
 20
200.0278589804
 10
189.1493059319
 20
200.0669574673
 10
189.2666013926
 20
200.1060559542001
 10
189.3838968533
 20
200.1060559542001
 10
189.501192314
 20
200.1451544411001
 10
189.6184877747
 20
200.1842529280001
 10
189.7357832354
 20
200.2233514149001
 10
189.892177183
 20
200.2233514149001
 10
190.0094726437
 20
200.2624499018001
 10
190.1658665913
 20
200.2624499018001
 10
190.283162052
 20
200.3015483887001
 10
190.4395559996
 20
200.3015483887001
 10
190.5959499472
 20
200.3015483887001
 10
190.7132454079
 20
200.3406468756001
 10
190.8696393555
 20
200.3406468756001
 10
191.0260333031
 20
200.3406468756001
 10
191.1824272507
 20
200.3406468756001
 10
191.3388211983
 20
200.3797453625001
 10
191.4952151459
 20
200.3797453625001
 10
191.6516090935
 20
200.3797453625001
 10
191.7689045542
 20
200.3797453625001
 10
191.9252985018
 20
200.3797453625001
 10
192.0816924494
 20
200.3797453625001
 10
192.238086397
 20
200.3797453625001
 10
192.3553818577
 20
200.3406468756001
 10
192.5117758053
 20
200.3406468756001
 10
192.6681697529
 20
200.3406468756001
 10
192.7854652136
 20
200.3406468756001
 10
192.9418591612
 20
200.3015483887001
 10
193.0591546219
 20
200.3015483887001
 10
193.2155485695
 20
200.3015483887001
 10
193.3328440302
 20
200.2624499018001
 10
193.4501394909
 20
200.2624499018001
 10
193.5674349516
 20
200.2233514149001
 10
193.6847304123
 20
200.2233514149001
 10
193.802025873
 20
200.1842529280001
 10
193.9193213337
 20
200.1451544411001
 10
194.0366167944
 20
200.1060559542001
 10
194.1539122551
 20
200.1060559542001
 10
194.2712077158
 20
200.0669574673
 10
194.3885031765
 20
200.0278589804
 10
194.5057986372
 20
199.9887604935
 10
194.583995611
 20
199.9496620066001
 10
194.7012910717
 20
199.9105635197001
 10
194.7794880455
 20
199.8714650328001
 10
194.8967835062
 20
199.8323665459001
 10
194.97498048
 20
199.7932680590001
 10
195.0922759407
 20
199.7541695721
 10
195.1704729145
 20
199.7150710852
 10
195.2486698883
 20
199.6368741114
 10
195.365965349
 20
199.5977756245
 10
195.4441623228
 20
199.5586771376
 10
195.4832608097
 20
199.5195786507
 10
195.6005562704
 20
199.4413816769001
 10
195.6787532442
 20
199.3631847031
 10
195.7960487049
 20
199.2849877293
 10
195.8742456787
 20
199.2067907555
 10
195.9524426525
 20
199.1285937817
 10
196.0697381132
 20
199.0503968079
 10
196.147935087
 20
198.9721998341
 10
196.1870335739
 20
198.8549043734001
 10
196.2652305477
 20
198.7767073996
 10
196.3434275215
 20
198.6985104258
 10
196.3825260084
 20
198.5812149651
 10
196.4607229822
 20
198.5030179913
 10
196.4998214691
 20
198.3857225306
 10
196.538919956
 20
198.2684270699
 10
196.5780184429
 20
198.1902300961
 10
196.6171169298
 20
198.0729346354
 10
196.6562154167
 20
197.9556391747
 10
196.6953139036
 20
197.8383437140001
 10
196.7344123905
 20
197.7210482533001
 10
196.7344123905
 20
197.6037527926001
 10
196.7735108774
 20
197.4864573319
 10
196.7735108774
 20
197.3691618712001
 10
196.7735108774
 20
197.2518664105001
 10
196.7735108774
 20
197.1345709498
 10
196.7735108774
 20
197.0954724629
 10
196.7735108774
 20
196.9781770022
 10
196.7735108774
 20
196.8608815415
 10
196.7735108774
 20
196.7435860808
 10
196.7344123905
 20
196.6262906201
 10
196.7344123905
 20
196.5089951594
 10
196.6953139036
 20
196.3916996987
 10
196.6562154167
 20
196.2744042380001
 10
196.6171169298
 20
196.1571087773
 10
196.5780184429
 20
196.0398133166
 10
196.538919956
 20
195.9616163428
 10
196.4998214691
 20
195.8443208821001
 10
196.4216244953
 20
195.7270254214001
 10
196.3825260084
 20
195.6488284476001
 10
196.3043290346
 20
195.5706314738
 10
196.2652305477
 20
195.4533360131
 10
196.1870335739
 20
195.3751390393
 10
196.1088366001
 20
195.2969420655001
 10
196.0306396263
 20
195.2187450917
 10
195.9133441656
 20
195.1405481179
 10
195.8351471918
 20
195.0623511441
 10
195.756950218
 20
194.9841541703
 10
195.6396547573
 20
194.9059571965
 10
195.5614577835
 20
194.8277602227
 10
195.4832608097
 20
194.7886617358
 10
195.4050638359
 20
194.7495632489
 10
195.3268668621
 20
194.6713662751
 10
195.2095714014
 20
194.6322677882
 10
195.1313744276
 20
194.5931693013
 10
195.0140789669
 20
194.5540708144
 10
194.9358819931
 20
194.5149723275
 10
194.8576850192999
 20
194.4758738406
 10
194.7403895586
 20
194.4367753537
 10
194.6230940979
 20
194.3976768668
 10
194.5448971241
 20
194.3585783799
 10
194.4276016634
 20
194.319479893
 10
194.3103062027
 20
194.2803814061001
 10
194.193010742
 20
194.2803814061001
 10
194.0757152813
 20
194.2412829192001
 10
193.9584198206
 20
194.2021844323001
 10
193.8411243599
 20
194.2021844323001
 10
193.7238288992
 20
194.1630859454001
 10
193.6065334385
 20
194.1630859454001
 10
193.4501394909
 20
194.1239874585001
 10
193.3328440302
 20
194.1239874585001
 10
193.2155485695
 20
194.0848889716001
 10
193.0591546219
 20
194.0848889716001
 10
192.9418591612
 20
194.0848889716001
 10
192.7854652136
 20
194.0457904847001
 10
192.6681697529
 20
194.0457904847001
 10
192.5117758053
 20
194.0457904847001
 10
192.3553818577
 20
194.0457904847001
 10
192.1989879101
 20
194.0457904847001
 10
192.0425939625
 20
194.0457904847001
 10
192.0034954756
 20
194.0457904847001
 97
        0
 92
        2
 72
     0
 73
     1
 93
      176
 10
191.9643969887
 20
195.2578435786
 10
192.1207909363
 20
195.2578435786
 10
192.3162833708
 20
195.2969420655001
 10
192.4726773184
 20
195.2969420655001
 10
192.629071266
 20
195.2969420655001
 10
192.7854652136
 20
195.2969420655001
 10
192.9418591612
 20
195.2969420655001
 10
193.0982531088
 20
195.3360405524
 10
193.2546470564
 20
195.3360405524
 10
193.411041004
 20
195.3751390393
 10
193.5283364647
 20
195.3751390393
 10
193.6847304123
 20
195.4142375262
 10
193.802025873
 20
195.4142375262
 10
193.9193213337
 20
195.4533360131
 10
194.0366167944
 20
195.4924345
 10
194.1539122551
 20
195.5315329869
 10
194.2712077158
 20
195.5315329869
 10
194.3885031765
 20
195.5706314738
 10
194.5057986372
 20
195.6097299607001
 10
194.583995611
 20
195.6488284476001
 10
194.7012910717
 20
195.6879269345001
 10
194.7794880455
 20
195.7270254214001
 10
194.8967835062
 20
195.8052223952001
 10
194.97498048
 20
195.8443208821001
 10
195.0531774538
 20
195.883419369
 10
195.1313744276
 20
195.9225178559
 10
195.2095714014
 20
196.0007148297
 10
195.2486698883
 20
196.0398133166
 10
195.3268668621
 20
196.1180102904
 10
195.365965349
 20
196.1571087773
 10
195.4441623228
 20
196.2353057511
 10
195.4832608097
 20
196.3135027249001
 10
195.5223592966
 20
196.3526012118001
 10
195.5614577835
 20
196.4307981856
 10
195.6005562704
 20
196.5089951594
 10
195.6396547573
 20
196.5871921332
 10
195.6787532442
 20
196.665389107
 10
195.7178517311
 20
196.7435860808
 10
195.7178517311
 20
196.8217830546
 10
195.756950218
 20
196.8999800284
 10
195.756950218
 20
196.9781770022
 10
195.756950218
 20
197.056373976
 10
195.756950218
 20
197.1345709498
 10
195.7960487049
 20
197.2127679236001
 10
195.756950218
 20
197.2909648974001
 10
195.756950218
 20
197.4082603581
 10
195.756950218
 20
197.4864573319
 10
195.756950218
 20
197.5646543057001
 10
195.7178517311
 20
197.6428512795001
 10
195.7178517311
 20
197.7210482533001
 10
195.6787532442
 20
197.7992452271001
 10
195.6396547573
 20
197.8774422009001
 10
195.6005562704
 20
197.9165406878
 10
195.5614577835
 20
197.9947376616
 10
195.5223592966
 20
198.0729346354
 10
195.4832608097
 20
198.1511316092
 10
195.4050638359
 20
198.1902300961
 10
195.365965349
 20
198.2684270699
 10
195.2877683752
 20
198.3075255568
 10
195.2486698883
 20
198.3857225306
 10
195.1704729145
 20
198.4248210175
 10
195.0922759407
 20
198.4639195044
 10
195.0140789669
 20
198.5421164782
 10
194.9358819931
 20
198.5812149651
 10
194.8576850192999
 20
198.620313452
 10
194.7403895586
 20
198.6594119389
 10
194.6621925848
 20
198.6985104258
 10
194.583995611
 20
198.7376089127
 10
194.4667001503
 20
198.7767073996
 10
194.3494046896
 20
198.8158058865001
 10
194.2321092289
 20
198.8549043734001
 10
194.1148137682
 20
198.8940028603001
 10
193.9975183075
 20
198.9331013472001
 10
193.8802228468
 20
198.9331013472001
 10
193.7629273861
 20
198.9721998341
 10
193.6065334385
 20
199.011298321
 10
193.4892379778
 20
199.011298321
 10
193.3328440302
 20
199.0503968079
 10
193.2155485695
 20
199.0503968079
 10
193.0591546219
 20
199.0894952948
 10
192.9027606743
 20
199.0894952948
 10
192.7463667267
 20
199.0894952948
 10
192.5899727791
 20
199.0894952948
 10
192.3944803446
 20
199.1285937817
 10
192.238086397
 20
199.1285937817
 10
192.0816924494
 20
199.1285937817
 10
191.8862000149
 20
199.1285937817
 10
191.6907075804
 20
199.1285937817
 10
191.5343136328
 20
199.1285937817
 10
191.3779196852
 20
199.1285937817
 10
191.1824272507
 20
199.1285937817
 10
191.0260333031
 20
199.0894952948
 10
190.8696393555
 20
199.0894952948
 10
190.7132454079
 20
199.0894952948
 10
190.5568514603
 20
199.0503968079
 10
190.4004575127
 20
199.0503968079
 10
190.283162052
 20
199.011298321
 10
190.1267681044
 20
199.011298321
 10
189.9703741568
 20
198.9721998341
 10
189.8530786961
 20
198.9721998341
 10
189.7357832354
 20
198.9331013472001
 10
189.6184877747
 20
198.8940028603001
 10
189.501192314
 20
198.8940028603001
 10
189.3838968533
 20
198.8549043734001
 10
189.2666013926
 20
198.8158058865001
 10
189.1493059319
 20
198.7767073996
 10
189.0711089581
 20
198.7376089127
 10
188.9538134974
 20
198.6985104258
 10
188.8756165236
 20
198.6594119389
 10
188.7583210629
 20
198.620313452
 10
188.6801240891
 20
198.5812149651
 10
188.6019271153
 20
198.5030179913
 10
188.5237301415
 20
198.4639195044
 10
188.4455331677
 20
198.4248210175
 10
188.4064346808
 20
198.3466240437
 10
188.328237707
 20
198.3075255568
 10
188.2500407332
 20
198.229328583
 10
188.2109422463
 20
198.1902300961
 10
188.1718437594
 20
198.1120331223
 10
188.0936467856
 20
198.0729346354
 10
188.0545482987
 20
197.9947376616
 10
188.0154498118
 20
197.9165406878
 10
188.0154498118
 20
197.8774422009001
 10
187.9763513249
 20
197.7992452271001
 10
187.937252838
 20
197.7210482533001
 10
187.8981543511
 20
197.6428512795001
 10
187.8981543511
 20
197.5646543057001
 10
187.8981543511
 20
197.4864573319
 10
187.8590558642
 20
197.4082603581
 10
187.8590558642
 20
197.3300633843001
 10
187.8590558642
 20
197.2518664105001
 10
187.8590558642
 20
197.1736694367
 10
187.8590558642
 20
197.0954724629
 10
187.8981543511
 20
197.0172754891
 10
187.8981543511
 20
196.8999800284
 10
187.937252838
 20
196.8217830546
 10
187.937252838
 20
196.7435860808
 10
187.9763513249
 20
196.7044875939
 10
188.0154498118
 20
196.6262906201
 10
188.0154498118
 20
196.5480936463
 10
188.0545482987
 20
196.4698966725
 10
188.0936467856
 20
196.3916996987
 10
188.1718437594
 20
196.3526012118001
 10
188.2109422463
 20
196.2744042380001
 10
188.2500407332
 20
196.1962072642
 10
188.328237707
 20
196.1571087773
 10
188.3673361939
 20
196.0789118035
 10
188.4455331677
 20
196.0398133166
 10
188.5237301415
 20
196.0007148297
 10
188.6019271153
 20
195.9225178559
 10
188.6801240891
 20
195.883419369
 10
188.7583210629
 20
195.8443208821001
 10
188.8365180367
 20
195.8052223952001
 10
188.9538134974
 20
195.7661239083001
 10
189.0320104712
 20
195.6879269345001
 10
189.1493059319
 20
195.6488284476001
 10
189.2275029057
 20
195.6097299607001
 10
189.3447983664
 20
195.6097299607001
 10
189.4620938271
 20
195.5706314738
 10
189.5793892878
 20
195.5315329869
 10
189.6966847485
 20
195.4924345
 10
189.8139802092
 20
195.4533360131
 10
189.9312756699
 20
195.4533360131
 10
190.0485711306
 20
195.4142375262
 10
190.2049650782
 20
195.3751390393
 10
190.3222605389
 20
195.3751390393
 10
190.4786544865
 20
195.3360405524
 10
190.6350484341
 20
195.3360405524
 10
190.7914423817
 20
195.3360405524
 10
190.9478363293
 20
195.2969420655001
 10
191.1042302769
 20
195.2969420655001
 10
191.2606242245
 20
195.2969420655001
 10
191.4170181721
 20
195.2969420655001
 10
191.6125106066
 20
195.2969420655001
 10
191.7689045542
 20
195.2578435786
 10
191.9643969887
 20
195.2578435786
 97
        0
 75
     0
 76
     1
 98
        1
 10
0.0
 20
0.0
450
        0
451
        0
460
0.0
461
0.0
452
        0
462
0.0
453
        0
470

  0
HATCH
  5
2A7
330
1F
100
AcDbEntity
  8
PDF _0
440
 33554559
100
AcDbHatch
 10
0.0
 20
0.0
 30
0.0
210
0.0
220
0.0
230
1.0
  2
SOLID
 70
     1
 71
     0
 91
        3
 92
        2
 72
     0
 73
     1
 93
       51
 10
20.63482739289995
 20
177.7026229605001
 10
20.67392587979995
 20
177.8590169081001
 10
20.67392587979995
 20
177.9763123688
 10
20.67392587979995
 20
177.9763123688
 10
20.67392587979995
 20
178.1327063164
 10
20.63482739289995
 20
178.289100264
 10
20.63482739289995
 20
178.4063957247
 10
20.59572890599995
 20
178.5627896723
 10
20.55663041909995
 20
178.680085133
 10
20.51753193219995
 20
178.8364790806
 10
20.47843344529995
 20
178.9537745413
 10
20.40023647149995
 20
179.071070002
 10
20.36113798459995
 20
179.1883654627
 10
20.28294101079995
 20
179.3056609234001
 10
20.20474403699995
 20
179.4229563841001
 10
20.08744857629995
 20
179.5402518448
 10
20.00925160249995
 20
179.6575473055
 10
19.97015311559995
 20
179.6966457924
 10
19.85285765489995
 20
179.7748427662
 10
19.73556219419995
 20
179.8921382269
 10
19.61826673349995
 20
179.9703352007
 10
19.50097127279995
 20
180.0485321745
 10
19.38367581209995
 20
180.1267291483
 10
19.26638035139995
 20
180.1658276352
 10
19.14908489069995
 20
180.244024609
 10
19.03178942999995
 20
180.2831230959
 10
18.87539548239995
 20
180.3222215828
 10
18.75810002169995
 20
180.3222215828
 10
18.60170607409995
 20
180.3613200697
 10
18.48441061339995
 20
180.3613200697
 10
18.32801666579995
 20
180.4004185566
 10
18.24981969199995
 20
180.4004185566
 10
18.09342574439995
 20
180.4004185566
 10
17.97613028369995
 20
180.3613200697
 10
17.81973633609995
 20
180.3613200697
 10
17.66334238849995
 20
180.3222215828
 10
17.54604692779995
 20
180.2831230959
 10
17.42875146709995
 20
180.244024609
 10
17.31145600639995
 20
180.2049261221
 10
17.15506205879995
 20
180.1658276352
 10
17.03776659809995
 20
180.0876306614
 10
16.95956962429995
 20
180.0485321745
 10
16.84227416359995
 20
179.9703352007
 10
16.72497870289995
 20
179.8921382269
 10
16.64678172909995
 20
179.7748427662
 10
16.52948626839995
 20
179.6966457924
 10
16.45128929459995
 20
179.5793503317
 10
16.37309232079995
 20
179.5011533579001
 10
16.29489534699995
 20
179.3838578972001
 10
16.21669837319995
 20
179.2274639496
 10
16.17759988629995
 20
179.1883654627
 97
        0
 92
        2
 72
     0
 73
     1
 93
      187
 10
21.57319107849995
 20
177.3898350653001
 10
22.74614568549995
 20
176.9988501963
 10
22.86344114619995
 20
176.9597517094
 10
22.98073660689995
 20
176.8424562487
 10
23.01983509379995
 20
176.7642592749
 10
23.05893358069995
 20
176.6078653273
 10
23.05893358069995
 20
176.5296683535
 10
23.05893358069995
 20
176.4123728928001
 10
23.01983509379995
 20
176.2950774321
 10
22.94163811999995
 20
176.1777819714
 10
22.86344114619995
 20
176.1386834845
 10
22.74614568549995
 20
176.0995849976
 10
22.58975173789995
 20
176.0604865107
 10
22.55065325099995
 20
176.0604865107
 10
22.51155476409995
 20
176.0995849976
 10
22.43335779029995
 20
176.0995849976
 10
22.31606232959995
 20
176.1386834845
 10
22.19876686889995
 20
176.1777819714
 10
22.04237292129995
 20
176.2168804583
 10
21.84688048679995
 20
176.2950774321
 10
21.65138805229995
 20
176.3732744059
 10
21.41679713089995
 20
176.4514713797
 10
21.26040318329995
 20
176.4905698666
 10
21.18220620949995
 20
176.334175919
 10
21.14310772259995
 20
176.2168804583
 10
21.06491074879995
 20
176.0995849976
 10
20.98671377499995
 20
175.9822895369
 10
20.86941831429995
 20
175.8649940762001
 10
20.79122134049995
 20
175.7867971024001
 10
20.71302436669995
 20
175.6695016417
 10
20.59572890599995
 20
175.552206181
 10
20.47843344529995
 20
175.4740092072
 10
20.40023647149995
 20
175.3958122334
 10
20.28294101079995
 20
175.2785167727
 10
20.16564555009995
 20
175.2003197989
 10
20.04835008939995
 20
175.1221228251
 10
20.04835008939995
 20
175.1221228251
 10
19.89195614179995
 20
175.0439258513
 10
19.77466068109995
 20
175.0048273644
 10
19.65736522039995
 20
174.9266303906
 10
19.54006975969995
 20
174.8875319037
 10
19.38367581209995
 20
174.8093349299
 10
19.26638035139995
 20
174.770236443
 10
19.10998640379995
 20
174.7311379561
 10
18.99269094309995
 20
174.6920394692
 10
18.83629699549995
 20
174.6920394692
 10
18.71900153479995
 20
174.6529409823
 10
18.56260758719995
 20
174.6529409823
 10
18.40621363959995
 20
174.6138424954
 10
18.28891817889995
 20
174.6138424954
 10
18.24981969199995
 20
174.6138424954
 10
18.13252423129995
 20
174.6138424954
 10
17.97613028369995
 20
174.6529409823
 10
17.81973633609995
 20
174.6529409823
 10
17.70244087539995
 20
174.6529409823
 10
17.54604692779995
 20
174.6920394692
 10
17.42875146709995
 20
174.7311379561
 10
17.27235751949995
 20
174.770236443
 10
17.15506205879995
 20
174.8093349299
 10
17.03776659809995
 20
174.8484334168001
 10
16.88137265049995
 20
174.8875319037
 10
16.76407718979995
 20
174.9657288775
 10
16.64678172909995
 20
175.0439258513
 10
16.52948626839995
 20
175.0830243382
 10
16.41219080769995
 20
175.161221312
 10
16.29489534699995
 20
175.2394182858
 10
16.17759988629995
 20
175.3567137465001
 10
16.06030442559995
 20
175.4349107203
 10
15.98210745179995
 20
175.5131076941
 10
15.86481199109995
 20
175.5913046679
 10
15.78661501729994
 20
175.7086001286
 10
15.66931955659995
 20
175.8258955893001
 10
15.59112258279995
 20
175.94319105
 10
15.51292560899995
 20
176.0604865107
 10
15.43472863519995
 20
176.1777819714
 10
15.35653166139995
 20
176.2950774321
 10
15.27833468759995
 20
176.4123728928001
 10
15.23923620069995
 20
176.5296683535
 10
15.16103922689995
 20
176.6469638142
 10
15.12194073999995
 20
176.7642592749
 10
15.08284225309995
 20
176.9206532225001
 10
15.04374376619995
 20
177.0379486832
 10
15.00464527929995
 20
177.1552441439
 10
14.96554679239995
 20
177.3116380915
 10
14.92644830549995
 20
177.4289335522001
 10
14.92644830549995
 20
177.5853274998
 10
14.92644830549995
 20
177.7417214474001
 10
14.88734981859995
 20
177.8590169081001
 10
14.88734981859995
 20
177.9763123688
 10
14.88734981859995
 20
178.1327063164
 10
14.92644830549995
 20
178.2500017771
 10
14.92644830549995
 20
178.4063957247
 10
14.96554679239995
 20
178.5627896723
 10
14.96554679239995
 20
178.6018881592
 10
13.79259218539995
 20
178.9537745413
 10
13.67529672469995
 20
179.0319715151
 10
13.55800126399995
 20
179.1101684889
 10
13.47980429019995
 20
179.2274639496
 10
13.47980429019995
 20
179.3447594103001
 10
13.47980429019995
 20
179.4229563841001
 10
13.47980429019995
 20
179.5793503317
 10
13.51890277709995
 20
179.6966457924
 10
13.59709975089995
 20
179.7748427662
 10
13.67529672469995
 20
179.85303974
 10
13.79259218539995
 20
179.8921382269
 10
13.94898613299995
 20
179.8921382269
 10
13.98808461989994
 20
179.8921382269
 10
14.02718310679995
 20
179.8921382269
 10
14.10538008059995
 20
179.85303974
 10
14.22267554129995
 20
179.85303974
 10
14.33997100199995
 20
179.8139412531
 10
14.49636494959994
 20
179.7357442793
 10
14.65275889719995
 20
179.6966457924
 10
14.88734981859995
 20
179.6184488186
 10
15.12194073999995
 20
179.5402518448
 10
15.23923620069995
 20
179.5011533579001
 10
15.31743317449994
 20
179.6184488186
 10
15.39563014829995
 20
179.7357442793
 10
15.47382712209994
 20
179.85303974
 10
15.55202409589995
 20
179.9703352007
 10
15.63022106969995
 20
180.0876306614
 10
15.74751653039995
 20
180.2049261221
 10
15.82571350419995
 20
180.3222215828
 10
15.94300896489995
 20
180.4004185566
 10
16.02120593869995
 20
180.5177140173
 10
16.13850139939995
 20
180.5959109911
 10
16.25579686009995
 20
180.6741079649
 10
16.37309232079995
 20
180.7523049387
 10
16.49038778149995
 20
180.8305019125
 10
16.49038778149995
 20
180.8305019125
 10
16.60768324219995
 20
180.9086988863001
 10
16.76407718979995
 20
180.9868958601001
 10
16.88137265049995
 20
181.0650928339
 10
16.99866811119995
 20
181.1041913208
 10
17.15506205879995
 20
181.1432898077
 10
17.27235751949995
 20
181.1823882946
 10
17.38965298019994
 20
181.2214867815001
 10
17.54604692779995
 20
181.2605852684001
 10
17.70244087539995
 20
181.2996837553001
 10
17.81973633609995
 20
181.3387822422001
 10
17.97613028369995
 20
181.3387822422001
 10
18.09342574439995
 20
181.3387822422001
 10
18.24981969199995
 20
181.3387822422001
 10
18.24981969199995
 20
181.3387822422001
 10
18.40621363959995
 20
181.3387822422001
 10
18.56260758719995
 20
181.3387822422001
 10
18.67990304789995
 20
181.3387822422001
 10
18.83629699549995
 20
181.2996837553001
 10
18.99269094309995
 20
181.2605852684001
 10
19.10998640379995
 20
181.2605852684001
 10
19.22728186449995
 20
181.2214867815001
 10
19.38367581209995
 20
181.1823882946
 10
19.50097127279995
 20
181.1041913208
 10
19.61826673349995
 20
181.0650928339
 10
19.77466068109995
 20
181.0259943470001
 10
19.89195614179995
 20
180.9477973732001
 10
20.00925160249995
 20
180.8696003994
 10
20.12654706319995
 20
180.7914034256
 10
20.24384252389995
 20
180.7132064518
 10
20.32203949769995
 20
180.635009478
 10
20.43933495839995
 20
180.5568125042
 10
20.55663041909995
 20
180.4395170435
 10
20.63482739289995
 20
180.3613200697
 10
20.75212285359995
 20
180.244024609
 10
20.83031982739995
 20
180.1658276352
 10
20.94761528809995
 20
180.0485321745
 10
21.02581226189995
 20
179.9312367138
 10
21.10400923569995
 20
179.8139412531
 10
21.18220620949995
 20
179.6966457924
 10
21.22130469639995
 20
179.5793503317
 10
21.29950167019995
 20
179.4620548710001
 10
21.33860015709995
 20
179.3447594103001
 10
21.41679713089995
 20
179.1883654627
 10
21.45589561779995
 20
179.071070002
 10
21.49499410469995
 20
178.9537745413
 10
21.53409259159995
 20
178.7973805937
 10
21.57319107849995
 20
178.680085133
 10
21.57319107849995
 20
178.5236911854
 10
21.61228956539995
 20
178.4063957247
 10
21.61228956539995
 20
178.2500017771
 10
21.61228956539995
 20
178.0936078295
 10
21.61228956539995
 20
177.9763123688
 10
21.61228956539995
 20
177.8199184212001
 10
21.61228956539995
 20
177.7026229605001
 10
21.61228956539995
 20
177.5462290129
 10
21.57319107849995
 20
177.4289335522001
 10
21.57319107849995
 20
177.3898350653001
 97
        0
 92
        2
 72
     0
 73
     1
 93
       52
 10
20.36113798459995
 20
176.8033577618
 10
15.86481199109995
 20
178.289100264
 10
15.86481199109995
 20
178.1327063164
 10
15.86481199109995
 20
178.0154108557
 10
15.86481199109995
 20
177.9763123688
 10
15.86481199109995
 20
177.8590169081001
 10
15.86481199109995
 20
177.7026229605001
 10
15.90391047799995
 20
177.5462290129
 10
15.94300896489995
 20
177.4289335522001
 10
15.94300896489995
 20
177.2725396046
 10
16.02120593869995
 20
177.1552441439
 10
16.06030442559995
 20
177.0379486832
 10
16.09940291249994
 20
176.9206532225001
 10
16.17759988629995
 20
176.8033577618
 10
16.25579686009995
 20
176.6860623011
 10
16.33399383389995
 20
176.5687668404
 10
16.41219080769995
 20
176.4514713797
 10
16.52948626839995
 20
176.334175919
 10
16.56858475529995
 20
176.2950774321
 10
16.68588021599995
 20
176.1777819714
 10
16.76407718979995
 20
176.0995849976
 10
16.88137265049995
 20
176.0213880238
 10
16.99866811119995
 20
175.94319105
 10
17.11596357189995
 20
175.8649940762001
 10
17.23325903259995
 20
175.7867971024001
 10
17.38965298019994
 20
175.7476986155
 10
17.50694844089995
 20
175.7086001286
 10
17.62424390159995
 20
175.6695016417
 10
17.78063784919995
 20
175.6304031548
 10
17.89793330989995
 20
175.5913046679
 10
18.05432725749995
 20
175.5913046679
 10
18.21072120509995
 20
175.5913046679
 10
18.24981969199995
 20
175.5913046679
 10
18.40621363959995
 20
175.5913046679
 10
18.56260758719995
 20
175.5913046679
 10
18.67990304789995
 20
175.6304031548
 10
18.83629699549995
 20
175.6304031548
 10
18.95359245619995
 20
175.6695016417
 10
19.07088791689995
 20
175.7086001286
 10
19.22728186449995
 20
175.7476986155
 10
19.34457732519995
 20
175.8258955893001
 10
19.46187278589995
 20
175.8649940762001
 10
19.57916824659995
 20
175.94319105
 10
19.65736522039995
 20
176.0213880238
 10
19.77466068109995
 20
176.0995849976
 10
19.89195614179995
 20
176.1777819714
 10
19.97015311559995
 20
176.2950774321
 10
20.04835008939995
 20
176.4123728928001
 10
20.16564555009995
 20
176.4905698666
 10
20.24384252389995
 20
176.6078653273
 10
20.32203949769995
 20
176.7642592749
 10
20.36113798459995
 20
176.8033577618
 97
        0
 75
     0
 76
     1
 98
        1
 10
0.0
 20
0.0
450
        0
451
        0
460
0.0
461
0.0
452
        0
462
0.0
453
        0
470

  0
HATCH
  5
2A8
330
1F
100
AcDbEntity
  8
PDF _0
440
 33554559
100
AcDbHatch
 10
0.0
 20
0.0
 30
0.0
210
0.0
220
0.0
230
1.0
  2
SOLID
 70
     1
 71
     0
 91
        2
 92
        2
 72
     0
 73
     1
 93
      298
 10
21.76868351299996
 20
183.4501005348
 10
21.80778199989996
 20
183.5673959955
 10
21.88597897369996
 20
183.6846914562
 10
21.92507746059996
 20
183.8019869169
 10
21.96417594749996
 20
183.8801838907
 10
22.00327443439995
 20
183.9974793514
 10
22.04237292129996
 20
184.1147748121001
 10
22.08147140819995
 20
184.2320702728
 10
22.12056989509996
 20
184.3493657335
 10
22.15966838199996
 20
184.4666611942001
 10
22.15966838199996
 20
184.5839566549001
 10
22.19876686889996
 20
184.7012521156001
 10
22.19876686889996
 20
184.8185475763001
 10
22.19876686889996
 20
184.9749415239001
 10
22.23786535579996
 20
185.0922369846001
 10
22.23786535579996
 20
185.1704339584001
 10
22.19876686889996
 20
185.2877294191
 10
22.19876686889996
 20
185.4050248798
 10
22.19876686889996
 20
185.5614188274
 10
22.15966838199996
 20
185.6787142881
 10
22.15966838199996
 20
185.7960097488
 10
22.12056989509996
 20
185.9133052095
 10
22.08147140819995
 20
185.9915021833
 10
22.04237292129996
 20
186.1087976440001
 10
22.00327443439995
 20
186.2260931047001
 10
21.96417594749996
 20
186.3042900785
 10
21.88597897369996
 20
186.4215855392
 10
21.84688048679996
 20
186.5388809999
 10
21.76868351299996
 20
186.6170779737
 10
21.69048653919996
 20
186.6952749475001
 10
21.65138805229996
 20
186.7734719213001
 10
21.53409259159996
 20
186.890767382
 10
21.45589561779996
 20
186.9689643558001
 10
21.37769864399996
 20
187.0471613296001
 10
21.26040318329996
 20
187.1253583034001
 10
21.22130469639996
 20
187.1644567903001
 10
21.10400923569995
 20
187.2035552772001
 10
21.02581226189996
 20
187.2817522510001
 10
20.94761528809996
 20
187.3208507379
 10
20.86941831429996
 20
187.3599492248
 10
20.75212285359996
 20
187.4381461986
 10
20.67392587979996
 20
187.4772446855
 10
20.55663041909996
 20
187.5163431724
 10
20.47843344529995
 20
187.5554416593
 10
20.36113798459996
 20
187.5945401462
 10
20.24384252389996
 20
187.6336386331001
 10
20.12654706319996
 20
187.6727371200001
 10
20.00925160249996
 20
187.6727371200001
 10
19.89195614179995
 20
187.7118356069001
 10
19.77466068109995
 20
187.7509340938001
 10
19.65736522039996
 20
187.7509340938001
 10
19.54006975969996
 20
187.7900325807001
 10
19.42277429899995
 20
187.7900325807001
 10
19.26638035139995
 20
187.8291310676001
 10
19.14908489069995
 20
187.8291310676001
 10
18.99269094309995
 20
187.8291310676001
 10
18.87539548239995
 20
187.8682295545
 10
18.71900153479995
 20
187.8682295545
 10
18.60170607409995
 20
187.8682295545
 10
18.44531212649996
 20
187.8682295545
 10
18.32801666579996
 20
187.8682295545
 10
18.32801666579996
 20
187.8291310676001
 10
18.32801666579996
 20
187.8291310676001
 10
18.40621363959995
 20
187.7900325807001
 10
18.52350910029995
 20
187.7118356069001
 10
18.60170607409995
 20
187.6727371200001
 10
18.71900153479995
 20
187.5945401462
 10
18.79719850859995
 20
187.5163431724
 10
18.87539548239995
 20
187.4381461986
 10
18.95359245619996
 20
187.3599492248
 10
19.03178942999995
 20
187.2817522510001
 10
19.10998640379995
 20
187.2035552772001
 10
19.14908489069995
 20
187.0862598165001
 10
19.22728186449996
 20
187.0080628427001
 10
19.26638035139995
 20
186.890767382
 10
19.30547883829995
 20
186.8125704082
 10
19.34457732519996
 20
186.6952749475001
 10
19.38367581209995
 20
186.5779794868
 10
19.42277429899995
 20
186.4606840261
 10
19.46187278589995
 20
186.3433885654
 10
19.46187278589995
 20
186.2260931047001
 10
19.50097127279995
 20
186.1087976440001
 10
19.50097127279995
 20
185.9915021833
 10
19.50097127279995
 20
185.8742067226
 10
19.50097127279995
 20
185.7178127750001
 10
19.50097127279995
 20
185.6005173143
 10
19.50097127279995
 20
185.4832218536
 10
19.50097127279995
 20
185.326827906
 10
19.46187278589995
 20
185.2095324453001
 10
19.46187278589995
 20
185.0922369846001
 10
19.42277429899995
 20
184.9749415239001
 10
19.38367581209995
 20
184.8576460632001
 10
19.34457732519996
 20
184.7403506025001
 10
19.30547883829995
 20
184.6621536287001
 10
19.26638035139995
 20
184.5448581680001
 10
19.22728186449996
 20
184.4275627073001
 10
19.18818337759995
 20
184.3493657335
 10
19.10998640379995
 20
184.2320702728
 10
19.03178942999995
 20
184.1538732990001
 10
18.99269094309995
 20
184.0365778383
 10
18.91449396929995
 20
183.9583808645
 10
18.83629699549995
 20
183.8410854038
 10
18.71900153479995
 20
183.76288843
 10
18.67990304789995
 20
183.7237899431
 10
18.60170607409995
 20
183.6455929693
 10
18.52350910029995
 20
183.5673959955
 10
18.40621363959995
 20
183.4891990217
 10
18.32801666579996
 20
183.4110020479
 10
18.24981969199996
 20
183.371903561
 10
18.13252423129995
 20
183.2937065872
 10
18.01522877059995
 20
183.2546081003
 10
17.93703179679996
 20
183.2155096134
 10
17.81973633609995
 20
183.1764111265001
 10
17.70244087539995
 20
183.0982141527001
 10
17.58514541469995
 20
183.0982141527001
 10
17.46784995399995
 20
183.0591156658001
 10
17.35055449329995
 20
183.0200171789001
 10
17.23325903259995
 20
182.9809186920001
 10
17.11596357189995
 20
182.9809186920001
 10
16.99866811119995
 20
182.9418202051001
 10
16.88137265049995
 20
182.9418202051001
 10
16.72497870289995
 20
182.9418202051001
 10
16.60768324219995
 20
182.9418202051001
 10
16.52948626839996
 20
182.9418202051001
 10
16.41219080769995
 20
182.9418202051001
 10
16.25579686009995
 20
182.9418202051001
 10
16.13850139939995
 20
182.9418202051001
 10
16.02120593869995
 20
182.9418202051001
 10
15.90391047799995
 20
182.9809186920001
 10
15.78661501729995
 20
182.9809186920001
 10
15.63022106969995
 20
183.0200171789001
 10
15.51292560899995
 20
183.0591156658001
 10
15.43472863519995
 20
183.0982141527001
 10
15.31743317449995
 20
183.1373126396001
 10
15.20013771379995
 20
183.1764111265001
 10
15.08284225309995
 20
183.2155096134
 10
14.96554679239995
 20
183.2546081003
 10
14.88734981859995
 20
183.2937065872
 10
14.77005435789995
 20
183.371903561
 10
14.69185738409995
 20
183.4110020479
 10
14.57456192339995
 20
183.4891990217
 10
14.49636494959995
 20
183.5673959955
 10
14.37906948889995
 20
183.6455929693
 10
14.30087251509995
 20
183.7237899431
 10
14.22267554129995
 20
183.8019869169
 10
14.22267554129995
 20
183.8019869169
 10
14.10538008059995
 20
183.8801838907
 10
14.02718310679995
 20
183.9583808645
 10
13.94898613299995
 20
184.0756763252
 10
13.90988764609995
 20
184.1538732990001
 10
13.83169067229995
 20
184.2320702728
 10
13.75349369849995
 20
184.3493657335
 10
13.71439521159995
 20
184.4275627073001
 10
13.63619823779995
 20
184.5448581680001
 10
13.59709975089995
 20
184.6621536287001
 10
13.55800126399995
 20
184.7403506025001
 10
13.51890277709995
 20
184.8576460632001
 10
13.47980429019995
 20
184.9749415239001
 10
13.44070580329995
 20
185.0922369846001
 10
13.40160731639995
 20
185.2095324453001
 10
13.36250882949995
 20
185.326827906
 10
13.36250882949995
 20
185.4441233667
 10
13.32341034259995
 20
185.5614188274
 10
13.32341034259995
 20
185.6787142881
 10
13.32341034259995
 20
185.7960097488
 10
13.28431185569995
 20
185.9524036964
 10
13.28431185569995
 20
186.0306006702001
 10
13.28431185569995
 20
186.1869946178001
 10
13.32341034259995
 20
186.3042900785
 10
13.32341034259995
 20
186.4215855392
 10
13.32341034259995
 20
186.5388809999
 10
13.36250882949995
 20
186.6561764606001
 10
13.40160731639995
 20
186.7734719213001
 10
13.40160731639995
 20
186.890767382
 10
13.44070580329995
 20
187.0080628427001
 10
13.47980429019995
 20
187.1253583034001
 10
13.51890277709995
 20
187.2035552772001
 10
13.59709975089995
 20
187.3208507379
 10
13.63619823779995
 20
187.4381461986
 10
13.67529672469995
 20
187.5163431724
 10
13.75349369849995
 20
187.6336386331001
 10
13.83169067229995
 20
187.7118356069001
 10
13.90988764609995
 20
187.7900325807001
 10
13.98808461989995
 20
187.8682295545
 10
14.06628159369995
 20
187.9855250152001
 10
14.14447856749995
 20
188.0637219890001
 10
14.22267554129995
 20
188.1419189628001
 10
14.33997100199995
 20
188.2201159366001
 10
14.41816797579995
 20
188.2983129104001
 10
14.49636494959995
 20
188.3374113973
 10
14.57456192339995
 20
188.3765098842
 10
14.69185738409995
 20
188.454706858
 10
14.77005435789995
 20
188.4938053449
 10
14.84825133169995
 20
188.5329038318
 10
14.96554679239995
 20
188.5720023187001
 10
15.04374376619995
 20
188.6501992925001
 10
15.16103922689995
 20
188.6892977794001
 10
15.23923620069995
 20
188.7283962663001
 10
15.35653166139995
 20
188.7674947532001
 10
15.47382712209995
 20
188.8065932401001
 10
15.55202409589995
 20
188.8065932401001
 10
15.66931955659995
 20
188.8456917270001
 10
15.78661501729995
 20
188.8847902139
 10
15.90391047799995
 20
188.9238887008
 10
16.02120593869995
 20
188.9238887008
 10
16.13850139939995
 20
188.9629871877
 10
16.29489534699995
 20
188.9629871877
 10
16.41219080769995
 20
189.0020856746
 10
16.52948626839996
 20
189.0020856746
 10
16.68588021599995
 20
189.0411841615
 10
16.80317567669995
 20
189.0411841615
 10
16.95956962429995
 20
189.0411841615
 10
17.07686508499995
 20
189.0802826484
 10
17.23325903259995
 20
189.0802826484
 10
17.38965298019995
 20
189.0802826484
 10
17.50694844089995
 20
189.0802826484
 10
17.66334238849995
 20
189.0802826484
 10
17.70244087539995
 20
189.0802826484
 10
17.85883482299995
 20
189.0802826484
 10
18.01522877059995
 20
189.0802826484
 10
18.13252423129995
 20
189.0802826484
 10
18.28891817889995
 20
189.0802826484
 10
18.44531212649996
 20
189.0802826484
 10
18.56260758719995
 20
189.0411841615
 10
18.71900153479995
 20
189.0411841615
 10
18.83629699549995
 20
189.0411841615
 10
18.99269094309995
 20
189.0020856746
 10
19.10998640379995
 20
189.0020856746
 10
19.22728186449996
 20
189.0020856746
 10
19.38367581209995
 20
188.9629871877
 10
19.50097127279995
 20
188.9629871877
 10
19.61826673349995
 20
188.9238887008
 10
19.73556219419996
 20
188.8847902139
 10
19.85285765489996
 20
188.8847902139
 10
19.97015311559995
 20
188.8456917270001
 10
20.08744857629995
 20
188.8065932401001
 10
20.20474403699996
 20
188.7674947532001
 10
20.32203949769995
 20
188.7674947532001
 10
20.43933495839996
 20
188.7283962663001
 10
20.55663041909996
 20
188.6892977794001
 10
20.63482739289996
 20
188.6501992925001
 10
20.75212285359996
 20
188.6111008056001
 10
20.86941831429996
 20
188.5720023187001
 10
20.94761528809996
 20
188.5329038318
 10
21.06491074879996
 20
188.4938053449
 10
21.14310772259996
 20
188.4156083711
 10
21.26040318329996
 20
188.3765098842
 10
21.33860015709996
 20
188.3374113973
 10
21.41679713089995
 20
188.2983129104001
 10
21.49499410469996
 20
188.2201159366001
 10
21.61228956539996
 20
188.1810174497001
 10
21.69048653919996
 20
188.1419189628001
 10
21.76868351299996
 20
188.0637219890001
 10
21.80778199989996
 20
188.0637219890001
 10
21.88597897369996
 20
187.9855250152001
 10
22.00327443439995
 20
187.9073280414
 10
22.08147140819995
 20
187.8291310676001
 10
22.15966838199996
 20
187.7509340938001
 10
22.23786535579996
 20
187.6336386331001
 10
22.35516081649996
 20
187.5554416593
 10
22.43335779029996
 20
187.4772446855
 10
22.47245627719996
 20
187.3990477117
 10
22.55065325099996
 20
187.2817522510001
 10
22.62885022479996
 20
187.2035552772001
 10
22.70704719859995
 20
187.1253583034001
 10
22.74614568549996
 20
187.0080628427001
 10
22.82434265929996
 20
186.9298658689
 10
22.86344114619996
 20
186.8125704082
 10
22.90253963309996
 20
186.6952749475001
 10
22.94163811999996
 20
186.6170779737
 10
22.98073660689996
 20
186.499782513
 10
23.01983509379996
 20
186.3824870523
 10
23.05893358069996
 20
186.2651915916001
 10
23.09803206759996
 20
186.1478961309001
 10
23.13713055449996
 20
186.0696991571001
 10
23.13713055449996
 20
185.9524036964
 10
23.17622904139996
 20
185.7960097488
 10
23.17622904139996
 20
185.6787142881
 10
23.21532752829996
 20
185.5614188274
 10
23.21532752829996
 20
185.4441233667
 10
23.21532752829996
 20
185.326827906
 10
23.21532752829996
 20
185.1704339584001
 10
23.21532752829996
 20
185.1704339584001
 10
23.21532752829996
 20
185.0140400108001
 10
23.21532752829996
 20
184.8967445501001
 10
23.21532752829996
 20
184.7403506025001
 10
23.21532752829996
 20
184.6230551418001
 10
23.17622904139996
 20
184.5057596811001
 10
23.17622904139996
 20
184.3884642204
 10
23.13713055449996
 20
184.2711687597
 10
23.13713055449996
 20
184.1147748121001
 10
23.09803206759996
 20
184.0365778383
 10
23.05893358069996
 20
183.9192823776
 10
23.01983509379996
 20
183.8019869169
 10
22.98073660689996
 20
183.6846914562
 10
22.94163811999996
 20
183.6064944824
 10
22.90253963309996
 20
183.4891990217
 10
22.90253963309996
 20
183.4501005348
 97
        0
 92
        2
 72
     0
 73
     1
 93
      109
 10
16.37309232079995
 20
184.1538732990001
 10
16.52948626839996
 20
184.1538732990001
 10
16.64678172909995
 20
184.1538732990001
 10
16.76407718979995
 20
184.1929717859001
 10
16.92047113739995
 20
184.1929717859001
 10
17.03776659809995
 20
184.2320702728
 10
17.15506205879995
 20
184.2320702728
 10
17.27235751949995
 20
184.2711687597
 10
17.38965298019995
 20
184.3102672466
 10
17.46784995399995
 20
184.3884642204
 10
17.58514541469995
 20
184.4275627073001
 10
17.66334238849995
 20
184.4666611942001
 10
17.78063784919995
 20
184.5448581680001
 10
17.85883482299995
 20
184.6230551418001
 10
17.89793330989995
 20
184.6621536287001
 10
17.97613028369995
 20
184.7403506025001
 10
18.05432725749995
 20
184.8185475763001
 10
18.13252423129995
 20
184.8967445501001
 10
18.21072120509995
 20
185.0140400108001
 10
18.24981969199996
 20
185.0922369846001
 10
18.32801666579996
 20
185.2095324453001
 10
18.36711515269995
 20
185.2877294191
 10
18.40621363959995
 20
185.4050248798
 10
18.44531212649996
 20
185.5223203405
 10
18.44531212649996
 20
185.6396158012
 10
18.48441061339995
 20
185.7960097488
 10
18.48441061339995
 20
185.9133052095
 10
18.48441061339995
 20
186.0306006702001
 10
18.48441061339995
 20
186.1478961309001
 10
18.44531212649996
 20
186.2651915916001
 10
18.44531212649996
 20
186.3824870523
 10
18.40621363959995
 20
186.499782513
 10
18.36711515269995
 20
186.6170779737
 10
18.32801666579996
 20
186.7343734344001
 10
18.28891817889995
 20
186.8516688951
 10
18.24981969199996
 20
186.9298658689
 10
18.17162271819995
 20
187.0471613296001
 10
18.09342574439995
 20
187.1253583034001
 10
18.01522877059995
 20
187.2426537641001
 10
17.93703179679996
 20
187.2817522510001
 10
17.85883482299995
 20
187.3599492248
 10
17.78063784919995
 20
187.4381461986
 10
17.66334238849995
 20
187.5163431724
 10
17.58514541469995
 20
187.5945401462
 10
17.46784995399995
 20
187.6336386331001
 10
17.35055449329995
 20
187.6727371200001
 10
17.23325903259995
 20
187.7118356069001
 10
17.15506205879995
 20
187.7509340938001
 10
17.03776659809995
 20
187.7900325807001
 10
16.88137265049995
 20
187.7900325807001
 10
16.76407718979995
 20
187.7900325807001
 10
16.68588021599995
 20
187.7900325807001
 10
16.56858475529995
 20
187.7900325807001
 10
16.45128929459995
 20
187.7900325807001
 10
16.29489534699995
 20
187.7900325807001
 10
16.17759988629995
 20
187.7509340938001
 10
16.06030442559995
 20
187.7509340938001
 10
15.94300896489995
 20
187.7118356069001
 10
15.82571350419995
 20
187.7118356069001
 10
15.70841804349995
 20
187.6727371200001
 10
15.59112258279995
 20
187.6336386331001
 10
15.47382712209995
 20
187.5945401462
 10
15.39563014829995
 20
187.5163431724
 10
15.27833468759995
 20
187.4772446855
 10
15.16103922689995
 20
187.4381461986
 10
15.08284225309995
 20
187.3599492248
 10
15.00464527929995
 20
187.2817522510001
 10
15.00464527929995
 20
187.2817522510001
 10
14.88734981859995
 20
187.2035552772001
 10
14.80915284479995
 20
187.1253583034001
 10
14.73095587099995
 20
187.0471613296001
 10
14.65275889719995
 20
186.9689643558001
 10
14.57456192339995
 20
186.8516688951
 10
14.49636494959995
 20
186.7734719213001
 10
14.45726646269995
 20
186.6561764606001
 10
14.41816797579995
 20
186.5388809999
 10
14.37906948889995
 20
186.4606840261
 10
14.33997100199995
 20
186.3433885654
 10
14.33997100199995
 20
186.2260931047001
 10
14.30087251509995
 20
186.1087976440001
 10
14.30087251509995
 20
185.9524036964
 10
14.30087251509995
 20
185.9524036964
 10
14.30087251509995
 20
185.8351082357
 10
14.33997100199995
 20
185.7178127750001
 10
14.33997100199995
 20
185.5614188274
 10
14.37906948889995
 20
185.4832218536
 10
14.41816797579995
 20
185.3659263929
 10
14.45726646269995
 20
185.2486309322001
 10
14.49636494959995
 20
185.1313354715001
 10
14.57456192339995
 20
185.0531384977001
 10
14.61366041029995
 20
184.9358430370001
 10
14.69185738409995
 20
184.8576460632001
 10
14.80915284479995
 20
184.7794490894001
 10
14.88734981859995
 20
184.6621536287001
 10
14.88734981859995
 20
184.6621536287001
 10
15.00464527929995
 20
184.5839566549001
 10
15.08284225309995
 20
184.5057596811001
 10
15.20013771379995
 20
184.4666611942001
 10
15.27833468759995
 20
184.3884642204
 10
15.39563014829995
 20
184.3493657335
 10
15.51292560899995
 20
184.3102672466
 10
15.59112258279995
 20
184.2711687597
 10
15.70841804349995
 20
184.2320702728
 10
15.82571350419995
 20
184.1929717859001
 10
15.98210745179995
 20
184.1929717859001
 10
16.09940291249995
 20
184.1538732990001
 10
16.21669837319995
 20
184.1538732990001
 10
16.33399383389995
 20
184.1538732990001
 10
16.37309232079995
 20
184.1538732990001
 97
        0
 75
     0
 76
     1
 98
        1
 10
0.0
 20
0.0
450
        0
451
        0
460
0.0
461
0.0
452
        0
462
0.0
453
        0
470

  0
HATCH
  5
2A9
330
1F
100
AcDbEntity
  8
PDF _0
440
 33554559
100
AcDbHatch
 10
0.0
 20
0.0
 30
0.0
210
0.0
220
0.0
230
1.0
  2
SOLID
 70
     1
 71
     0
 91
        2
 92
        2
 72
     0
 73
     1
 93
      229
 10
18.44531212649994
 20
190.3314342292
 10
18.28891817889994
 20
190.3314342292
 10
18.13252423129994
 20
190.3314342292
 10
18.01522877059994
 20
190.3314342292
 10
17.85883482299994
 20
190.3314342292
 10
17.70244087539994
 20
190.3314342292
 10
17.54604692779994
 20
190.3314342292
 10
17.42875146709994
 20
190.3705327161
 10
17.27235751949994
 20
190.3705327161
 10
17.15506205879994
 20
190.3705327161
 10
16.99866811119994
 20
190.409631203
 10
16.88137265049994
 20
190.409631203
 10
16.76407718979994
 20
190.409631203
 10
16.64678172909994
 20
190.4487296899
 10
16.49038778149994
 20
190.4878281768001
 10
16.37309232079994
 20
190.4878281768001
 10
16.25579686009994
 20
190.5269266637001
 10
16.13850139939994
 20
190.5269266637001
 10
16.02120593869994
 20
190.5660251506001
 10
15.90391047799994
 20
190.6051236375
 10
15.82571350419994
 20
190.6442221244
 10
15.70841804349994
 20
190.6442221244
 10
15.59112258279994
 20
190.6833206113
 10
15.47382712209994
 20
190.7224190982
 10
15.39563014829994
 20
190.7615175851
 10
15.27833468759994
 20
190.800616072
 10
15.20013771379994
 20
190.8397145589
 10
15.08284225309994
 20
190.8788130458
 10
15.00464527929994
 20
190.9179115327
 10
14.92644830549994
 20
190.9570100196
 10
14.84825133169994
 20
191.0352069934
 10
14.73095587099994
 20
191.0743054803
 10
14.65275889719994
 20
191.1134039672
 10
14.61366041029994
 20
191.1525024541
 10
14.49636494959994
 20
191.2306994279
 10
14.37906948889994
 20
191.3088964017
 10
14.30087251509994
 20
191.3870933755
 10
14.22267554129994
 20
191.4652903493
 10
14.14447856749994
 20
191.5434873231
 10
14.02718310679994
 20
191.6216842969
 10
13.94898613299994
 20
191.6998812707
 10
13.90988764609994
 20
191.7780782445
 10
13.83169067229994
 20
191.8953737052
 10
13.75349369849994
 20
191.973570679
 10
13.71439521159994
 20
192.0517676528
 10
13.63619823779994
 20
192.1690631135
 10
13.59709975089994
 20
192.2472600873
 10
13.55800126399994
 20
192.364555548
 10
13.47980429019994
 20
192.4818510087
 10
13.44070580329994
 20
192.5991464694
 10
13.44070580329994
 20
192.6773434432
 10
13.40160731639994
 20
192.7946389039
 10
13.36250882949994
 20
192.9119343646
 10
13.36250882949994
 20
193.0292298253
 10
13.32341034259994
 20
193.146525286
 10
13.32341034259994
 20
193.3029192336
 10
13.32341034259994
 20
193.4202146943
 10
13.28431185569994
 20
193.537510155
 10
13.28431185569994
 20
193.6157071288
 10
13.28431185569994
 20
193.6939041026
 10
13.32341034259994
 20
193.8111995633
 10
13.32341034259994
 20
193.8893965371
 10
13.32341034259994
 20
194.0066919978001
 10
13.32341034259994
 20
194.0848889716001
 10
13.36250882949994
 20
194.2021844323
 10
13.36250882949994
 20
194.2803814061
 10
13.40160731639994
 20
194.3585783799
 10
13.40160731639994
 20
194.4758738406
 10
13.44070580329994
 20
194.5540708144
 10
13.47980429019994
 20
194.6322677882
 10
13.51890277709994
 20
194.710464762
 10
13.55800126399994
 20
194.7886617358
 10
13.59709975089994
 20
194.8668587096
 10
13.63619823779994
 20
194.9450556834
 10
13.67529672469994
 20
195.0232526572
 10
13.71439521159994
 20
195.101449631
 10
13.75349369849994
 20
195.1796466048
 10
13.83169067229994
 20
195.2578435786
 10
13.87078915919994
 20
195.3360405524
 10
13.94898613299994
 20
195.3751390393
 10
13.98808461989994
 20
195.4533360131
 10
14.06628159369994
 20
195.5315329869
 10
14.10538008059994
 20
195.5706314738
 10
14.18357705439994
 20
195.6488284476001
 10
14.26177402819994
 20
195.6879269345001
 10
14.33997100199994
 20
195.7661239083
 10
14.41816797579994
 20
195.8052223952
 10
14.49636494959994
 20
195.883419369
 10
14.57456192339994
 20
195.9225178559
 10
14.69185738409994
 20
195.9616163428
 10
14.77005435789994
 20
196.0007148297
 10
14.84825133169994
 20
196.0789118035
 10
14.96554679239994
 20
196.1180102904
 10
15.04374376619994
 20
196.1571087773
 10
15.16103922689994
 20
196.1962072642
 10
15.23923620069994
 20
196.2353057511
 10
15.35653166139994
 20
196.274404238
 10
15.47382712209994
 20
196.3135027249
 10
15.59112258279994
 20
196.3526012118
 10
15.70841804349994
 20
196.3916996987
 10
15.82571350419994
 20
196.3916996987
 10
15.94300896489994
 20
196.4307981856
 10
16.06030442559994
 20
196.4698966725
 10
16.17759988629994
 20
196.4698966725
 10
16.33399383389994
 20
196.5089951594
 10
16.45128929459994
 20
196.5089951594
 10
16.60768324219994
 20
196.5480936463
 10
16.72497870289994
 20
196.5480936463
 10
16.88137265049994
 20
196.5871921332
 10
17.03776659809994
 20
196.5871921332
 10
17.15506205879994
 20
196.6262906201
 10
17.31145600639994
 20
196.6262906201
 10
17.46784995399994
 20
196.6262906201
 10
17.62424390159994
 20
196.6262906201
 10
17.78063784919994
 20
196.6262906201
 10
17.93703179679994
 20
196.665389107
 10
18.09342574439994
 20
196.665389107
 10
18.21072120509994
 20
196.665389107
 10
18.36711515269994
 20
196.665389107
 10
18.52350910029994
 20
196.6262906201
 10
18.67990304789994
 20
196.6262906201
 10
18.79719850859994
 20
196.6262906201
 10
18.95359245619994
 20
196.6262906201
 10
19.10998640379994
 20
196.6262906201
 10
19.22728186449994
 20
196.6262906201
 10
19.38367581209994
 20
196.5871921332
 10
19.50097127279994
 20
196.5871921332
 10
19.65736522039994
 20
196.5480936463
 10
19.77466068109994
 20
196.5480936463
 10
19.89195614179994
 20
196.5089951594
 10
20.00925160249995
 20
196.5089951594
 10
20.12654706319994
 20
196.4698966725
 10
20.24384252389994
 20
196.4698966725
 10
20.40023647149995
 20
196.4307981856
 10
20.47843344529994
 20
196.3916996987
 10
20.59572890599994
 20
196.3916996987
 10
20.71302436669995
 20
196.3526012118
 10
20.83031982739994
 20
196.3135027249
 10
20.94761528809994
 20
196.274404238
 10
21.02581226189994
 20
196.2353057511
 10
21.14310772259994
 20
196.1962072642
 10
21.26040318329994
 20
196.1571087773
 10
21.33860015709994
 20
196.1180102904
 10
21.41679713089994
 20
196.0789118035
 10
21.53409259159994
 20
196.0398133166
 10
21.61228956539995
 20
196.0007148297
 10
21.69048653919995
 20
195.9225178559
 10
21.80778199989994
 20
195.883419369
 10
21.88597897369994
 20
195.8443208821
 10
21.92507746059995
 20
195.8052223952
 10
22.04237292129994
 20
195.7270254214001
 10
22.12056989509994
 20
195.6488284476001
 10
22.23786535579995
 20
195.5706314738
 10
22.31606232959995
 20
195.4924345
 10
22.43335779029994
 20
195.4142375262
 10
22.51155476409994
 20
195.3360405524
 10
22.58975173789995
 20
195.2187450917
 10
22.66794871169994
 20
195.1405481179
 10
22.70704719859995
 20
195.0623511441
 10
22.78524417239994
 20
194.9450556834
 10
22.82434265929994
 20
194.8668587096
 10
22.90253963309995
 20
194.7495632489
 10
22.94163811999994
 20
194.6713662751
 10
22.98073660689995
 20
194.5540708144
 10
23.05893358069994
 20
194.4367753537
 10
23.05893358069994
 20
194.3585783799
 10
23.09803206759994
 20
194.2412829192
 10
23.13713055449994
 20
194.1239874585001
 10
23.17622904139994
 20
194.0066919978001
 10
23.17622904139994
 20
193.8893965371
 10
23.21532752829995
 20
193.7721010764
 10
23.21532752829995
 20
193.6548056157
 10
23.21532752829995
 20
193.537510155
 10
23.21532752829995
 20
193.3811162074
 10
23.21532752829995
 20
193.3811162074
 10
23.21532752829995
 20
193.2638207467
 10
23.21532752829995
 20
193.146525286
 10
23.21532752829995
 20
192.9901313384
 10
23.17622904139994
 20
192.8728358777
 10
23.17622904139994
 20
192.755540417
 10
23.13713055449994
 20
192.6382449563
 10
23.09803206759994
 20
192.5600479825
 10
23.05893358069994
 20
192.4427525218
 10
23.01983509379994
 20
192.3254570611
 10
22.98073660689995
 20
192.2081616004
 10
22.94163811999994
 20
192.1299646266001
 10
22.90253963309995
 20
192.0126691659
 10
22.82434265929994
 20
191.9344721921
 10
22.74614568549994
 20
191.8171767314
 10
22.70704719859995
 20
191.7389797576
 10
22.62885022479995
 20
191.6607827838
 10
22.55065325099995
 20
191.58258581
 10
22.47245627719995
 20
191.4652903493
 10
22.35516081649994
 20
191.3870933755
 10
22.27696384269994
 20
191.3088964017
 10
22.19876686889994
 20
191.2306994279
 10
22.08147140819995
 20
191.1525024541
 10
22.00327443439995
 20
191.1134039672
 10
21.92507746059995
 20
191.0743054803
 10
21.84688048679994
 20
191.0352069934
 10
21.76868351299994
 20
190.9570100196
 10
21.65138805229994
 20
190.9179115327
 10
21.57319107849994
 20
190.8788130458
 10
21.49499410469994
 20
190.8397145589
 10
21.37769864399994
 20
190.800616072
 10
21.29950167019995
 20
190.7615175851
 10
21.18220620949994
 20
190.7224190982
 10
21.06491074879994
 20
190.6833206113
 10
20.98671377499994
 20
190.6442221244
 10
20.86941831429994
 20
190.6051236375
 10
20.75212285359994
 20
190.5660251506001
 10
20.63482739289995
 20
190.5660251506001
 10
20.51753193219994
 20
190.5269266637001
 10
20.40023647149995
 20
190.4878281768001
 10
20.28294101079994
 20
190.4878281768001
 10
20.16564555009994
 20
190.4487296899
 10
20.04835008939994
 20
190.409631203
 10
19.89195614179994
 20
190.409631203
 10
19.77466068109994
 20
190.409631203
 10
19.65736522039994
 20
190.3705327161
 10
19.50097127279994
 20
190.3705327161
 10
19.38367581209994
 20
190.3314342292
 10
19.22728186449994
 20
190.3314342292
 10
19.10998640379994
 20
190.3314342292
 10
18.95359245619994
 20
190.3314342292
 10
18.79719850859994
 20
190.3314342292
 10
18.64080456099994
 20
190.3314342292
 10
18.48441061339994
 20
190.3314342292
 10
18.44531212649994
 20
190.3314342292
 97
        0
 92
        2
 72
     0
 73
     1
 93
      176
 10
18.40621363959994
 20
191.5434873231
 10
18.56260758719994
 20
191.5434873231
 10
18.75810002169994
 20
191.5434873231
 10
18.91449396929994
 20
191.58258581
 10
19.07088791689994
 20
191.58258581
 10
19.22728186449994
 20
191.58258581
 10
19.38367581209994
 20
191.58258581
 10
19.54006975969994
 20
191.6216842969
 10
19.69646370729994
 20
191.6216842969
 10
19.85285765489994
 20
191.6216842969
 10
19.97015311559994
 20
191.6607827838
 10
20.12654706319994
 20
191.6998812707
 10
20.24384252389994
 20
191.6998812707
 10
20.36113798459994
 20
191.7389797576
 10
20.47843344529994
 20
191.7780782445
 10
20.59572890599994
 20
191.7780782445
 10
20.71302436669995
 20
191.8171767314
 10
20.83031982739994
 20
191.8562752183
 10
20.94761528809994
 20
191.8953737052
 10
21.02581226189994
 20
191.9344721921
 10
21.14310772259994
 20
191.973570679
 10
21.22130469639994
 20
192.0126691659
 10
21.33860015709994
 20
192.0517676528
 10
21.41679713089994
 20
192.1299646266001
 10
21.49499410469994
 20
192.1690631135
 10
21.57319107849994
 20
192.2081616004
 10
21.65138805229994
 20
192.2863585742
 10
21.69048653919995
 20
192.3254570611
 10
21.76868351299994
 20
192.4036540349
 10
21.80778199989994
 20
192.4427525218
 10
21.88597897369994
 20
192.5209494956
 10
21.92507746059995
 20
192.5600479825
 10
21.96417594749994
 20
192.6382449563
 10
22.00327443439995
 20
192.7164419301
 10
22.04237292129994
 20
192.7946389039
 10
22.08147140819995
 20
192.8728358777
 10
22.12056989509994
 20
192.9510328515
 10
22.15966838199994
 20
193.0292298253
 10
22.15966838199994
 20
193.1074267991
 10
22.19876686889994
 20
193.1856237729
 10
22.19876686889994
 20
193.2638207467
 10
22.19876686889994
 20
193.3420177205
 10
22.23786535579995
 20
193.4202146943
 10
22.23786535579995
 20
193.4984116681
 10
22.19876686889994
 20
193.5766086419
 10
22.19876686889994
 20
193.6548056157
 10
22.19876686889994
 20
193.7330025895
 10
22.19876686889994
 20
193.8502980502
 10
22.15966838199994
 20
193.928495024
 10
22.15966838199994
 20
194.0066919978001
 10
22.12056989509994
 20
194.0848889716001
 10
22.08147140819995
 20
194.1239874585001
 10
22.04237292129994
 20
194.2021844323
 10
22.00327443439995
 20
194.2803814061
 10
21.96417594749994
 20
194.3585783799
 10
21.92507746059995
 20
194.3976768668
 10
21.84688048679994
 20
194.4758738406
 10
21.80778199989994
 20
194.5540708144
 10
21.72958502609994
 20
194.5931693013
 10
21.69048653919995
 20
194.6322677882
 10
21.61228956539995
 20
194.710464762
 10
21.53409259159994
 20
194.7495632489
 10
21.45589561779994
 20
194.8277602227
 10
21.37769864399994
 20
194.8668587096
 10
21.29950167019995
 20
194.9059571965
 10
21.22130469639994
 20
194.9450556834
 10
21.10400923569994
 20
194.9841541703
 10
21.02581226189994
 20
195.0232526572
 10
20.90851680119994
 20
195.0623511441
 10
20.79122134049995
 20
195.101449631
 10
20.67392587979994
 20
195.1405481179
 10
20.55663041909994
 20
195.1796466048
 10
20.43933495839994
 20
195.2187450917
 10
20.32203949769995
 20
195.2187450917
 10
20.20474403699994
 20
195.2578435786
 10
20.04835008939994
 20
195.2969420655
 10
19.93105462869994
 20
195.2969420655
 10
19.77466068109994
 20
195.3360405524
 10
19.65736522039994
 20
195.3360405524
 10
19.50097127279994
 20
195.3360405524
 10
19.34457732519994
 20
195.3751390393
 10
19.18818337759994
 20
195.3751390393
 10
19.03178942999994
 20
195.3751390393
 10
18.83629699549994
 20
195.3751390393
 10
18.67990304789994
 20
195.4142375262
 10
18.52350910029994
 20
195.4142375262
 10
18.32801666579994
 20
195.4142375262
 10
18.17162271819994
 20
195.4142375262
 10
17.97613028369994
 20
195.4142375262
 10
17.81973633609994
 20
195.3751390393
 10
17.62424390159994
 20
195.3751390393
 10
17.46784995399994
 20
195.3751390393
 10
17.31145600639994
 20
195.3751390393
 10
17.15506205879994
 20
195.3360405524
 10
16.99866811119994
 20
195.3360405524
 10
16.84227416359994
 20
195.3360405524
 10
16.72497870289994
 20
195.2969420655
 10
16.56858475529994
 20
195.2969420655
 10
16.45128929459994
 20
195.2578435786
 10
16.29489534699994
 20
195.2578435786
 10
16.17759988629994
 20
195.2187450917
 10
16.06030442559994
 20
195.1796466048
 10
15.94300896489994
 20
195.1405481179
 10
15.82571350419994
 20
195.1405481179
 10
15.70841804349994
 20
195.101449631
 10
15.59112258279994
 20
195.0623511441
 10
15.51292560899994
 20
195.0232526572
 10
15.39563014829994
 20
194.9841541703
 10
15.31743317449994
 20
194.9450556834
 10
15.20013771379994
 20
194.9059571965
 10
15.12194073999994
 20
194.8277602227
 10
15.04374376619994
 20
194.7886617358
 10
14.96554679239994
 20
194.7495632489
 10
14.88734981859994
 20
194.710464762
 10
14.84825133169994
 20
194.6322677882
 10
14.77005435789994
 20
194.5931693013
 10
14.69185738409994
 20
194.5149723275
 10
14.65275889719994
 20
194.4758738406
 10
14.61366041029994
 20
194.3976768668
 10
14.57456192339994
 20
194.3585783799
 10
14.49636494959994
 20
194.2803814061
 10
14.45726646269994
 20
194.2021844323
 10
14.45726646269994
 20
194.1239874585001
 10
14.41816797579994
 20
194.0848889716001
 10
14.37906948889994
 20
194.0066919978001
 10
14.37906948889994
 20
193.928495024
 10
14.33997100199994
 20
193.8502980502
 10
14.33997100199994
 20
193.7721010764
 10
14.30087251509994
 20
193.6939041026
 10
14.30087251509994
 20
193.6157071288
 10
14.30087251509994
 20
193.537510155
 10
14.30087251509994
 20
193.4593131812
 10
14.30087251509994
 20
193.3420177205
 10
14.33997100199994
 20
193.2638207467
 10
14.33997100199994
 20
193.1856237729
 10
14.37906948889994
 20
193.1074267991
 10
14.37906948889994
 20
193.0292298253
 10
14.41816797579994
 20
192.9510328515
 10
14.45726646269994
 20
192.8728358777
 10
14.45726646269994
 20
192.8337373908
 10
14.49636494959994
 20
192.755540417
 10
14.57456192339994
 20
192.6773434432
 10
14.61366041029994
 20
192.5991464694
 10
14.65275889719994
 20
192.5600479825
 10
14.69185738409994
 20
192.4818510087
 10
14.77005435789994
 20
192.4427525218
 10
14.80915284479994
 20
192.364555548
 10
14.88734981859994
 20
192.3254570611
 10
14.96554679239994
 20
192.2472600873
 10
15.04374376619994
 20
192.2081616004
 10
15.12194073999994
 20
192.1690631135
 10
15.20013771379994
 20
192.1299646266001
 10
15.27833468759994
 20
192.0517676528
 10
15.39563014829994
 20
192.0126691659
 10
15.47382712209994
 20
191.973570679
 10
15.59112258279994
 20
191.9344721921
 10
15.66931955659994
 20
191.8953737052
 10
15.78661501729994
 20
191.8562752183
 10
15.90391047799994
 20
191.8171767314
 10
16.02120593869994
 20
191.8171767314
 10
16.13850139939994
 20
191.7780782445
 10
16.25579686009994
 20
191.7389797576
 10
16.37309232079994
 20
191.6998812707
 10
16.49038778149994
 20
191.6998812707
 10
16.64678172909994
 20
191.6607827838
 10
16.80317567669994
 20
191.6607827838
 10
16.92047113739994
 20
191.6216842969
 10
17.07686508499994
 20
191.6216842969
 10
17.23325903259994
 20
191.58258581
 10
17.38965298019994
 20
191.58258581
 10
17.54604692779994
 20
191.58258581
 10
17.70244087539994
 20
191.58258581
 10
17.85883482299994
 20
191.58258581
 10
18.05432725749994
 20
191.5434873231
 10
18.21072120509994
 20
191.5434873231
 10
18.40621363959994
 20
191.5434873231
 97
        0
 75
     0
 76
     1
 98
        1
 10
0.0
 20
0.0
450
        0
451
        0
460
0.0
461
0.0
452
        0
462
0.0
453
        0
470

  0
HATCH
  5
2AA
330
1F
100
AcDbEntity
  8
PDF _0
440
 33554559
100
AcDbHatch
 10
0.0
 20
0.0
 30
0.0
210
0.0
220
0.0
230
1.0
  2
SOLID
 70
     1
 71
     0
 91
        1
 92
        3
 72
     0
 73
     1
 93
       10
 10
110.2485593677
 20
114.167581748
 10
104.7356727148
 20
114.167581748
 10
104.7356727148
 20
115.2232408943
 10
106.8860894943
 20
115.2232408943
 10
106.8860894943
 20
122.5346579446
 10
104.6965742279
 20
121.8699836673
 10
104.6965742279
 20
123.0038397874
 10
108.0981425882
 20
123.9813019599
 10
108.0981425882
 20
115.2232408943
 10
110.2485593677
 20
115.2232408943
 97
        0
 75
     0
 76
     1
 98
        1
 10
0.0
 20
0.0
450
        0
451
        0
460
0.0
461
0.0
452
        0
462
0.0
453
        0
470

  0
HATCH
  5
2AB
330
1F
100
AcDbEntity
  8
PDF _0
440
 33554559
100
AcDbHatch
 10
0.0
 20
0.0
 30
0.0
210
0.0
220
0.0
230
1.0
  2
SOLID
 70
     1
 71
     0
 91
        1
 92
        3
 72
     0
 73
     1
 93
      334
 10
111.8906958175
 20
115.8097181978
 10
112.0079912782
 20
115.731521224
 10
112.086188252
 20
115.6533242502
 10
112.2034837127
 20
115.5751272764
 10
112.3207791733999
 20
115.4969303026
 10
112.3989761472
 20
115.4578318157
 10
112.5162716079
 20
115.3796348419
 10
112.6335670686
 20
115.340536355
 10
112.7508625293
 20
115.3014378681
 10
112.8290595031
 20
115.2623393812
 10
112.9463549638
 20
115.2232408943
 10
113.0636504245
 20
115.1841424074
 10
113.1809458852
 20
115.1450439205
 10
113.2982413459
 20
115.1059454336
 10
113.4155368066
 20
115.1059454336
 10
113.5328322673
 20
115.0668469467
 10
113.650127728
 20
115.0668469467
 10
113.7674231887
 20
115.0277484598
 10
113.8847186494
 20
115.0277484598
 10
114.041112597
 20
115.0277484598
 10
114.1193095708
 20
115.0277484598
 10
114.2757035184
 20
115.0277484598
 10
114.3929989791
 20
115.0277484598
 10
114.5493929267
 20
115.0668469467
 10
114.6666883874
 20
115.0668469467
 10
114.7839838481
 20
115.1059454336
 10
114.9012793088
 20
115.1059454336
 10
115.0185747695
 20
115.1450439205
 10
115.1358702301999
 20
115.1841424074
 10
115.2531656909
 20
115.2232408943
 10
115.3313626647
 20
115.2623393812
 10
115.4486581254
 20
115.340536355
 10
115.5268550992
 20
115.3796348419
 10
115.605052073
 20
115.4578318157
 10
115.6832490468
 20
115.5360287895
 10
115.8005445075
 20
115.6142257633
 10
115.8787414813
 20
115.6924227371
 10
115.9569384551
 20
115.7706197109
 10
115.996036942
 20
115.8488166847
 10
116.0742339158
 20
115.9661121454
 10
116.1133324027
 20
116.0834076061
 10
116.1524308896
 20
116.1616045799
 10
116.1915293765
 20
116.2789000406
 10
116.2306278634
 20
116.3961955013
 10
116.2697263503
 20
116.513490962
 10
116.2697263503
 20
116.6307864227
 10
116.2697263503
 20
116.7871803703
 10
116.2697263503
 20
116.8262788572
 10
116.2697263503
 20
116.9435743179
 10
116.2697263503
 20
117.0217712917
 10
116.2697263503
 20
117.1390667524
 10
116.2306278634
 20
117.2563622131
 10
116.2306278634
 20
117.3345591869
 10
116.1915293765
 20
117.4127561607
 10
116.1524308896
 20
117.5300516214
 10
116.1133324027
 20
117.6082485952
 10
116.0742339158
 20
117.686445569
 10
116.0351354289
 20
117.7646425428
 10
115.9569384551
 20
117.8428395166
 10
115.9178399682
 20
117.9210364904
 10
115.8396429944
 20
117.9992334642
 10
115.8005445075
 20
118.0383319511
 10
115.7223475337
 20
118.1165289249
 10
115.6441505599
 20
118.1556274118
 10
115.5659535861
 20
118.2338243856
 10
115.4877566123
 20
118.2729228725
 10
115.3704611516
 20
118.3120213594
 10
115.2922641778
 20
118.3902183332
 10
115.1749687171
 20
118.4293168201
 10
115.0967717433
 20
118.468415307
 10
114.9794762826
 20
118.468415307
 10
114.8621808219
 20
118.5075137939
 10
114.7448853612
 20
118.5466122808
 10
114.5884914136
 20
118.5857107677
 10
114.4711959529
 20
118.5857107677
 10
114.3539004922
 20
118.6248092546
 10
114.1975065446
 20
118.6248092546
 10
114.041112597
 20
118.6248092546
 10
113.8847186494
 20
118.6248092546
 10
113.7674231887
 20
118.6248092546
 10
113.650127728
 20
118.6248092546
 10
112.86815799
 20
118.6248092546
 10
112.86815799
 20
119.641369914
 10
113.6110292411
 20
119.641369914
 10
113.7674231887
 20
119.641369914
 10
113.9238171363
 20
119.641369914
 10
114.0802110839
 20
119.6804684009
 10
114.1975065446
 20
119.6804684009
 10
114.3539004922
 20
119.6804684009
 10
114.4711959529
 20
119.7195668878
 10
114.5884914136
 20
119.7586653747
 10
114.7057868743
 20
119.7586653747
 10
114.823082335
 20
119.7977638616
 10
114.9403777957
 20
119.8368623485
 10
115.0185747695
 20
119.8759608354
 10
115.1358702301999
 20
119.9150593223
 10
115.214067204
 20
119.9932562961
 10
115.2922641778
 20
120.032354783
 10
115.3704611516
 20
120.0714532699
 10
115.4486581254
 20
120.1496502437
 10
115.5268550992
 20
120.2278472175
 10
115.605052073
 20
120.2669457044
 10
115.6441505599
 20
120.3451426782
 10
115.6832490468
 20
120.423339652
 10
115.7614460206
 20
120.5015366258
 10
115.8005445075
 20
120.5797335996
 10
115.8396429944
 20
120.6970290603
 10
115.8787414813
 20
120.7752260341
 10
115.8787414813
 20
120.8925214948
 10
115.9178399682
 20
120.9707184686
 10
115.9178399682
 20
121.0880139293
 10
115.9178399682
 20
121.20530939
 10
115.9569384551
 20
121.2835063638
 10
115.9569384551
 20
121.3617033376
 10
115.9178399682
 20
121.4789987983
 10
115.9178399682
 20
121.596294259
 10
115.9178399682
 20
121.7135897197
 10
115.8787414813
 20
121.8308851804
 10
115.8787414813
 20
121.9481806411
 10
115.8396429944
 20
122.0263776149
 10
115.8005445075
 20
122.1436730756
 10
115.7614460206
 20
122.2218700494
 10
115.6832490468
 20
122.3000670232
 10
115.6441505599
 20
122.378263997
 10
115.5659535861
 20
122.4564609708
 10
115.5268550992
 20
122.5346579446
 10
115.4486581254
 20
122.5737564315
 10
115.3704611516
 20
122.6519534053
 10
115.2922641778
 20
122.6910518922
 10
115.1749687171
 20
122.7301503791
 10
115.0967717433
 20
122.8083473529
 10
114.9794762826
 20
122.8083473529
 10
114.8621808219
 20
122.8474458398
 10
114.7448853612
 20
122.8865443267
 10
114.6275899005
 20
122.8865443267
 10
114.5102944398
 20
122.9256428136
 10
114.3929989791
 20
122.9256428136
 10
114.2366050315
 20
122.9256428136
 10
114.1584080577
 20
122.9256428136
 10
114.041112597
 20
122.9256428136
 10
113.9238171363
 20
122.9256428136
 10
113.8065216756
 20
122.9256428136
 10
113.6892262149
 20
122.8865443267
 10
113.5719307542
 20
122.8865443267
 10
113.4546352935
 20
122.8474458398
 10
113.3764383197
 20
122.8083473529
 10
113.259142859
 20
122.769248866
 10
113.1418473983
 20
122.7301503791
 10
113.0245519376
 20
122.6910518922
 10
112.9072564769
 20
122.6519534053
 10
112.7899610162
 20
122.6128549184
 10
112.7117640424
 20
122.5346579446
 10
112.5944685817
 20
122.4564609708
 10
112.477173121
 20
122.4173624839
 10
112.3598776603
 20
122.3391655101
 10
112.2816806864999
 20
122.2609685363
 10
112.2816806864999
 20
123.3948246564
 10
112.3598776603
 20
123.4730216302
 10
112.477173121
 20
123.5121201171
 10
112.5944685817
 20
123.551218604
 10
112.6726655555
 20
123.5903170909
 10
112.7899610162
 20
123.6685140647
 10
112.9072564769
 20
123.7076125516
 10
113.0245519376
 20
123.7467110385
 10
113.1418473983
 20
123.7858095254
 10
113.259142859
 20
123.7858095254
 10
113.3764383197
 20
123.8249080123
 10
113.4937337804
 20
123.8640064992
 10
113.6110292411
 20
123.8640064992
 10
113.7283247018
 20
123.9031049861
 10
113.8456201625
 20
123.9031049861
 10
113.9629156232
 20
123.942203473
 10
114.1193095708
 20
123.942203473
 10
114.2366050315
 20
123.942203473
 10
114.3539004922
 20
123.942203473
 10
114.4711959529
 20
123.942203473
 10
114.6275899005
 20
123.942203473
 10
114.7448853612
 20
123.942203473
 10
114.8621808219
 20
123.942203473
 10
115.0185747695
 20
123.9031049861
 10
115.1358702301999
 20
123.9031049861
 10
115.2531656909
 20
123.8640064992
 10
115.3704611516
 20
123.8640064992
 10
115.4877566123
 20
123.8249080123
 10
115.605052073
 20
123.7858095254
 10
115.7223475337
 20
123.7467110385
 10
115.8396429944
 20
123.7076125516
 10
115.9178399682
 20
123.6294155778
 10
116.0351354289
 20
123.5903170909
 10
116.1133324027
 20
123.551218604
 10
116.2306278634
 20
123.4730216302
 10
116.3088248372
 20
123.3948246564
 10
116.387021811
 20
123.3557261695
 10
116.4261202979
 20
123.3166276826
 10
116.5434157586
 20
123.2384307088
 10
116.6216127324
 20
123.1211352481
 10
116.6998097062
 20
123.0429382743
 10
116.77800668
 20
122.9647413005
 10
116.8562036538
 20
122.8474458398
 10
116.8953021407
 20
122.769248866
 10
116.9734991145
 20
122.6519534053
 10
117.0125976014
 20
122.5737564315
 10
117.0516960883
 20
122.4564609708
 10
117.0907945752
 20
122.3391655101
 10
117.1298930621
 20
122.2218700494
 10
117.1298930621
 20
122.1045745887
 10
117.168991549
 20
121.987279128
 10
117.168991549
 20
121.8699836673
 10
117.168991549
 20
121.7526882066
 10
117.168991549
 20
121.6353927459
 10
117.168991549
 20
121.5180972852
 10
117.168991549
 20
121.4008018245
 10
117.168991549
 20
121.2835063638
 10
117.168991549
 20
121.1662109031
 10
117.1298930621
 20
121.0489154424
 10
117.0907945752
 20
120.9316199817
 10
117.0907945752
 20
120.814324521
 10
117.0516960883
 20
120.6970290603
 10
117.0125976014
 20
120.6188320865
 10
116.9734991145
 20
120.5015366258
 10
116.8953021407
 20
120.423339652
 10
116.8562036538
 20
120.3060441913
 10
116.8171051669
 20
120.2278472175
 10
116.7389081931
 20
120.1496502437
 10
116.6998097062
 20
120.0714532699
 10
116.6216127324
 20
119.9932562961
 10
116.5434157586
 20
119.9150593223
 10
116.4652187848
 20
119.8368623485
 10
116.387021811
 20
119.7586653747
 10
116.3088248372
 20
119.6804684009
 10
116.1915293765
 20
119.641369914
 10
116.1133324027
 20
119.5631729402
 10
115.996036942
 20
119.5240744533
 10
115.8787414813
 20
119.4458774795
 10
115.8005445075
 20
119.4067789926
 10
115.6832490468
 20
119.3676805057
 10
115.5659535861
 20
119.3285820188
 10
115.4486581254
 20
119.250385045
 10
115.2922641778
 20
119.2112865581
 10
115.2531656909
 20
119.2112865581
 10
115.2531656909
 20
119.2112865581
 10
115.4095596385
 20
119.1721880712
 10
115.5268550992
 20
119.1721880712
 10
115.6441505599
 20
119.1330895843
 10
115.8005445075
 20
119.0939910974
 10
115.9178399682
 20
119.0548926105
 10
116.0351354289
 20
119.0157941236
 10
116.1133324027
 20
118.9766956367
 10
116.2306278634
 20
118.9375971498
 10
116.3479233241
 20
118.8984986629
 10
116.4652187848
 20
118.8203016891
 10
116.5434157586
 20
118.7812032022
 10
116.6216127324
 20
118.7030062284
 10
116.7389081931
 20
118.6248092546
 10
116.8171051669
 20
118.5466122808
 10
116.8953021407
 20
118.468415307
 10
116.8953021407
 20
118.468415307
 10
117.0125976014
 20
118.3902183332
 10
117.0516960883
 20
118.2729228725
 10
117.1298930621
 20
118.1947258987
 10
117.2080900359
 20
118.077430438
 10
117.2471885228
 20
117.9992334642
 10
117.3253854966
 20
117.8819380035
 10
117.3644839835
 20
117.7646425428
 10
117.4035824704
 20
117.6473470821
 10
117.4426809573
 20
117.5300516214
 10
117.4426809573
 20
117.4127561607
 10
117.4817794442
 20
117.2954607
 10
117.4817794442
 20
117.1781652393
 10
117.5208779311
 20
117.0608697786
 10
117.5208779311
 20
116.9435743179
 10
117.5208779311
 20
116.904475831
 10
117.5208779311
 20
116.7871803703
 10
117.5208779311
 20
116.6307864227
 10
117.4817794442
 20
116.513490962
 10
117.4817794442
 20
116.3961955013
 10
117.4426809573
 20
116.2789000406
 10
117.4426809573
 20
116.1616045799
 10
117.4035824704
 20
116.0443091192
 10
117.3644839835
 20
115.9270136585
 10
117.3253854966
 20
115.8488166847
 10
117.2862870097
 20
115.731521224
 10
117.2080900359
 20
115.6142257633
 10
117.168991549
 20
115.5360287895
 10
117.1298930621
 20
115.4187333288
 10
117.0516960883
 20
115.340536355
 10
116.9734991145
 20
115.2232408943
 10
116.8953021407
 20
115.1450439205
 10
116.8171051669
 20
115.0668469467
 10
116.7389081931
 20
114.949551486
 10
116.6607112193
 20
114.8713545122
 10
116.5825142455
 20
114.8322560253
 10
116.5043172717
 20
114.7540590515
 10
116.4261202979
 20
114.6758620777
 10
116.3088248372
 20
114.5976651039
 10
116.2306278634
 20
114.558566617
 10
116.1133324027
 20
114.4803696432
 10
116.0351354289
 20
114.4412711563
 10
115.9178399682
 20
114.4021726694
 10
115.8396429944
 20
114.3630741825
 10
115.7223475337
 20
114.2848772087
 10
115.605052073
 20
114.2457787218
 10
115.4877566123
 20
114.2066802349
 10
115.3704611516
 20
114.2066802349
 10
115.2531656909
 20
114.167581748
 10
115.1358702301999
 20
114.1284832611
 10
115.0185747695
 20
114.0893847742
 10
114.9012793088
 20
114.0893847742
 10
114.7839838481
 20
114.0502862873
 10
114.6275899005
 20
114.0502862873
 10
114.5102944398
 20
114.0502862873
 10
114.3929989791
 20
114.0502862873
 10
114.2366050315
 20
114.0111878004
 10
114.1193095708
 20
114.0111878004
 10
114.0802110839
 20
114.0111878004
 10
113.9629156232
 20
114.0111878004
 10
113.8065216756
 20
114.0111878004
 10
113.6892262149
 20
114.0502862873
 10
113.5328322673
 20
114.0502862873
 10
113.4155368066
 20
114.0502862873
 10
113.2982413459
 20
114.0893847742
 10
113.1418473983
 20
114.0893847742
 10
113.0245519376
 20
114.1284832611
 10
112.9072564769
 20
114.1284832611
 10
112.7899610162
 20
114.167581748
 10
112.6726655555
 20
114.2066802349
 10
112.5553700948
 20
114.2457787218
 10
112.477173121
 20
114.2848772087
 10
112.3598776603
 20
114.3239756956
 10
112.2425821996
 20
114.3630741825
 10
112.1643852258
 20
114.4021726694
 10
112.0470897651
 20
114.4412711563
 10
111.9688927913
 20
114.4803696432
 10
111.8906958175
 20
114.5194681301
 97
        0
 75
     0
 76
     1
 98
        1
 10
0.0
 20
0.0
450
        0
451
        0
460
0.0
461
0.0
452
        0
462
0.0
453
        0
470

  0
HATCH
  5
2AC
330
1F
100
AcDbEntity
  8
PDF _0
440
 33554559
100
AcDbHatch
 10
0.0
 20
0.0
 30
0.0
210
0.0
220
0.0
230
1.0
  2
SOLID
 70
     1
 71
     0
 91
        1
 92
        3
 72
     0
 73
     1
 93
      334
 10
119.3585068154
 20
115.8097181978
 10
119.4367037892
 20
115.731521224
 10
119.5539992499
 20
115.6533242502
 10
119.6321962237
 20
115.5751272764
 10
119.7494916843999
 20
115.4969303026
 10
119.8667871450999
 20
115.4578318157
 10
119.9449841188999
 20
115.3796348419
 10
120.0622795796
 20
115.340536355
 10
120.1795750403
 20
115.3014378681
 10
120.2968705009999
 20
115.2623393812
 10
120.4141659617
 20
115.2232408943
 10
120.5314614223999
 20
115.1841424074
 10
120.6487568830999
 20
115.1450439205
 10
120.7660523438
 20
115.1059454336
 10
120.8833478045
 20
115.1059454336
 10
121.0006432652
 20
115.0668469467
 10
121.1179387258999
 20
115.0668469467
 10
121.2352341866
 20
115.0277484598
 10
121.3525296472999
 20
115.0277484598
 10
121.4698251079999
 20
115.0277484598
 10
121.5871205687
 20
115.0277484598
 10
121.7044160294
 20
115.0277484598
 10
121.8608099769999
 20
115.0277484598
 10
121.9781054377
 20
115.0668469467
 10
122.0954008984
 20
115.0668469467
 10
122.2126963591
 20
115.1059454336
 10
122.3299918197999
 20
115.1059454336
 10
122.4472872805
 20
115.1450439205
 10
122.5645827412
 20
115.1841424074
 10
122.6818782018999
 20
115.2232408943
 10
122.7991736626
 20
115.2623393812
 10
122.8773706364
 20
115.340536355
 10
122.9555676102
 20
115.3796348419
 10
123.0728630709
 20
115.4578318157
 10
123.1510600447
 20
115.5360287895
 10
123.2292570185
 20
115.6142257633
 10
123.3074539923
 20
115.6924227371
 10
123.3856509660999
 20
115.7706197109
 10
123.4638479398999
 20
115.8488166847
 10
123.5029464267999
 20
115.9661121454
 10
123.5811434006
 20
116.0834076061
 10
123.6202418875
 20
116.1616045799
 10
123.6593403744
 20
116.2789000406
 10
123.6593403744
 20
116.3961955013
 10
123.6984388613
 20
116.513490962
 10
123.6984388613
 20
116.6307864227
 10
123.7375373482
 20
116.7871803703
 10
123.7375373482
 20
116.8262788572
 10
123.6984388613
 20
116.9435743179
 10
123.6984388613
 20
117.0217712917
 10
123.6984388613
 20
117.1390667524
 10
123.6984388613
 20
117.2563622131
 10
123.6593403744
 20
117.3345591869
 10
123.6202418875
 20
117.4127561607
 10
123.5811434006
 20
117.5300516214
 10
123.5420449136999
 20
117.6082485952
 10
123.5029464267999
 20
117.686445569
 10
123.4638479398999
 20
117.7646425428
 10
123.4247494529999
 20
117.8428395166
 10
123.3465524791999
 20
117.9210364904
 10
123.3074539923
 20
117.9992334642
 10
123.2292570185
 20
118.0383319511
 10
123.1510600447
 20
118.1165289249
 10
123.0728630709
 20
118.1556274118
 10
122.9946660971
 20
118.2338243856
 10
122.9164691233
 20
118.2729228725
 10
122.8382721495
 20
118.3120213594
 10
122.7209766887999
 20
118.3902183332
 10
122.6427797149999
 20
118.4293168201
 10
122.5254842543
 20
118.468415307
 10
122.4081887936
 20
118.468415307
 10
122.2908933329
 20
118.5075137939
 10
122.1735978722
 20
118.5466122808
 10
122.0563024115
 20
118.5857107677
 10
121.9390069507999
 20
118.5857107677
 10
121.7826130032
 20
118.6248092546
 10
121.6262190556
 20
118.6248092546
 10
121.5089235948999
 20
118.6248092546
 10
121.3525296472999
 20
118.6248092546
 10
121.1961356997
 20
118.6248092546
 10
121.1179387258999
 20
118.6248092546
 10
120.2968705009999
 20
118.6248092546
 10
120.2968705009999
 20
119.641369914
 10
121.0788402389999
 20
119.641369914
 10
121.2352341866
 20
119.641369914
 10
121.3916281341999
 20
119.641369914
 10
121.5089235948999
 20
119.6804684009
 10
121.6653175425
 20
119.6804684009
 10
121.7826130032
 20
119.6804684009
 10
121.8999084638999
 20
119.7195668878
 10
122.0563024115
 20
119.7586653747
 10
122.1735978722
 20
119.7586653747
 10
122.251794846
 20
119.7977638616
 10
122.3690903067
 20
119.8368623485
 10
122.4863857674
 20
119.8759608354
 10
122.5645827412
 20
119.9150593223
 10
122.6427797149999
 20
119.9932562961
 10
122.7600751757
 20
120.032354783
 10
122.8382721495
 20
120.0714532699
 10
122.9164691233
 20
120.1496502437
 10
122.9555676102
 20
120.2278472175
 10
123.033764584
 20
120.2669457044
 10
123.0728630709
 20
120.3451426782
 10
123.1510600447
 20
120.423339652
 10
123.1901585316
 20
120.5015366258
 10
123.2292570185
 20
120.5797335996
 10
123.2683555054
 20
120.6970290603
 10
123.3074539923
 20
120.7752260341
 10
123.3465524791999
 20
120.8925214948
 10
123.3465524791999
 20
120.9707184686
 10
123.3856509660999
 20
121.0880139293
 10
123.3856509660999
 20
121.20530939
 10
123.3856509660999
 20
121.2835063638
 10
123.3856509660999
 20
121.3617033376
 10
123.3856509660999
 20
121.4789987983
 10
123.3856509660999
 20
121.596294259
 10
123.3465524791999
 20
121.7135897197
 10
123.3465524791999
 20
121.8308851804
 10
123.3074539923
 20
121.9481806411
 10
123.2683555054
 20
122.0263776149
 10
123.2292570185
 20
122.1436730756
 10
123.1901585316
 20
122.2218700494
 10
123.1510600447
 20
122.3000670232
 10
123.0728630709
 20
122.378263997
 10
123.033764584
 20
122.4564609708
 10
122.9555676102
 20
122.5346579446
 10
122.8773706364
 20
122.5737564315
 10
122.7991736626
 20
122.6519534053
 10
122.7209766887999
 20
122.6910518922
 10
122.6427797149999
 20
122.7301503791
 10
122.5254842543
 20
122.8083473529
 10
122.4472872805
 20
122.8083473529
 10
122.3299918197999
 20
122.8474458398
 10
122.2126963591
 20
122.8865443267
 10
122.0954008984
 20
122.8865443267
 10
121.9390069507999
 20
122.9256428136
 10
121.8217114900999
 20
122.9256428136
 10
121.6653175425
 20
122.9256428136
 10
121.6262190556
 20
122.9256428136
 10
121.5089235948999
 20
122.9256428136
 10
121.3916281341999
 20
122.9256428136
 10
121.2743326735
 20
122.9256428136
 10
121.1570372128
 20
122.8865443267
 10
121.0397417520999
 20
122.8865443267
 10
120.9224462914
 20
122.8474458398
 10
120.8051508307
 20
122.8083473529
 10
120.6878553699999
 20
122.769248866
 10
120.5705599092999
 20
122.7301503791
 10
120.4532644486
 20
122.6910518922
 10
120.3750674748
 20
122.6519534053
 10
120.2577720141
 20
122.6128549184
 10
120.1404765534
 20
122.5346579446
 10
120.0231810927
 20
122.4564609708
 10
119.9058856319999
 20
122.4173624839
 10
119.8276886581999
 20
122.3391655101
 10
119.7103931975
 20
122.2609685363
 10
119.7103931975
 20
123.3948246564
 10
119.8276886581999
 20
123.4730216302
 10
119.9058856319999
 20
123.5121201171
 10
120.0231810927
 20
123.551218604
 10
120.1404765534
 20
123.5903170909
 10
120.2577720141
 20
123.6685140647
 10
120.3359689878999
 20
123.7076125516
 10
120.4532644486
 20
123.7467110385
 10
120.5705599092999
 20
123.7858095254
 10
120.6878553699999
 20
123.7858095254
 10
120.8051508307
 20
123.8249080123
 10
120.9224462914
 20
123.8640064992
 10
121.0397417520999
 20
123.8640064992
 10
121.1570372128
 20
123.9031049861
 10
121.2743326735
 20
123.9031049861
 10
121.4307266210999
 20
123.942203473
 10
121.5480220818
 20
123.942203473
 10
121.6653175425
 20
123.942203473
 10
121.8217114900999
 20
123.942203473
 10
121.8999084638999
 20
123.942203473
 10
122.0563024115
 20
123.942203473
 10
122.1735978722
 20
123.942203473
 10
122.3299918197999
 20
123.942203473
 10
122.4472872805
 20
123.9031049861
 10
122.5645827412
 20
123.9031049861
 10
122.6818782018999
 20
123.8640064992
 10
122.8382721495
 20
123.8640064992
 10
122.9164691233
 20
123.8249080123
 10
123.033764584
 20
123.7858095254
 10
123.1510600447
 20
123.7467110385
 10
123.2683555054
 20
123.7076125516
 10
123.3856509660999
 20
123.6294155778
 10
123.4638479398999
 20
123.5903170909
 10
123.5811434006
 20
123.551218604
 10
123.6593403744
 20
123.4730216302
 10
123.7375373482
 20
123.3948246564
 10
123.8548328089
 20
123.3557261695
 10
123.8939312957999
 20
123.3166276826
 10
123.9721282696
 20
123.2384307088
 10
124.0503252434
 20
123.1211352481
 10
124.1285222172
 20
123.0429382743
 10
124.2067191909999
 20
122.9647413005
 10
124.2849161647999
 20
122.8474458398
 10
124.3631131386
 20
122.769248866
 10
124.4022116255
 20
122.6519534053
 10
124.4413101124
 20
122.5737564315
 10
124.4804085993
 20
122.4564609708
 10
124.5195070862
 20
122.3391655101
 10
124.5586055731
 20
122.2218700494
 10
124.59770406
 20
122.1045745887
 10
124.59770406
 20
121.987279128
 10
124.6368025469
 20
121.8699836673
 10
124.6368025469
 20
121.7526882066
 10
124.6368025469
 20
121.6353927459
 10
124.6368025469
 20
121.5180972852
 10
124.6368025469
 20
121.4008018245
 10
124.59770406
 20
121.2835063638
 10
124.59770406
 20
121.1662109031
 10
124.5586055731
 20
121.0489154424
 10
124.5586055731
 20
120.9316199817
 10
124.5195070862
 20
120.814324521
 10
124.4804085993
 20
120.6970290603
 10
124.4413101124
 20
120.6188320865
 10
124.4022116255
 20
120.5015366258
 10
124.3631131386
 20
120.423339652
 10
124.3240146516999
 20
120.3060441913
 10
124.2458176778999
 20
120.2278472175
 10
124.2067191909999
 20
120.1496502437
 10
124.1285222172
 20
120.0714532699
 10
124.0503252434
 20
119.9932562961
 10
123.9721282696
 20
119.9150593223
 10
123.8939312957999
 20
119.8368623485
 10
123.815734322
 20
119.7586653747
 10
123.7375373482
 20
119.6804684009
 10
123.6593403744
 20
119.641369914
 10
123.5420449136999
 20
119.5631729402
 10
123.4638479398999
 20
119.5240744533
 10
123.3465524791999
 20
119.4458774795
 10
123.2292570185
 20
119.4067789926
 10
123.1119615577999
 20
119.3676805057
 10
122.9946660971
 20
119.3285820188
 10
122.8773706364
 20
119.250385045
 10
122.7600751757
 20
119.2112865581
 10
122.7209766887999
 20
119.2112865581
 10
122.7209766887999
 20
119.2112865581
 10
122.8382721495
 20
119.1721880712
 10
122.9555676102
 20
119.1721880712
 10
123.1119615577999
 20
119.1330895843
 10
123.2292570185
 20
119.0939910974
 10
123.3465524791999
 20
119.0548926105
 10
123.4638479398999
 20
119.0157941236
 10
123.5811434006
 20
118.9766956367
 10
123.6984388613
 20
118.9375971498
 10
123.7766358351
 20
118.8984986629
 10
123.8939312957999
 20
118.8203016891
 10
123.9721282696
 20
118.7812032022
 10
124.0894237303
 20
118.7030062284
 10
124.1676207040999
 20
118.6248092546
 10
124.2458176778999
 20
118.5466122808
 10
124.3240146516999
 20
118.468415307
 10
124.3631131386
 20
118.468415307
 10
124.4413101124
 20
118.3902183332
 10
124.5195070862
 20
118.2729228725
 10
124.59770406
 20
118.1947258987
 10
124.6368025469
 20
118.077430438
 10
124.7149995206999
 20
117.9992334642
 10
124.7540980076
 20
117.8819380035
 10
124.7931964945
 20
117.7646425428
 10
124.8322949814
 20
117.6473470821
 10
124.8713934683
 20
117.5300516214
 10
124.9104919551999
 20
117.4127561607
 10
124.9104919551999
 20
117.2954607
 10
124.9495904420999
 20
117.1781652393
 10
124.9495904420999
 20
117.0608697786
 10
124.9495904420999
 20
116.9435743179
 10
124.9495904420999
 20
116.904475831
 10
124.9495904420999
 20
116.7871803703
 10
124.9495904420999
 20
116.6307864227
 10
124.9495904420999
 20
116.513490962
 10
124.9104919551999
 20
116.3961955013
 10
124.9104919551999
 20
116.2789000406
 10
124.8713934683
 20
116.1616045799
 10
124.8322949814
 20
116.0443091192
 10
124.7931964945
 20
115.9270136585
 10
124.7540980076
 20
115.8488166847
 10
124.7149995206999
 20
115.731521224
 10
124.6759010337999
 20
115.6142257633
 10
124.59770406
 20
115.5360287895
 10
124.5586055731
 20
115.4187333288
 10
124.4804085993
 20
115.340536355
 10
124.4413101124
 20
115.2232408943
 10
124.3631131386
 20
115.1450439205
 10
124.2849161647999
 20
115.0668469467
 10
124.2067191909999
 20
114.949551486
 10
124.0894237303
 20
114.8713545122
 10
124.0112267565
 20
114.8322560253
 10
123.9330297826999
 20
114.7540590515
 10
123.8548328089
 20
114.6758620777
 10
123.7766358351
 20
114.5976651039
 10
123.6593403744
 20
114.558566617
 10
123.5811434006
 20
114.4803696432
 10
123.4638479398999
 20
114.4412711563
 10
123.3856509660999
 20
114.4021726694
 10
123.2683555054
 20
114.3630741825
 10
123.1510600447
 20
114.2848772087
 10
123.033764584
 20
114.2457787218
 10
122.9555676102
 20
114.2066802349
 10
122.8382721495
 20
114.2066802349
 10
122.7209766887999
 20
114.167581748
 10
122.6036812280999
 20
114.1284832611
 10
122.4863857674
 20
114.0893847742
 10
122.3299918197999
 20
114.0893847742
 10
122.2126963591
 20
114.0502862873
 10
122.0954008984
 20
114.0502862873
 10
121.9390069507999
 20
114.0502862873
 10
121.8217114900999
 20
114.0502862873
 10
121.7044160294
 20
114.0111878004
 10
121.5480220818
 20
114.0111878004
 10
121.5480220818
 20
114.0111878004
 10
121.3916281341999
 20
114.0111878004
 10
121.2743326735
 20
114.0111878004
 10
121.1179387258999
 20
114.0502862873
 10
121.0006432652
 20
114.0502862873
 10
120.8442493176
 20
114.0502862873
 10
120.7269538568999
 20
114.0893847742
 10
120.6096583961999
 20
114.0893847742
 10
120.4923629355
 20
114.1284832611
 10
120.3359689878999
 20
114.1284832611
 10
120.2186735272
 20
114.167581748
 10
120.1404765534
 20
114.2066802349
 10
120.0231810927
 20
114.2457787218
 10
119.9058856319999
 20
114.2848772087
 10
119.7885901712999
 20
114.3239756956
 10
119.7103931975
 20
114.3630741825
 10
119.5930977368
 20
114.4021726694
 10
119.5149007629999
 20
114.4412711563
 10
119.3976053023
 20
114.4803696432
 10
119.3585068154
 20
114.5194681301
 97
        0
 75
     0
 76
     1
 98
        1
 10
0.0
 20
0.0
450
        0
451
        0
460
0.0
461
0.0
452
        0
462
0.0
453
        0
470

  0
HATCH
  5
2AD
330
1F
100
AcDbEntity
  8
PDF _0
440
 33554559
100
AcDbHatch
 10
0.0
 20
0.0
 30
0.0
210
0.0
220
0.0
230
1.0
  2
SOLID
 70
     1
 71
     0
 91
        1
 92
        3
 72
     0
 73
     1
 93
      334
 10
56.68363231469996
 20
128.9077113093
 10
56.76182928849996
 20
128.8295143355
 10
56.87912474919996
 20
128.7513173617
 10
56.95732172299996
 20
128.6731203879
 10
57.07461718369996
 20
128.634021901
 10
57.19191264439996
 20
128.5558249272
 10
57.27010961819996
 20
128.5167264403
 10
57.38740507889996
 20
128.4385294665
 10
57.50470053959997
 20
128.3994309796
 10
57.62199600029997
 20
128.3603324927
 10
57.73929146099996
 20
128.3212340058
 10
57.85658692169996
 20
128.2821355189
 10
57.97388238239996
 20
128.243037032
 10
58.09117784309997
 20
128.243037032
 10
58.20847330379996
 20
128.2039385451
 10
58.32576876449996
 20
128.1648400582
 10
58.44306422519996
 20
128.1648400582
 10
58.56035968589996
 20
128.1648400582
 10
58.67765514659996
 20
128.1257415713
 10
58.79495060729997
 20
128.1257415713
 10
58.87314758109996
 20
128.1257415713
 10
59.02954152869996
 20
128.1257415713
 10
59.18593547629996
 20
128.1648400582
 10
59.30323093699996
 20
128.1648400582
 10
59.42052639769997
 20
128.1648400582
 10
59.53782185839997
 20
128.2039385451
 10
59.65511731909996
 20
128.243037032
 10
59.77241277979996
 20
128.243037032
 10
59.88970824049996
 20
128.2821355189
 10
60.00700370119997
 20
128.3603324927
 10
60.12429916189996
 20
128.3994309796
 10
60.20249613569997
 20
128.4385294665
 10
60.28069310949996
 20
128.5167264403
 10
60.39798857019996
 20
128.5558249272
 10
60.47618554399996
 20
128.634021901
 10
60.55438251779996
 20
128.7122188748
 10
60.63257949159996
 20
128.7904158486
 10
60.71077646539997
 20
128.8686128224
 10
60.78897343919996
 20
128.9859082831
 10
60.82807192609997
 20
129.0641052569
 10
60.90626889989996
 20
129.1814007176
 10
60.94536738679996
 20
129.2986961783
 10
60.98446587369997
 20
129.3768931521
 10
60.98446587369997
 20
129.4941886128
 10
61.02356436059996
 20
129.6505825604
 10
61.02356436059996
 20
129.7678780211
 10
61.02356436059996
 20
129.8851734818
 10
61.02356436059996
 20
129.9242719687
 10
61.02356436059996
 20
130.0415674294
 10
61.02356436059996
 20
130.1588628901
 10
61.02356436059996
 20
130.2370598639
 10
60.98446587369997
 20
130.3543553246
 10
60.98446587369997
 20
130.4325522984
 10
60.94536738679996
 20
130.5498477591
 10
60.90626889989996
 20
130.6280447329
 10
60.86717041299997
 20
130.7062417067
 10
60.82807192609997
 20
130.7844386805
 10
60.78897343919996
 20
130.8626356543
 10
60.74987495229996
 20
130.9408326281
 10
60.67167797849997
 20
131.0190296019
 10
60.63257949159996
 20
131.0972265757
 10
60.55438251779996
 20
131.1754235495
 10
60.47618554399996
 20
131.2145220364
 10
60.39798857019996
 20
131.2927190102
 10
60.31979159639996
 20
131.3318174971
 10
60.24159462259996
 20
131.370915984
 10
60.16339764879996
 20
131.4491129578
 10
60.04610218809997
 20
131.4882114447
 10
59.96790521429996
 20
131.5273099316
 10
59.85060975359996
 20
131.5664084185
 10
59.73331429289996
 20
131.6055069054
 10
59.61601883219996
 20
131.6055069054
 10
59.49872337149996
 20
131.6446053923
 10
59.38142791079997
 20
131.6837038792
 10
59.22503396319996
 20
131.6837038792
 10
59.10773850249996
 20
131.7228023661
 10
58.95134455489996
 20
131.7228023661
 10
58.83404909419996
 20
131.7228023661
 10
58.67765514659996
 20
131.761900853
 10
58.52126119899996
 20
131.761900853
 10
58.44306422519996
 20
131.761900853
 10
57.62199600029997
 20
131.761900853
 10
57.62199600029997
 20
132.7393630255
 10
58.40396573829996
 20
132.7393630255
 10
58.56035968589996
 20
132.7393630255
 10
58.71675363349996
 20
132.7784615124
 10
58.83404909419996
 20
132.7784615124
 10
58.99044304179996
 20
132.7784615124
 10
59.10773850249996
 20
132.8175599993
 10
59.22503396319996
 20
132.8175599993
 10
59.38142791079997
 20
132.8566584862
 10
59.49872337149996
 20
132.8957569731
 10
59.57692034529997
 20
132.8957569731
 10
59.69421580599997
 20
132.93485546
 10
59.81151126669996
 20
132.9739539469
 10
59.88970824049996
 20
133.0521509207
 10
59.96790521429996
 20
133.0912494076
 10
60.08520067499997
 20
133.1303478945
 10
60.16339764879996
 20
133.2085448683
 10
60.24159462259996
 20
133.2476433552
 10
60.28069310949996
 20
133.325840329
 10
60.35889008329996
 20
133.4040373028
 10
60.39798857019996
 20
133.4822342766
 10
60.47618554399996
 20
133.5604312504
 10
60.51528403089996
 20
133.6386282242
 10
60.55438251779996
 20
133.716825198
 10
60.59348100469996
 20
133.7950221718
 10
60.63257949159996
 20
133.8732191456
 10
60.67167797849997
 20
133.9905146063
 10
60.67167797849997
 20
134.0687115801
 10
60.67167797849997
 20
134.1860070408
 10
60.71077646539997
 20
134.3033025015
 10
60.71077646539997
 20
134.4205979622
 10
60.71077646539997
 20
134.4596964491
 10
60.71077646539997
 20
134.5769919098
 10
60.71077646539997
 20
134.6942873705
 10
60.67167797849997
 20
134.8115828312
 10
60.67167797849997
 20
134.9288782919
 10
60.63257949159996
 20
135.0461737526
 10
60.59348100469996
 20
135.1634692133
 10
60.55438251779996
 20
135.2416661871
 10
60.51528403089996
 20
135.3198631609
 10
60.47618554399996
 20
135.3980601347
 10
60.39798857019996
 20
135.4762571085
 10
60.35889008329996
 20
135.5544540823
 10
60.28069310949996
 20
135.6326510561
 10
60.20249613569997
 20
135.7108480299
 10
60.12429916189996
 20
135.7499465168
 10
60.04610218809997
 20
135.7890450037
 10
59.96790521429996
 20
135.8672419775
 10
59.85060975359996
 20
135.9063404644
 10
59.73331429289996
 20
135.9454389513
 10
59.65511731909996
 20
135.9845374382
 10
59.53782185839997
 20
135.9845374382
 10
59.42052639769997
 20
136.0236359251
 10
59.26413245009996
 20
136.0236359251
 10
59.14683698939996
 20
136.0236359251
 10
58.99044304179996
 20
136.062734412
 10
58.95134455489996
 20
136.062734412
 10
58.83404909419996
 20
136.0236359251
 10
58.71675363349996
 20
136.0236359251
 10
58.59945817279996
 20
136.0236359251
 10
58.48216271209996
 20
136.0236359251
 10
58.36486725139996
 20
135.9845374382
 10
58.24757179069997
 20
135.9454389513
 10
58.13027632999997
 20
135.9454389513
 10
58.01298086929996
 20
135.9063404644
 10
57.89568540859996
 20
135.8672419775
 10
57.77838994789997
 20
135.7890450037
 10
57.70019297409996
 20
135.7499465168
 10
57.58289751339996
 20
135.7108480299
 10
57.46560205269997
 20
135.6326510561
 10
57.34830659199996
 20
135.5935525692
 10
57.23101113129996
 20
135.5153555954
 10
57.15281415749996
 20
135.4371586216
 10
57.03551869679996
 20
135.3589616478
 10
57.03551869679996
 20
136.4928177679
 10
57.15281415749996
 20
136.5710147417
 10
57.23101113129996
 20
136.6101132286
 10
57.34830659199996
 20
136.6883102024
 10
57.46560205269997
 20
136.7274086893
 10
57.54379902649996
 20
136.7665071762
 10
57.66109448719996
 20
136.8056056631
 10
57.77838994789997
 20
136.84470415
 10
57.89568540859996
 20
136.8838026369
 10
58.01298086929996
 20
136.9229011238
 10
58.13027632999997
 20
136.9229011238
 10
58.24757179069997
 20
136.9619996107
 10
58.36486725139996
 20
137.0010980976
 10
58.48216271209996
 20
137.0010980976
 10
58.59945817279996
 20
137.0010980976
 10
58.75585212039997
 20
137.0401965845
 10
58.87314758109996
 20
137.0401965845
 10
58.99044304179996
 20
137.0401965845
 10
59.14683698939996
 20
137.0401965845
 10
59.22503396319996
 20
137.0401965845
 10
59.38142791079997
 20
137.0401965845
 10
59.49872337149996
 20
137.0401965845
 10
59.65511731909996
 20
137.0401965845
 10
59.77241277979996
 20
137.0401965845
 10
59.88970824049996
 20
137.0010980976
 10
60.00700370119997
 20
136.9619996107
 10
60.12429916189996
 20
136.9619996107
 10
60.24159462259996
 20
136.9229011238
 10
60.35889008329996
 20
136.8838026369
 10
60.47618554399996
 20
136.84470415
 10
60.59348100469996
 20
136.8056056631
 10
60.71077646539997
 20
136.7665071762
 10
60.78897343919996
 20
136.6883102024
 10
60.90626889989996
 20
136.6492117155
 10
60.98446587369997
 20
136.5710147417
 10
61.06266284749996
 20
136.5319162548
 10
61.17995830819996
 20
136.453719281
 10
61.21905679509996
 20
136.4146207941
 10
61.29725376889997
 20
136.3364238203
 10
61.37545074269997
 20
136.2582268465
 10
61.45364771649997
 20
136.1409313858
 10
61.53184469029996
 20
136.062734412
 10
61.61004166409997
 20
135.9845374382
 10
61.64914015099996
 20
135.8672419775
 10
61.72733712479996
 20
135.7890450037
 10
61.76643561169996
 20
135.671749543
 10
61.80553409859996
 20
135.5544540823
 10
61.84463258549996
 20
135.4371586216
 10
61.88373107239996
 20
135.3198631609
 10
61.92282955929997
 20
135.2025677002
 10
61.92282955929997
 20
135.0852722395
 10
61.96192804619997
 20
134.9679767788
 10
61.96192804619997
 20
134.8506813181
 10
61.96192804619997
 20
134.7333858574
 10
61.96192804619997
 20
134.6160903967
 10
61.96192804619997
 20
134.498794936
 10
61.92282955929997
 20
134.3814994753
 10
61.92282955929997
 20
134.2642040146
 10
61.88373107239996
 20
134.1469085539
 10
61.88373107239996
 20
134.0296130932
 10
61.84463258549996
 20
133.9123176325
 10
61.80553409859996
 20
133.8341206587
 10
61.76643561169996
 20
133.716825198
 10
61.72733712479996
 20
133.6386282242
 10
61.68823863789996
 20
133.5213327635
 10
61.64914015099996
 20
133.4431357897
 10
61.57094317719996
 20
133.325840329
 10
61.53184469029996
 20
133.2476433552
 10
61.45364771649997
 20
133.1694463814
 10
61.37545074269997
 20
133.0912494076
 10
61.29725376889997
 20
133.0130524338
 10
61.21905679509996
 20
132.93485546
 10
61.14085982129996
 20
132.8566584862
 10
61.06266284749996
 20
132.8175599993
 10
60.98446587369997
 20
132.7393630255
 10
60.86717041299997
 20
132.6611660517
 10
60.74987495229996
 20
132.6220675648
 10
60.67167797849997
 20
132.5829690779
 10
60.55438251779996
 20
132.5047721041
 10
60.43708705709996
 20
132.4656736172
 10
60.31979159639996
 20
132.4265751303
 10
60.20249613569997
 20
132.3874766434
 10
60.08520067499997
 20
132.3483781565
 10
60.04610218809997
 20
132.3092796696
 10
60.04610218809997
 20
132.3092796696
 10
60.16339764879996
 20
132.2701811827
 10
60.28069310949996
 20
132.2701811827
 10
60.43708705709996
 20
132.2310826958
 10
60.55438251779996
 20
132.1919842089
 10
60.67167797849997
 20
132.1919842089
 10
60.78897343919996
 20
132.152885722
 10
60.90626889989996
 20
132.0746887482
 10
61.02356436059996
 20
132.0355902613
 10
61.10176133439996
 20
131.9964917744
 10
61.21905679509996
 20
131.9182948006
 10
61.29725376889997
 20
131.8791963137
 10
61.41454922959996
 20
131.8009993399
 10
61.49274620339997
 20
131.7228023661
 10
61.57094317719996
 20
131.6837038792
 10
61.64914015099996
 20
131.6055069054
 10
61.68823863789996
 20
131.5664084185
 10
61.76643561169996
 20
131.4882114447
 10
61.84463258549996
 20
131.370915984
 10
61.92282955929997
 20
131.2927190102
 10
61.96192804619997
 20
131.1754235495
 10
62.04012501999996
 20
131.0972265757
 10
62.07922350689996
 20
130.979931115
 10
62.11832199379997
 20
130.8626356543
 10
62.15742048069997
 20
130.7844386805
 10
62.19651896759996
 20
130.6671432198
 10
62.23561745449996
 20
130.5498477591
 10
62.23561745449996
 20
130.4325522984
 10
62.27471594139997
 20
130.3152568377
 10
62.27471594139997
 20
130.1588628901
 10
62.27471594139997
 20
130.0415674294
 10
62.27471594139997
 20
130.0024689425
 10
62.27471594139997
 20
129.8851734818
 10
62.27471594139997
 20
129.7678780211
 10
62.27471594139997
 20
129.6505825604
 10
62.23561745449996
 20
129.4941886128
 10
62.23561745449996
 20
129.3768931521
 10
62.19651896759996
 20
129.2595976914
 10
62.15742048069997
 20
129.1423022307
 10
62.11832199379997
 20
129.0641052569
 10
62.07922350689996
 20
128.9468097962
 10
62.04012501999996
 20
128.8295143355
 10
62.00102653309997
 20
128.7122188748
 10
61.92282955929997
 20
128.634021901
 10
61.88373107239996
 20
128.5167264403
 10
61.80553409859996
 20
128.4385294665
 10
61.72733712479996
 20
128.3212340058
 10
61.68823863789996
 20
128.243037032
 10
61.61004166409997
 20
128.1648400582
 10
61.49274620339997
 20
128.0866430844
 10
61.41454922959996
 20
127.9693476237
 10
61.33635225579997
 20
127.9302491368
 10
61.25815528199996
 20
127.852052163
 10
61.17995830819996
 20
127.7738551892
 10
61.10176133439996
 20
127.7347567023
 10
60.98446587369997
 20
127.6565597285
 10
60.90626889989996
 20
127.6174612416
 10
60.78897343919996
 20
127.5392642678
 10
60.71077646539997
 20
127.5001657809
 10
60.59348100469996
 20
127.461067294
 10
60.47618554399996
 20
127.4219688071
 10
60.35889008329996
 20
127.3828703202
 10
60.28069310949996
 20
127.3437718333
 10
60.16339764879996
 20
127.3046733464
 10
60.04610218809997
 20
127.2655748595
 10
59.92880672739996
 20
127.2264763726
 10
59.81151126669996
 20
127.2264763726
 10
59.65511731909996
 20
127.1873778857
 10
59.53782185839997
 20
127.1873778857
 10
59.42052639769997
 20
127.1482793988
 10
59.26413245009996
 20
127.1482793988
 10
59.14683698939996
 20
127.1482793988
 10
59.02954152869996
 20
127.1482793988
 10
58.87314758109996
 20
127.1482793988
 10
58.87314758109996
 20
127.1482793988
 10
58.71675363349996
 20
127.1482793988
 10
58.59945817279996
 20
127.1482793988
 10
58.44306422519996
 20
127.1482793988
 10
58.32576876449996
 20
127.1482793988
 10
58.16937481689996
 20
127.1873778857
 10
58.05207935619996
 20
127.1873778857
 10
57.93478389549996
 20
127.1873778857
 10
57.81748843479996
 20
127.2264763726
 10
57.66109448719996
 20
127.2655748595
 10
57.54379902649996
 20
127.2655748595
 10
57.46560205269997
 20
127.3046733464
 10
57.34830659199996
 20
127.3437718333
 10
57.23101113129996
 20
127.3828703202
 10
57.11371567059996
 20
127.4219688071
 10
57.03551869679996
 20
127.461067294
 10
56.91822323609996
 20
127.5001657809
 10
56.84002626229997
 20
127.5392642678
 10
56.72273080159996
 20
127.6174612416
 10
56.68363231469996
 20
127.6565597285
 97
        0
 75
     0
 76
     1
 98
        1
 10
0.0
 20
0.0
450
        0
451
        0
460
0.0
461
0.0
452
        0
462
0.0
453
        0
470

  0
HATCH
  5
2AE
330
1F
100
AcDbEntity
  8
PDF _0
440
 33554559
100
AcDbHatch
 10
0.0
 20
0.0
 30
0.0
210
0.0
220
0.0
230
1.0
  2
SOLID
 70
     1
 71
     0
 91
        2
 92
        2
 72
     0
 73
     1
 93
      229
 10
63.79955693049996
 20
131.9182948006
 10
63.79955693049996
 20
132.0746887482
 10
63.79955693049996
 20
132.1919842089
 10
63.79955693049996
 20
132.3483781565
 10
63.79955693049996
 20
132.5047721041
 10
63.79955693049996
 20
132.6611660517
 10
63.79955693049996
 20
132.7784615124
 10
63.83865541739996
 20
132.93485546
 10
63.83865541739996
 20
133.0912494076
 10
63.83865541739996
 20
133.2085448683
 10
63.87775390429996
 20
133.325840329
 10
63.87775390429996
 20
133.4822342766
 10
63.91685239119996
 20
133.5995297373
 10
63.91685239119996
 20
133.716825198
 10
63.95595087809996
 20
133.8341206587
 10
63.95595087809996
 20
133.9905146063
 10
63.99504936499996
 20
134.107810067
 10
64.03414785189996
 20
134.2251055277
 10
64.03414785189996
 20
134.3424009884
 10
64.07324633879996
 20
134.4205979622
 10
64.11234482569996
 20
134.5378934229
 10
64.15144331259996
 20
134.6551888836
 10
64.15144331259996
 20
134.7724843443
 10
64.19054179949995
 20
134.8506813181
 10
64.22964028639995
 20
134.9679767788
 10
64.26873877329995
 20
135.0461737526
 10
64.30783726019996
 20
135.1634692133
 10
64.34693574709996
 20
135.2416661871
 10
64.38603423399996
 20
135.3589616478
 10
64.46423120779996
 20
135.4371586216
 10
64.50332969469996
 20
135.5153555954
 10
64.54242818159996
 20
135.5935525692
 10
64.58152666849996
 20
135.7108480299
 10
64.62062515539996
 20
135.7499465168
 10
64.69882212919997
 20
135.8672419775
 10
64.77701910299995
 20
135.9454389513
 10
64.85521607679996
 20
136.062734412
 10
64.93341305059996
 20
136.1409313858
 10
65.01161002439996
 20
136.2191283596
 10
65.08980699819996
 20
136.2973253334
 10
65.16800397199997
 20
136.3755223072
 10
65.24620094579995
 20
136.453719281
 10
65.36349640649996
 20
136.5319162548
 10
65.44169338029997
 20
136.6101132286
 10
65.55898884099995
 20
136.6492117155
 10
65.63718581479996
 20
136.7274086893
 10
65.75448127549996
 20
136.7665071762
 10
65.83267824929996
 20
136.8056056631
 10
65.94997370999997
 20
136.84470415
 10
66.06726917069996
 20
136.8838026369
 10
66.18456463139996
 20
136.9229011238
 10
66.26276160519996
 20
136.9619996107
 10
66.38005706589996
 20
137.0010980976
 10
66.49735252659997
 20
137.0010980976
 10
66.61464798729996
 20
137.0401965845
 10
66.77104193489995
 20
137.0401965845
 10
66.88833739559996
 20
137.0401965845
 10
67.00563285629996
 20
137.0401965845
 10
67.08382983009996
 20
137.0401965845
 10
67.16202680389996
 20
137.0401965845
 10
67.27932226459995
 20
137.0401965845
 10
67.35751923839996
 20
137.0401965845
 10
67.47481469909996
 20
137.0401965845
 10
67.55301167289996
 20
137.0010980976
 10
67.67030713359996
 20
137.0010980976
 10
67.74850410739997
 20
137.0010980976
 10
67.86579956809996
 20
136.9619996107
 10
67.94399654189996
 20
136.9229011238
 10
68.02219351569997
 20
136.9229011238
 10
68.10039048949995
 20
136.8838026369
 10
68.17858746329996
 20
136.84470415
 10
68.25678443709996
 20
136.8056056631
 10
68.37407989779996
 20
136.7665071762
 10
68.45227687159996
 20
136.7274086893
 10
68.49137535849997
 20
136.6883102024
 10
68.56957233229997
 20
136.6492117155
 10
68.64776930609996
 20
136.6101132286
 10
68.72596627989996
 20
136.5319162548
 10
68.80416325369997
 20
136.4928177679
 10
68.88236022749996
 20
136.4146207941
 10
68.92145871439996
 20
136.3755223072
 10
68.99965568819997
 20
136.2973253334
 10
69.03875417509997
 20
136.2191283596
 10
69.11695114889996
 20
136.1800298727
 10
69.19514812269996
 20
136.1018328989
 10
69.23424660959996
 20
136.0236359251
 10
69.27334509649996
 20
135.9454389513
 10
69.35154207029995
 20
135.8672419775
 10
69.39064055719995
 20
135.7499465168
 10
69.42973904409996
 20
135.671749543
 10
69.50793601789996
 20
135.5935525692
 10
69.54703450479996
 20
135.5153555954
 10
69.58613299169996
 20
135.3980601347
 10
69.62523147859996
 20
135.3198631609
 10
69.66432996549996
 20
135.2025677002
 10
69.70342845239996
 20
135.0852722395
 10
69.74252693929996
 20
135.0070752657
 10
69.78162542619997
 20
134.889779805
 10
69.82072391309997
 20
134.7724843443
 10
69.85982239999995
 20
134.6551888836
 10
69.85982239999995
 20
134.5378934229
 10
69.89892088689996
 20
134.4205979622
 10
69.93801937379996
 20
134.3033025015
 10
69.93801937379996
 20
134.1469085539
 10
69.97711786069996
 20
134.0296130932
 10
70.01621634759996
 20
133.9123176325
 10
70.01621634759996
 20
133.7559236849
 10
70.05531483449996
 20
133.6386282242
 10
70.05531483449996
 20
133.4822342766
 10
70.05531483449996
 20
133.325840329
 10
70.09441332139997
 20
133.2085448683
 10
70.09441332139997
 20
133.0521509207
 10
70.09441332139997
 20
132.8957569731
 10
70.09441332139997
 20
132.7393630255
 10
70.13351180829996
 20
132.5829690779
 10
70.13351180829996
 20
132.4265751303
 10
70.13351180829996
 20
132.2310826958
 10
70.13351180829996
 20
132.152885722
 10
70.13351180829996
 20
131.9964917744
 10
70.13351180829996
 20
131.8400978268
 10
70.13351180829996
 20
131.6837038792
 10
70.09441332139997
 20
131.5273099316
 10
70.09441332139997
 20
131.4100144709
 10
70.09441332139997
 20
131.2536205233
 10
70.09441332139997
 20
131.1363250626
 10
70.05531483449996
 20
130.979931115
 10
70.05531483449996
 20
130.8626356543
 10
70.05531483449996
 20
130.7062417067
 10
70.01621634759996
 20
130.588946246
 10
70.01621634759996
 20
130.4716507853
 10
69.97711786069996
 20
130.3543553246
 10
69.93801937379996
 20
130.197961377
 10
69.93801937379996
 20
130.0806659163
 10
69.89892088689996
 20
129.9633704556
 10
69.85982239999995
 20
129.8460749949
 10
69.85982239999995
 20
129.7287795342
 10
69.82072391309997
 20
129.6505825604
 10
69.78162542619997
 20
129.5332870997
 10
69.74252693929996
 20
129.415991639
 10
69.70342845239996
 20
129.2986961783
 10
69.66432996549996
 20
129.2204992045
 10
69.62523147859996
 20
129.1032037438
 10
69.58613299169996
 20
129.02500677
 10
69.54703450479996
 20
128.9077113093
 10
69.50793601789996
 20
128.8295143355
 10
69.46883753099996
 20
128.7513173617
 10
69.39064055719995
 20
128.634021901
 10
69.35154207029995
 20
128.5558249272
 10
69.31244358339997
 20
128.4776279534
 10
69.27334509649996
 20
128.4385294665
 10
69.19514812269996
 20
128.3212340058
 10
69.11695114889996
 20
128.2039385451
 10
69.03875417509997
 20
128.1257415713
 10
68.96055720129997
 20
128.0475445975
 10
68.88236022749996
 20
127.9302491368
 10
68.80416325369997
 20
127.852052163
 10
68.72596627989996
 20
127.7738551892
 10
68.60867081919995
 20
127.6956582154
 10
68.53047384539997
 20
127.6565597285
 10
68.45227687159996
 20
127.5783627547
 10
68.33498141089996
 20
127.5001657809
 10
68.25678443709996
 20
127.461067294
 10
68.13948897639996
 20
127.4219688071
 10
68.02219351569997
 20
127.3437718333
 10
67.94399654189996
 20
127.3046733464
 10
67.82670108119996
 20
127.2655748595
 10
67.70940562049997
 20
127.2264763726
 10
67.59211015979996
 20
127.2264763726
 10
67.47481469909996
 20
127.1873778857
 10
67.35751923839996
 20
127.1873778857
 10
67.24022377769997
 20
127.1482793988
 10
67.12292831699996
 20
127.1482793988
 10
67.00563285629996
 20
127.1482793988
 10
66.88833739559996
 20
127.1482793988
 10
66.84923890869995
 20
127.1482793988
 10
66.73194344799997
 20
127.1482793988
 10
66.61464798729996
 20
127.1482793988
 10
66.49735252659997
 20
127.1482793988
 10
66.38005706589996
 20
127.1873778857
 10
66.26276160519996
 20
127.1873778857
 10
66.14546614449996
 20
127.2264763726
 10
66.02817068379995
 20
127.2655748595
 10
65.91087522309996
 20
127.2655748595
 10
65.79357976239996
 20
127.3437718333
 10
65.71538278859996
 20
127.3828703202
 10
65.59808732789996
 20
127.4219688071
 10
65.48079186719995
 20
127.461067294
 10
65.40259489339996
 20
127.5392642678
 10
65.32439791959996
 20
127.5783627547
 10
65.20710245889997
 20
127.6565597285
 10
65.12890548509997
 20
127.7347567023
 10
65.05070851129996
 20
127.8129536761
 10
64.97251153749996
 20
127.8911506499
 10
64.85521607679996
 20
127.9693476237
 10
64.77701910299995
 20
128.0866430844
 10
64.69882212919997
 20
128.1648400582
 10
64.65972364229997
 20
128.2821355189
 10
64.58152666849996
 20
128.3603324927
 10
64.54242818159996
 20
128.4385294665
 10
64.50332969469996
 20
128.5167264403
 10
64.42513272089996
 20
128.5949234141
 10
64.38603423399996
 20
128.7122188748
 10
64.34693574709996
 20
128.7904158486
 10
64.30783726019996
 20
128.8686128224
 10
64.26873877329995
 20
128.9859082831
 10
64.22964028639995
 20
129.0641052569
 10
64.19054179949995
 20
129.1814007176
 10
64.15144331259996
 20
129.2986961783
 10
64.11234482569996
 20
129.3768931521
 10
64.07324633879996
 20
129.4941886128
 10
64.03414785189996
 20
129.6114840735
 10
64.03414785189996
 20
129.7287795342
 10
63.99504936499996
 20
129.8460749949
 10
63.95595087809996
 20
129.9633704556
 10
63.95595087809996
 20
130.0806659163
 10
63.91685239119996
 20
130.197961377
 10
63.91685239119996
 20
130.3152568377
 10
63.87775390429996
 20
130.4325522984
 10
63.87775390429996
 20
130.588946246
 10
63.83865541739996
 20
130.7062417067
 10
63.83865541739996
 20
130.8626356543
 10
63.83865541739996
 20
130.979931115
 10
63.79955693049996
 20
131.1363250626
 10
63.79955693049996
 20
131.2536205233
 10
63.79955693049996
 20
131.4100144709
 10
63.79955693049996
 20
131.5664084185
 10
63.79955693049996
 20
131.7228023661
 10
63.79955693049996
 20
131.8400978268
 10
63.79955693049996
 20
131.9182948006
 97
        0
 92
        2
 72
     0
 73
     1
 93
      176
 10
65.01161002439996
 20
131.9573932875
 10
65.01161002439996
 20
131.8009993399
 10
65.05070851129996
 20
131.6055069054
 10
65.05070851129996
 20
131.4491129578
 10
65.05070851129996
 20
131.2927190102
 10
65.05070851129996
 20
131.1363250626
 10
65.05070851129996
 20
130.979931115
 10
65.08980699819996
 20
130.8235371674
 10
65.08980699819996
 20
130.6671432198
 10
65.12890548509997
 20
130.5107492722
 10
65.12890548509997
 20
130.3934538115
 10
65.16800397199997
 20
130.2370598639
 10
65.16800397199997
 20
130.1197644032
 10
65.20710245889997
 20
130.0024689425
 10
65.24620094579995
 20
129.8460749949
 10
65.28529943269996
 20
129.7287795342
 10
65.28529943269996
 20
129.6505825604
 10
65.32439791959996
 20
129.5332870997
 10
65.36349640649996
 20
129.415991639
 10
65.40259489339996
 20
129.2986961783
 10
65.44169338029997
 20
129.2204992045
 10
65.48079186719995
 20
129.1423022307
 10
65.55898884099995
 20
129.02500677
 10
65.59808732789996
 20
128.9468097962
 10
65.63718581479996
 20
128.8686128224
 10
65.67628430169996
 20
128.7904158486
 10
65.75448127549996
 20
128.7122188748
 10
65.79357976239996
 20
128.6731203879
 10
65.87177673619996
 20
128.5949234141
 10
65.91087522309996
 20
128.5167264403
 10
65.98907219689997
 20
128.4776279534
 10
66.06726917069996
 20
128.4385294665
 10
66.10636765759996
 20
128.3603324927
 10
66.18456463139996
 20
128.3212340058
 10
66.26276160519996
 20
128.2821355189
 10
66.34095857899996
 20
128.243037032
 10
66.41915555279997
 20
128.243037032
 10
66.49735252659997
 20
128.2039385451
 10
66.57554950039996
 20
128.1648400582
 10
66.65374647419996
 20
128.1648400582
 10
66.73194344799997
 20
128.1648400582
 10
66.81014042179995
 20
128.1257415713
 10
66.88833739559996
 20
128.1257415713
 10
66.96653436939996
 20
128.1257415713
 10
67.04473134319996
 20
128.1257415713
 10
67.12292831699996
 20
128.1257415713
 10
67.24022377769997
 20
128.1648400582
 10
67.31842075149995
 20
128.1648400582
 10
67.39661772529996
 20
128.2039385451
 10
67.47481469909996
 20
128.2039385451
 10
67.55301167289996
 20
128.243037032
 10
67.63120864669996
 20
128.2821355189
 10
67.67030713359996
 20
128.3212340058
 10
67.74850410739997
 20
128.3603324927
 10
67.82670108119996
 20
128.3994309796
 10
67.86579956809996
 20
128.4385294665
 10
67.94399654189996
 20
128.4776279534
 10
68.02219351569997
 20
128.5558249272
 10
68.06129200259995
 20
128.5949234141
 10
68.13948897639996
 20
128.6731203879
 10
68.17858746329996
 20
128.7513173617
 10
68.21768595019996
 20
128.8295143355
 10
68.29588292399996
 20
128.9077113093
 10
68.33498141089996
 20
128.9859082831
 10
68.37407989779996
 20
129.0641052569
 10
68.41317838469996
 20
129.1423022307
 10
68.45227687159996
 20
129.2595976914
 10
68.49137535849997
 20
129.3377946652
 10
68.53047384539997
 20
129.4550901259
 10
68.56957233229997
 20
129.5723855866
 10
68.60867081919995
 20
129.6896810473
 10
68.64776930609996
 20
129.7678780211
 10
68.68686779299996
 20
129.9242719687
 10
68.68686779299996
 20
130.0415674294
 10
68.72596627989996
 20
130.1588628901
 10
68.76506476679996
 20
130.2761583508
 10
68.76506476679996
 20
130.4325522984
 10
68.80416325369997
 20
130.5498477591
 10
68.80416325369997
 20
130.7062417067
 10
68.84326174059996
 20
130.8626356543
 10
68.84326174059996
 20
131.0190296019
 10
68.84326174059996
 20
131.1754235495
 10
68.84326174059996
 20
131.3318174971
 10
68.88236022749996
 20
131.4882114447
 10
68.88236022749996
 20
131.6837038792
 10
68.88236022749996
 20
131.8400978268
 10
68.88236022749996
 20
132.0355902613
 10
68.88236022749996
 20
132.1919842089
 10
68.88236022749996
 20
132.3874766434
 10
68.88236022749996
 20
132.543870591
 10
68.84326174059996
 20
132.7393630255
 10
68.84326174059996
 20
132.8957569731
 10
68.84326174059996
 20
133.0521509207
 10
68.84326174059996
 20
133.2085448683
 10
68.80416325369997
 20
133.3649388159
 10
68.80416325369997
 20
133.5213327635
 10
68.76506476679996
 20
133.6386282242
 10
68.76506476679996
 20
133.7950221718
 10
68.72596627989996
 20
133.9123176325
 10
68.72596627989996
 20
134.0687115801
 10
68.68686779299996
 20
134.1860070408
 10
68.64776930609996
 20
134.3033025015
 10
68.60867081919995
 20
134.4205979622
 10
68.60867081919995
 20
134.5378934229
 10
68.56957233229997
 20
134.6551888836
 10
68.53047384539997
 20
134.7724843443
 10
68.49137535849997
 20
134.8506813181
 10
68.45227687159996
 20
134.9679767788
 10
68.41317838469996
 20
135.0461737526
 10
68.37407989779996
 20
135.1243707264
 10
68.29588292399996
 20
135.2416661871
 10
68.25678443709996
 20
135.3198631609
 10
68.21768595019996
 20
135.3980601347
 10
68.17858746329996
 20
135.4371586216
 10
68.10039048949995
 20
135.5153555954
 10
68.06129200259995
 20
135.5935525692
 10
67.98309502879996
 20
135.6326510561
 10
67.94399654189996
 20
135.7108480299
 10
67.86579956809996
 20
135.7499465168
 10
67.82670108119996
 20
135.7890450037
 10
67.74850410739997
 20
135.8281434906
 10
67.67030713359996
 20
135.8672419775
 10
67.63120864669996
 20
135.9063404644
 10
67.55301167289996
 20
135.9454389513
 10
67.47481469909996
 20
135.9845374382
 10
67.39661772529996
 20
135.9845374382
 10
67.31842075149995
 20
136.0236359251
 10
67.24022377769997
 20
136.0236359251
 10
67.16202680389996
 20
136.0236359251
 10
67.08382983009996
 20
136.062734412
 10
67.00563285629996
 20
136.062734412
 10
66.92743588249996
 20
136.0236359251
 10
66.84923890869995
 20
136.0236359251
 10
66.73194344799997
 20
136.0236359251
 10
66.65374647419996
 20
136.0236359251
 10
66.57554950039996
 20
135.9845374382
 10
66.49735252659997
 20
135.9845374382
 10
66.41915555279997
 20
135.9454389513
 10
66.38005706589996
 20
135.9063404644
 10
66.30186009209996
 20
135.8672419775
 10
66.22366311829996
 20
135.8281434906
 10
66.14546614449996
 20
135.7890450037
 10
66.10636765759996
 20
135.7499465168
 10
66.02817068379995
 20
135.7108480299
 10
65.94997370999997
 20
135.6326510561
 10
65.91087522309996
 20
135.5935525692
 10
65.83267824929996
 20
135.5153555954
 10
65.79357976239996
 20
135.4762571085
 10
65.75448127549996
 20
135.3980601347
 10
65.67628430169996
 20
135.3198631609
 10
65.63718581479996
 20
135.2416661871
 10
65.59808732789996
 20
135.1634692133
 10
65.55898884099995
 20
135.0852722395
 10
65.48079186719995
 20
134.9679767788
 10
65.44169338029997
 20
134.889779805
 10
65.40259489339996
 20
134.7724843443
 10
65.36349640649996
 20
134.6942873705
 10
65.32439791959996
 20
134.5769919098
 10
65.32439791959996
 20
134.4596964491
 10
65.28529943269996
 20
134.3424009884
 10
65.24620094579995
 20
134.2251055277
 10
65.20710245889997
 20
134.107810067
 10
65.20710245889997
 20
133.9905146063
 10
65.16800397199997
 20
133.8341206587
 10
65.12890548509997
 20
133.716825198
 10
65.12890548509997
 20
133.5604312504
 10
65.08980699819996
 20
133.4431357897
 10
65.08980699819996
 20
133.2867418421
 10
65.08980699819996
 20
133.1303478945
 10
65.05070851129996
 20
132.9739539469
 10
65.05070851129996
 20
132.8175599993
 10
65.05070851129996
 20
132.6611660517
 10
65.05070851129996
 20
132.4656736172
 10
65.05070851129996
 20
132.3092796696
 10
65.01161002439996
 20
132.152885722
 10
65.01161002439996
 20
131.9573932875
 97
        0
 75
     0
 76
     1
 98
        1
 10
0.0
 20
0.0
450
        0
451
        0
460
0.0
461
0.0
452
        0
462
0.0
453
        0
470

  0
ARC
  5
301
330
1F
100
AcDbEntity
  8
PDF _0
370
    25
100
AcDbCircle
 10
76.36972073835328
 20
228.6675009041532
 30
0.0
 40
2.013571805846712
100
AcDbArc
 50
359.9999923313439
 51
90.00000766866213
  0
LWPOLYLINE
  5
302
330
1F
100
AcDbEntity
  8
PDF _0
370
    25
100
AcDbPolyline
 90
        4
 70
     0
 43
0.0
 10
76.38926971229998
 20
230.6419742231001
 10
48.39475309189996
 20
230.6419742231001
 10
48.39475309189996
 20
140.6372573793
 10
76.38926971229998
 20
140.6372573793
  0
ARC
  5
303
330
1F
100
AcDbEntity
  8
PDF _0
370
    25
100
AcDbCircle
 10
76.36972073835423
 20
142.6508291851457
 30
0.0
 40
2.013571805845675
100
AcDbArc
 50
269.9999923313107
 51
0.000007668691642
  0
LWPOLYLINE
  5
304
330
1F
100
AcDbEntity
  8
PDF _0
370
    25
100
AcDbPolyline
 90
        2
 70
     0
 43
0.0
 10
78.38329254419997
 20
142.6312802112
 10
78.38329254419997
 20
228.6479513912001
  0
ARC
  5
305
330
1F
100
AcDbEntity
  8
PDF _0
370
    25
100
AcDbCircle
 10
131.2248977155566
 20
185.659172247113
 30
0.0
 40
49.98742189930855
100
AcDbArc
 50
215.2276672751678
 51
144.7723327248321
  0
LWPOLYLINE
  5
306
330
1F
100
AcDbEntity
  8
PDF _0
370
    25
100
AcDbPolyline
 90
        2
 70
     0
 43
0.0
 10
90.38652802249998
 20
155.6510763489001
 10
90.38652802249998
 20
215.6281552535001
  0
LWPOLYLINE
  5
307
330
1F
100
AcDbEntity
  8
PDF _0
370
    25
100
AcDbPolyline
 90
        2
 70
     0
 43
0.0
 10
78.38329254419997
 20
180.4004185566
 10
78.38329254419997
 20
190.8788130458
  0
ARC
  5
308
330
1F
100
AcDbEntity
  8
PDF _0
370
    25
100
AcDbCircle
 10
120.7465117824066
 20
185.6591619537634
 30
0.0
 40
42.67600693124493
100
AcDbArc
 50
135.3350904909695
 51
172.9357880026916
  0
ARC
  5
309
330
1F
100
AcDbEntity
  8
PDF _0
370
    25
100
AcDbCircle
 10
120.7465117824066
 20
185.6591681355368
 30
0.0
 40
42.67600693124495
100
AcDbArc
 50
187.0642119973084
 51
224.6649095090304
  0
LWPOLYLINE
  5
30C
330
1F
100
AcDbEntity
  8
PDF _0
370
    25
100
AcDbPolyline
 90
        2
 70
     0
 43
0.0
 10
197.5163821285
 20
234.1999365310001
 10
197.5163821285
 20
137.0792950714
  0
SOLID
  5
30D
330
1F
100
AcDbEntity
  8
PDF _0
440
 33554559
100
AcDbTrace
 10
197.2817912071
 20
234.1999365310001
 30
0.0
 11
197.7900715368
 21
234.1999365310001
 31
0.0
 12
197.5163821285
 22
235.6465805463001
 32
0.0
 13
197.5163821285
 23
235.6465805463001
 33
0.0
  0
SOLID
  5
30E
330
1F
100
AcDbEntity
  8
PDF _0
440
 33554559
100
AcDbTrace
 10
197.2817912071
 20
137.0792950714
 30
0.0
 11
197.7900715368
 21
137.0792950714
 31
0.0
 12
197.5163821285
 22
135.6326510561
 32
0.0
 13
197.5163821285
 23
135.6326510561
 33
0.0
  0
LWPOLYLINE
  5
311
330
1F
100
AcDbEntity
  8
PDF _0
370
    25
100
AcDbPolyline
 90
        2
 70
     0
 43
0.0
 10
23.95819877939997
 20
229.1953302078001
 10
23.95819877939997
 20
142.0839013946
  0
SOLID
  5
312
330
1F
100
AcDbEntity
  8
PDF _0
440
 33554559
100
AcDbTrace
 10
23.72360785799995
 20
229.1953302078001
 30
0.0
 11
24.23188818769995
 21
229.1953302078001
 31
0.0
 12
23.95819877939997
 22
230.6419742231001
 32
0.0
 13
23.95819877939997
 23
230.6419742231001
 33
0.0
  0
SOLID
  5
313
330
1F
100
AcDbEntity
  8
PDF _0
440
 33554559
100
AcDbTrace
 10
23.72360785799995
 20
142.0839013946
 30
0.0
 11
24.23188818769995
 21
142.0839013946
 31
0.0
 12
23.95819877939997
 22
140.6372573793
 32
0.0
 13
23.95819877939997
 23
140.6372573793
 33
0.0
  0
LWPOLYLINE
  5
316
330
1F
100
AcDbEntity
  8
PDF _0
370
    25
100
AcDbPolyline
 90
        2
 70
     0
 43
0.0
 10
179.8047675628
 20
113.2683165493
 10
49.84139710719998
 20
113.2683165493
  0
SOLID
  5
317
330
1F
100
AcDbEntity
  8
PDF _0
440
 33554559
100
AcDbTrace
 10
179.8047675628
 20
113.5029074707
 30
0.0
 11
179.8047675628
 21
113.0337256279
 31
0.0
 12
181.2514115781
 22
113.2683165493
 32
0.0
 13
181.2514115781
 23
113.2683165493
 33
0.0
  0
SOLID
  5
318
330
1F
100
AcDbEntity
  8
PDF _0
440
 33554559
100
AcDbTrace
 10
49.84139710719998
 20
113.5029074707
 30
0.0
 11
49.84139710719998
 21
113.0337256279
 31
0.0
 12
48.39475309189996
 22
113.2683165493
 32
0.0
 13
48.39475309189996
 23
113.2683165493
 33
0.0
  0
LWPOLYLINE
  5
31B
330
1F
100
AcDbEntity
  8
PDF _0
370
    25
100
AcDbPolyline
 90
        2
 70
     0
 43
0.0
 10
49.84139710719998
 20
126.3663096608
 10
76.93664852889998
 20
126.3663096608
  0
SOLID
  5
31C
330
1F
100
AcDbEntity
  8
PDF _0
440
 33554559
100
AcDbTrace
 10
49.84139710719998
 20
126.6399990691
 30
0.0
 11
49.84139710719998
 21
126.1317187394
 31
0.0
 12
48.39475309189996
 22
126.3663096608
 32
0.0
 13
48.39475309189996
 23
126.3663096608
 33
0.0
  0
SOLID
  5
31D
330
1F
100
AcDbEntity
  8
PDF _0
440
 33554559
100
AcDbTrace
 10
76.93664852889998
 20
126.6399990691
 30
0.0
 11
76.93664852889998
 21
126.1317187394
 31
0.0
 12
78.38329254419997
 22
126.3663096608
 32
0.0
 13
78.38329254419997
 23
126.3663096608
 33
0.0
  0
ENDSEC
  0
SECTION
  2
OBJECTS
  0
DICTIONARY
  5
C
330
0
100
AcDbDictionary
281
     1
  3
ACAD_CIP_PREVIOUS_PRODUCT_INFO
350
216
  3
ACAD_COLOR
350
6B
  3
ACAD_DETAILVIEWSTYLE
350
21B
  3
ACAD_GROUP
350
D
  3
ACAD_LAYOUT
350
1A
  3
ACAD_MATERIAL
350
6A
  3
ACAD_MLEADERSTYLE
350
12D
  3
ACAD_MLINESTYLE
350
17
  3
ACAD_PLOTSETTINGS
350
19
  3
ACAD_PLOTSTYLENAME
350
E
  3
ACAD_SCALELIST
350
10C
  3
ACAD_SECTIONVIEWSTYLE
350
219
  3
ACAD_TABLESTYLE
350
7E
  3
ACAD_VISUALSTYLE
350
EF
  3
ACDB_RECOMPOSE_DATA
350
534
  3
AcDbVariableDictionary
350
5E
  3
AcDsDecomposeData
350
53A
  0
DICTIONARY
  5
1FF
330
2
100
AcDbDictionary
280
     1
281
     1
  3
ACAD_LAYERSTATES
360
200
  0
DICTIONARY
  5
13C
330
10
100
AcDbDictionary
280
     1
281
     1
  0
DICTIONARY
  5
1CE
330
1F
100
AcDbDictionary
280
     1
281
     1
  0
XRECORD
  5
216
102
{ACAD_REACTORS
330
C
102
}
330
C
100
AcDbXrecord
280
     1
300
ACD
300
2022
300

  0
DICTIONARY
  5
6B
102
{ACAD_REACTORS
330
C
102
}
330
C
100
AcDbDictionary
281
     1
  0
DICTIONARY
  5
21B
102
{ACAD_REACTORS
330
C
102
}
330
C
100
AcDbDictionary
281
     1
  3
Metric50
350
21C
  0
DICTIONARY
  5
D
102
{ACAD_REACTORS
330
C
102
}
330
C
100
AcDbDictionary
281
     1
  0
DICTIONARY
  5
1A
102
{ACAD_REACTORS
330
C
102
}
330
C
100
AcDbDictionary
281
     1
  3
Layout1
350
D3
  3
Layout2
350
D7
  3
Model
350
22
  0
DICTIONARY
  5
6A
102
{ACAD_REACTORS
330
C
102
}
330
C
100
AcDbDictionary
281
     1
  3
ByBlock
350
ED
  3
ByLayer
350
EC
  3
Global
350
EE
  0
DICTIONARY
  5
12D
102
{ACAD_REACTORS
330
C
102
}
330
C
100
AcDbDictionary
281
     1
  3
Annotativa
350
13B
  3
Standard
350
12E
  0
DICTIONARY
  5
17
102
{ACAD_REACTORS
330
C
102
}
330
C
100
AcDbDictionary
281
     1
  3
Standard
350
18
  0
DICTIONARY
  5
19
102
{ACAD_REACTORS
330
C
102
}
330
C
100
AcDbDictionary
281
     1
  0
ACDBDICTIONARYWDFLT
  5
E
102
{ACAD_REACTORS
330
C
102
}
330
C
100
AcDbDictionary
281
     1
  3
Normal
350
F
100
AcDbDictionaryWithDefault
340
F
  0
DICTIONARY
  5
10C
102
{ACAD_REACTORS
330
C
102
}
330
C
100
AcDbDictionary
281
     1
  3
A0
350
10D
  3
A1
350
1BE
  3
A2
350
1BF
  3
A3
350
1C0
  3
A4
350
1C1
  3
A5
350
1C2
  3
A6
350
1C3
  3
A7
350
1C4
  3
A8
350
1C5
  3
A9
350
1C6
  3
B0
350
1C7
  3
B1
350
1C8
  3
B2
350
1C9
  3
B3
350
1CA
  3
B4
350
1CB
  3
B5
350
1CC
  3
B6
350
1CD
  0
DICTIONARY
  5
219
102
{ACAD_REACTORS
330
C
102
}
330
C
100
AcDbDictionary
281
     1
  3
Metric50
350
21A
  0
DICTIONARY
  5
7E
102
{ACAD_REACTORS
330
C
102
}
330
C
100
AcDbDictionary
281
     1
  3
Standard
350
7F
  0
DICTIONARY
  5
EF
102
{ACAD_REACTORS
330
C
102
}
330
C
100
AcDbDictionary
281
     1
  3
2dWireframe
350
F5
  3
Basic
350
F4
  3
Brighten
350
FB
  3
ColorChange
350
FF
  3
Conceptual
350
F8
  3
Dim
350
FA
  3
EdgeColorOff
350
1E6
  3
Facepattern
350
FE
  3
Flat
350
F0
  3
FlatWithEdges
350
F1
  3
Gouraud
350
F2
  3
GouraudWithEdges
350
F3
  3
Hidden
350
F7
  3
JitterOff
350
1E4
  3
Linepattern
350
FD
  3
OverhangOff
350
1E5
  3
Realistic
350
F9
  3
Shaded
350
1F3
  3
Shaded with edges
350
1F2
  3
Shades of Gray
350
1EF
  3
Sketchy
350
1F0
  3
Thicken
350
FC
  3
Wireframe
350
F6
  3
X-Ray
350
1F1
  0
XRECORD
  5
534
102
{ACAD_REACTORS
330
C
102
}
330
C
100
AcDbXrecord
280
     1
 90
        1
330
7F
  0
DICTIONARY
  5
5E
102
{ACAD_REACTORS
330
C
102
}
330
C
100
AcDbDictionary
281
     1
  3
CANNOSCALE
350
146
  3
CENTEREXE
350
259
  3
CENTERLTYPEFILE
350
25A
  3
CMLEADERSTYLE
350
145
  3
CTABLESTYLE
350
84
  3
CVIEWDETAILSTYLE
350
227
  3
CVIEWSECTIONSTYLE
350
228
  3
DIMASSOC
350
5F
  3
HIDETEXT
350
63
  3
LAYEREVAL
350
1AE
  3
LAYERNOTIFY
350
1AF
  0
DICTIONARY
  5
53A
102
{ACAD_REACTORS
330
C
102
}
330
C
100
AcDbDictionary
281
     1
  3
AcDsRecords
350
53C
  3
AcDsSchemas
350
53B
1001
ACAD
1070
     2
  0
DICTIONARY
  5
200
102
{ACAD_REACTORS
330
1FF
102
}
330
1FF
100
AcDbDictionary
281
     1
  0
ACDBDETAILVIEWSTYLE
  5
21C
102
{ACAD_XDICTIONARY
360
53F
102
}
102
{ACAD_REACTORS
330
21B
102
}
330
21B
100
AcDbModelDocViewStyle
 70
     0
  3
Metric50
290
     0
100
AcDbDetailViewStyle
 70
     0
 71
     0
 90
        3
 71
     1
340
11
 62
   256
 40
5.0
340
0
 62
   256
 40
5.0
300

 40
0.0
280
     1
 71
     2
340
16
 90
       25
 62
   256
 71
     3
340
11
 62
   256
 40
5.0
 90
        0
 40
15.0
 90
        1
300
%<\AcVar ViewDetailId>% (%<\AcVar ViewScale \f "%sn">%)
 71
     4
340
16
 90
       25
 62
   256
340
16
 90
       25
 62
   256
280
     0
  0
LAYOUT
  5
D3
102
{ACAD_REACTORS
330
1A
102
}
330
1A
100
AcDbPlotSettings
  1

  2
C:\Documents and Settings\basas\Application Data\Autodesk\AutoCAD 2005\R16.1\enu\plotters\Default Windows System Printer.pc3
  4

  6

 40
0.0
 41
0.0
 42
0.0
 43
0.0
 44
0.0
 45
0.0
 46
0.0
 47
0.0
 48
0.0
 49
0.0
140
0.0
141
0.0
142
1.0
143
1.0
 70
   688
 72
     0
 73
     0
 74
     5
  7

 75
    16
147
1.0
 76
     0
 77
     2
 78
   300
148
0.0
149
0.0
100
AcDbLayout
  1
Layout1
 70
     1
 71
     1
 10
0.0
 20
0.0
 11
12.0
 21
9.0
 12
0.0
 22
0.0
 32
0.0
 14
0.0
 24
0.0
 34
0.0
 15
0.0
 25
0.0
 35
0.0
146
0.0
 13
0.0
 23
0.0
 33
0.0
 16
1.0
 26
0.0
 36
0.0
 17
0.0
 27
1.0
 37
0.0
 76
     0
330
D2
  0
LAYOUT
  5
D7
102
{ACAD_REACTORS
330
1A
102
}
330
1A
100
AcDbPlotSettings
  1

  2
C:\Documents and Settings\basas\Application Data\Autodesk\AutoCAD 2005\R16.1\enu\plotters\Default Windows System Printer.pc3
  4

  6

 40
0.0
 41
0.0
 42
0.0
 43
0.0
 44
0.0
 45
0.0
 46
0.0
 47
0.0
 48
0.0
 49
0.0
140
0.0
141
0.0
142
1.0
143
1.0
 70
   688
 72
     0
 73
     0
 74
     5
  7

 75
    16
147
1.0
 76
     0
 77
     2
 78
   300
148
0.0
149
0.0
100
AcDbLayout
  1
Layout2
 70
     1
 71
     2
 10
0.0
 20
0.0
 11
12.0
 21
9.0
 12
0.0
 22
0.0
 32
0.0
 14
0.0
 24
0.0
 34
0.0
 15
0.0
 25
0.0
 35
0.0
146
0.0
 13
0.0
 23
0.0
 33
0.0
 16
1.0
 26
0.0
 36
0.0
 17
0.0
 27
1.0
 37
0.0
 76
     0
330
D6
  0
LAYOUT
  5
22
102
{ACAD_XDICTIONARY
360
205
102
}
102
{ACAD_REACTORS
330
1A
102
}
330
1A
100
AcDbPlotSettings
  1

  2
none_device
  4
ISO_A4_(210.00_x_297.00_MM)
  6

 40
7.5
 41
20.0
 42
7.5
 43
20.0
 44
210.0
 45
297.0
 46
11.54999923706054
 47
-13.65000009536743
 48
0.0
 49
0.0
140
0.0
141
0.0
142
1.0
143
8.704084754739808
 70
 11952
 72
     1
 73
     0
 74
     0
  7

 75
     0
147
0.1148885871608098
 76
     0
 77
     2
 78
   300
148
0.0
149
0.0
100
AcDbLayout
  1
Model
 70
     1
 71
     0
 10
0.0
 20
0.0
 11
12.0
 21
9.0
 12
0.0
 22
0.0
 32
0.0
 14
0.0
 24
0.0
 34
0.0
 15
0.0
 25
0.0
 35
0.0
146
0.0
 13
0.0
 23
0.0
 33
0.0
 16
1.0
 26
0.0
 36
0.0
 17
0.0
 27
1.0
 37
0.0
 76
     0
330
1F
331
EA
1001
ACAD_PSEXT
1000
None
1000
None
1000
Not applicable
1000
The layout will not be plotted unless a new plotter configuration name is selected.
1070
     0
  0
MATERIAL
  5
ED
102
{ACAD_XDICTIONARY
360
1F9
102
}
102
{ACAD_REACTORS
330
6A
102
}
330
6A
100
AcDbMaterial
  1
ByBlock
 94
       63
  0
MATERIAL
  5
EC
102
{ACAD_XDICTIONARY
360
1F7
102
}
102
{ACAD_REACTORS
330
6A
102
}
330
6A
100
AcDbMaterial
  1
ByLayer
 94
       63
  0
MATERIAL
  5
EE
102
{ACAD_XDICTIONARY
360
173
102
}
102
{ACAD_REACTORS
330
6A
102
}
330
6A
100
AcDbMaterial
  1
Global
 43
0.0007999999797903
 43
0.0
 43
0.0
 43
0.0
 43
0.0
 43
0.0007999999797903
 43
0.0
 43
0.0
 43
0.0
 43
0.0
 43
1.0
 43
0.0
 43
0.0
 43
0.0
 43
0.0
 43
1.0
 49
0.0007999999797903
 49
0.0
 49
0.0
 49
0.0
 49
0.0
 49
0.0007999999797903
 49
0.0
 49
0.0
 49
0.0
 49
0.0
 49
1.0
 49
0.0
 49
0.0
 49
0.0
 49
0.0
 49
1.0
142
0.0007999999797903
142
0.0
142
0.0
142
0.0
142
0.0
142
0.0007999999797903
142
0.0
142
0.0
142
0.0
142
0.0
142
1.0
142
0.0
142
0.0
142
0.0
142
0.0
142
1.0
144
0.0007999999797903
144
0.0
144
0.0
144
0.0
144
0.0
144
0.0007999999797903
144
0.0
144
0.0
144
0.0
144
0.0
144
1.0
144
0.0
144
0.0
144
0.0
144
0.0
144
1.0
 94
       63
1001
ACAD
1070
    -1
1070
     3
1070
     0
1000

1071
        0
1070
     0
  0
MLEADERSTYLE
  5
13B
102
{ACAD_REACTORS
330
12D
102
}
330
12D
100
AcDbMLeaderStyle
179
     2
170
     2
171
     1
172
     0
 90
        2
 40
0.0
 41
0.0
173
     1
 91
-1056964608
340
14
 92
       -2
290
     1
 42
2.0
291
     1
 43
8.0
  3
Standard
 44
4.0
300

342
11
174
     1
178
     1
175
     1
176
     0
 93
-1056964608
 45
4.0
292
     0
297
     0
 46
4.0
 94
-1056964608
 47
1.0
 49
1.0
140
1.0
293
     1
141
0.0
294
     1
177
     0
142
1.0
295
     0
296
     1
143
3.75
271
     0
272
     9
273
     9
298
     0
  0
MLEADERSTYLE
  5
12E
102
{ACAD_REACTORS
330
12D
102
}
330
12D
100
AcDbMLeaderStyle
179
     2
170
     2
171
     1
172
     0
 90
        2
 40
0.0
 41
0.0
173
     1
 91
-1056964608
340
14
 92
       -2
290
     1
 42
2.0
291
     1
 43
8.0
  3
Standard
 44
4.0
300

342
11
174
     1
178
     1
175
     1
176
     0
 93
-1056964608
 45
4.0
292
     0
297
     0
 46
4.0
 94
-1056964608
 47
1.0
 49
1.0
140
1.0
293
     1
141
0.0
294
     1
177
     0
142
1.0
295
     0
296
     0
143
3.75
271
     0
272
     9
273
     9
298
     0
  0
MLINESTYLE
  5
18
102
{ACAD_REACTORS
330
17
102
}
330
17
100
AcDbMlineStyle
  2
STANDARD
 70
     0
  3

 62
   256
 51
90.0
 52
90.0
 71
     2
 49
0.5
 62
   256
  6
BYLAYER
 49
-0.5
 62
   256
  6
BYLAYER
  0
ACDBPLACEHOLDER
  5
F
102
{ACAD_REACTORS
330
E
102
}
330
E
  0
SCALE
  5
10D
102
{ACAD_REACTORS
330
10C
102
}
330
10C
100
AcDbScale
 70
     0
300
1:1
140
1.0
141
1.0
290
     1
  0
SCALE
  5
1BE
102
{ACAD_REACTORS
330
10C
102
}
330
10C
100
AcDbScale
 70
     0
300
1:2
140
1.0
141
2.0
290
     0
  0
SCALE
  5
1BF
102
{ACAD_REACTORS
330
10C
102
}
330
10C
100
AcDbScale
 70
     0
300
1:4
140
1.0
141
4.0
290
     0
  0
SCALE
  5
1C0
102
{ACAD_REACTORS
330
10C
102
}
330
10C
100
AcDbScale
 70
     0
300
1:5
140
1.0
141
5.0
290
     0
  0
SCALE
  5
1C1
102
{ACAD_REACTORS
330
10C
102
}
330
10C
100
AcDbScale
 70
     0
300
1:8
140
1.0
141
8.0
290
     0
  0
SCALE
  5
1C2
102
{ACAD_REACTORS
330
10C
102
}
330
10C
100
AcDbScale
 70
     0
300
1:10
140
1.0
141
10.0
290
     0
  0
SCALE
  5
1C3
102
{ACAD_REACTORS
330
10C
102
}
330
10C
100
AcDbScale
 70
     0
300
1:16
140
1.0
141
16.0
290
     0
  0
SCALE
  5
1C4
102
{ACAD_REACTORS
330
10C
102
}
330
10C
100
AcDbScale
 70
     0
300
1:20
140
1.0
141
20.0
290
     0
  0
SCALE
  5
1C5
102
{ACAD_REACTORS
330
10C
102
}
330
10C
100
AcDbScale
 70
     0
300
1:30
140
1.0
141
30.0
290
     0
  0
SCALE
  5
1C6
102
{ACAD_REACTORS
330
10C
102
}
330
10C
100
AcDbScale
 70
     0
300
1:40
140
1.0
141
40.0
290
     0
  0
SCALE
  5
1C7
102
{ACAD_REACTORS
330
10C
102
}
330
10C
100
AcDbScale
 70
     0
300
1:50
140
1.0
141
50.0
290
     0
  0
SCALE
  5
1C8
102
{ACAD_REACTORS
330
10C
102
}
330
10C
100
AcDbScale
 70
     0
300
1:100
140
1.0
141
100.0
290
     0
  0
SCALE
  5
1C9
102
{ACAD_REACTORS
330
10C
102
}
330
10C
100
AcDbScale
 70
     0
300
2:1
140
2.0
141
1.0
290
     0
  0
SCALE
  5
1CA
102
{ACAD_REACTORS
330
10C
102
}
330
10C
100
AcDbScale
 70
     0
300
4:1
140
4.0
141
1.0
290
     0
  0
SCALE
  5
1CB
102
{ACAD_REACTORS
330
10C
102
}
330
10C
100
AcDbScale
 70
     0
300
8:1
140
8.0
141
1.0
290
     0
  0
SCALE
  5
1CC
102
{ACAD_REACTORS
330
10C
102
}
330
10C
100
AcDbScale
 70
     0
300
10:1
140
10.0
141
1.0
290
     0
  0
SCALE
  5
1CD
102
{ACAD_REACTORS
330
10C
102
}
330
10C
100
AcDbScale
 70
     0
300
100:1
140
100.0
141
1.0
290
     0
  0
ACDBSECTIONVIEWSTYLE
  5
21A
102
{ACAD_XDICTIONARY
360
53D
102
}
102
{ACAD_REACTORS
330
219
102
}
330
219
100
AcDbModelDocViewStyle
 70
     0
  3
Metric50
290
     0
100
AcDbSectionViewStyle
 70
     0
 71
     0
 90
      102
 71
     1
340
11
 62
   256
 40
5.0
340
0
340
0
 62
   256
 40
5.0
300
I, O, Q, S, X, Z
 40
10.0
 90
        0
 40
2.5
 90
        0
 71
     2
340
16
 90
       25
 62
   256
340
16
 90
       50
 62
   256
 40
5.0
 40
2.5
 40
5.0
 71
     3
340
11
 62
   256
 40
5.0
 90
        0
 40
15.0
 90
        1
300
%<\AcVar ViewSectionStartId>%-%<\AcVar ViewSectionEndId>% (%<\AcVar ViewScale \f "%sn">%)
 71
     4
 62
   256
 62
   257
300
ANSI31
 40
1.0
 90
        0
290
     0
290
     0
 90
        6
 40
0.0
 40
1.570796326794896
 40
0.2617993877991494
 40
1.308996938995747
 40
-0.2617993877991494
 40
1.832595714594046
  0
TABLESTYLE
  5
7F
102
{ACAD_XDICTIONARY
360
162
102
}
102
{ACAD_REACTORS
330
7E
102
}
330
7E
100
AcDbTableStyle
280
     0
  3
Standard
 70
     0
 71
     0
 40
1.5
 41
1.5
280
     0
281
     0
  7
Standard
140
4.5
170
     2
 62
     0
 63
     7
283
     0
 90
      512
 91
        0
  1

274
    -2
284
     1
 64
     0
275
    -2
285
     1
 65
     0
276
    -2
286
     1
 66
     0
277
    -2
287
     1
 67
     0
278
    -2
288
     1
 68
     0
279
    -2
289
     1
 69
     0
  7
Standard
140
6.0
170
     5
 62
     0
 63
     7
283
     0
 90
      512
 91
        0
  1

274
    -2
284
     1
 64
     0
275
    -2
285
     1
 65
     0
276
    -2
286
     1
 66
     0
277
    -2
287
     1
 67
     0
278
    -2
288
     1
 68
     0
279
    -2
289
     1
 69
     0
  7
Standard
140
4.5
170
     5
 62
     0
 63
     7
283
     0
 90
      512
 91
        0
  1

274
    -2
284
     1
 64
     0
275
    -2
285
     1
 65
     0
276
    -2
286
     1
 66
     0
277
    -2
287
     1
 67
     0
278
    -2
288
     1
 68
     0
279
    -2
289
     1
 69
     0
  0
VISUALSTYLE
  5
F5
102
{ACAD_REACTORS
330
EF
102
}
330
EF
100
AcDbVisualStyle
  2
2dWireframe
 70
     4
177
     3
291
     0
 70
    58
 90
        0
176
     1
 90
        2
176
     1
 90
        1
176
     1
 90
        0
176
     1
 40
0.6
176
     1
 40
30.0
176
     1
 62
     7
420
 16777215
176
     1
 90
        1
176
     1
 90
        4
176
     1
 62
     7
176
     1
 62
   257
176
     1
 90
        1
176
     1
 90
        1
176
     1
 40
1.0
176
     1
 90
        0
176
     1
 62
   257
176
     1
 40
1.0
176
     1
 90
        1
176
     1
 90
        6
176
     1
 90
        2
176
     1
 62
     7
176
     1
 90
        5
176
     1
 90
        0
176
     1
 90
        0
176
     1
290
     0
176
     1
 90
        1
176
     1
 40
0.0
176
     1
 90
        0
176
     1
290
     1
176
     1
290
     1
176
     1
290
     0
176
     1
290
     0
176
     1
290
     0
176
     1
290
     0
176
     1
290
     0
176
     1
290
     0
176
     1
290
     0
176
     1
 90
       50
176
     1
 40
0.0
176
     1
 40
1.0
176
     1
 90
        0
176
     1
 62
    18
420
        0
176
     1
 90
       50
176
     1
 90
        3
176
     1
 62
     5
420
      255
176
     1
290
     0
176
     1
 90
       50
176
     1
 90
       50
176
     1
 90
       50
176
     1
290
     0
176
     1
 90
       50
176
     1
 62
   256
176
     0
 40
1.0
176
     0
 90
        2
176
     1
  1
strokes_ogs.tif
176
     1
290
     0
176
     1
 40
1.0
176
     1
 40
1.0
176
     1
1001
ACAD
1000
AcDbSavedByObjectVersion
1070
     0
  0
VISUALSTYLE
  5
F4
102
{ACAD_REACTORS
330
EF
102
}
330
EF
100
AcDbVisualStyle
  2
Basic
 70
     7
177
     3
291
     1
 70
    58
 90
        1
176
     1
 90
        0
176
     1
 90
        1
176
     1
 90
        0
176
     1
 40
0.6
176
     1
 40
30.0
176
     1
 62
     7
420
 16777215
176
     1
 90
        0
176
     1
 90
        4
176
     1
 62
     7
176
     1
 62
   257
176
     1
 90
        1
176
     1
 90
        1
176
     1
 40
1.0
176
     1
 90
        8
176
     1
 62
     7
176
     1
 40
1.0
176
     1
 90
        1
176
     1
 90
        6
176
     1
 90
        2
176
     1
 62
     7
176
     1
 90
        5
176
     1
 90
        0
176
     1
 90
        0
176
     1
290
     0
176
     1
 90
        1
176
     1
 40
0.0
176
     1
 90
        0
176
     1
290
     0
176
     1
290
     1
176
     1
290
     1
176
     1
290
     0
176
     1
290
     0
176
     1
290
     0
176
     1
290
     0
176
     1
290
     0
176
     1
290
     0
176
     1
 90
       50
176
     1
 40
0.0
176
     1
 40
1.0
176
     1
 90
        0
176
     1
 62
    18
420
        0
176
     1
 90
       50
176
     1
 90
        3
176
     1
 62
     5
420
      255
176
     1
290
     0
176
     1
 90
       50
176
     1
 90
       50
176
     1
 90
       50
176
     1
290
     0
176
     1
 90
       50
176
     1
 62
   256
176
     0
 40
1.0
176
     0
 90
        2
176
     1
  1
strokes_ogs.tif
176
     1
290
     0
176
     1
 40
1.0
176
     1
 40
1.0
176
     1
1001
ACAD
1000
AcDbSavedByObjectVersion
1070
     0
  0
VISUALSTYLE
  5
FB
102
{ACAD_REACTORS
330
EF
102
}
330
EF
100
AcDbVisualStyle
  2
Brighten
 70
    12
177
     3
291
     1
 70
    58
 90
        2
176
     1
 90
        2
176
     1
 90
        1
176
     1
 90
        0
176
     1
 40
0.6
176
     1
 40
30.0
176
     1
 62
     7
420
 16777215
176
     1
 90
        1
176
     1
 90
        4
176
     1
 62
     7
176
     1
 62
   257
176
     1
 90
        1
176
     1
 90
        1
176
     1
 40
1.0
176
     1
 90
        8
176
     1
 62
     7
176
     1
 40
1.0
176
     1
 90
        1
176
     1
 90
        6
176
     1
 90
        2
176
     1
 62
     7
176
     1
 90
        5
176
     1
 90
        0
176
     1
 90
        0
176
     1
290
     0
176
     1
 90
        1
176
     1
 40
50.0
176
     1
 90
        0
176
     1
290
     0
176
     1
290
     1
176
     1
290
     1
176
     1
290
     0
176
     1
290
     0
176
     1
290
     0
176
     1
290
     0
176
     1
290
     0
176
     1
290
     0
176
     1
 90
       50
176
     1
 40
0.0
176
     1
 40
1.0
176
     1
 90
        0
176
     1
 62
    18
420
        0
176
     1
 90
       50
176
     1
 90
        3
176
     1
 62
     5
420
      255
176
     1
290
     0
176
     1
 90
       50
176
     1
 90
       50
176
     1
 90
       50
176
     1
290
     0
176
     1
 90
       50
176
     1
 62
   256
176
     0
 40
1.0
176
     0
 90
        2
176
     1
  1
strokes_ogs.tif
176
     1
290
     0
176
     1
 40
1.0
176
     1
 40
1.0
176
     1
1001
ACAD
1000
AcDbSavedByObjectVersion
1070
     0
  0
VISUALSTYLE
  5
FF
102
{ACAD_REACTORS
330
EF
102
}
330
EF
100
AcDbVisualStyle
  2
ColorChange
 70
    16
177
     3
291
     1
 70
    58
 90
        2
176
     1
 90
        2
176
     1
 90
        3
176
     1
 90
        0
176
     1
 40
0.6
176
     1
 40
30.0
176
     1
 62
     8
420
  8421504
176
     1
 90
        1
176
     1
 90
        4
176
     1
 62
     7
176
     1
 62
   257
176
     1
 90
        1
176
     1
 90
        1
176
     1
 40
1.0
176
     1
 90
        8
176
     1
 62
     8
420
  8421504
176
     1
 40
1.0
176
     1
 90
        1
176
     1
 90
        6
176
     1
 90
        2
176
     1
 62
     7
176
     1
 90
        5
176
     1
 90
        0
176
     1
 90
        0
176
     1
290
     0
176
     1
 90
        1
176
     1
 40
0.0
176
     1
 90
        0
176
     1
290
     0
176
     1
290
     1
176
     1
290
     1
176
     1
290
     0
176
     1
290
     0
176
     1
290
     0
176
     1
290
     0
176
     1
290
     0
176
     1
290
     0
176
     1
 90
       50
176
     1
 40
0.0
176
     1
 40
1.0
176
     1
 90
        0
176
     1
 62
    18
420
        0
176
     1
 90
       50
176
     1
 90
        3
176
     1
 62
     5
420
      255
176
     1
290
     0
176
     1
 90
       50
176
     1
 90
       50
176
     1
 90
       50
176
     1
290
     0
176
     1
 90
       50
176
     1
 62
   256
176
     0
 40
1.0
176
     0
 90
        2
176
     1
  1
strokes_ogs.tif
176
     1
290
     0
176
     1
 40
1.0
176
     1
 40
1.0
176
     1
1001
ACAD
1000
AcDbSavedByObjectVersion
1070
     0
  0
VISUALSTYLE
  5
F8
102
{ACAD_REACTORS
330
EF
102
}
330
EF
100
AcDbVisualStyle
  2
Conceptual
 70
     9
177
     3
291
     0
 70
    58
 90
        3
176
     1
 90
        2
176
     1
 90
        1
176
     1
 90
        0
176
     1
 40
0.6
176
     1
 40
30.0
176
     1
 62
     7
420
 16777215
176
     1
 90
        2
176
     1
 90
        2
176
     1
 62
     7
176
     1
 62
   257
176
     1
 90
        1
176
     1
 90
        1
176
     1
 40
40.0
176
     1
 90
        8
176
     1
 62
     7
176
     1
 40
1.0
176
     1
 90
        1
176
     1
 90
        6
176
     1
 90
        2
176
     1
 62
     7
176
     1
 90
        3
176
     1
 90
        0
176
     1
 90
        0
176
     1
290
     0
176
     1
 90
        1
176
     1
 40
0.0
176
     1
 90
        0
176
     1
290
     0
176
     1
290
     1
176
     1
290
     1
176
     1
290
     0
176
     1
290
     0
176
     1
290
     0
176
     1
290
     0
176
     1
290
     0
176
     1
290
     0
176
     1
 90
       50
176
     1
 40
0.0
176
     1
 40
1.0
176
     1
 90
        0
176
     1
 62
    18
420
        0
176
     1
 90
       50
176
     1
 90
        3
176
     1
 62
     5
420
      255
176
     1
290
     0
176
     1
 90
       50
176
     1
 90
       50
176
     1
 90
       50
176
     1
290
     0
176
     1
 90
       50
176
     1
 62
   256
176
     0
 40
1.0
176
     0
 90
        2
176
     1
  1
strokes_ogs.tif
176
     1
290
     0
176
     1
 40
1.0
176
     1
 40
1.0
176
     1
1001
ACAD
1000
AcDbSavedByObjectVersion
1070
     0
  0
VISUALSTYLE
  5
FA
102
{ACAD_REACTORS
330
EF
102
}
330
EF
100
AcDbVisualStyle
  2
Dim
 70
    11
177
     3
291
     1
 70
    58
 90
        2
176
     1
 90
        2
176
     1
 90
        1
176
     1
 90
        0
176
     1
 40
0.6
176
     1
 40
30.0
176
     1
 62
     7
420
 16777215
176
     1
 90
        1
176
     1
 90
        4
176
     1
 62
     7
176
     1
 62
   257
176
     1
 90
        1
176
     1
 90
        1
176
     1
 40
1.0
176
     1
 90
        8
176
     1
 62
     7
176
     1
 40
1.0
176
     1
 90
        1
176
     1
 90
        6
176
     1
 90
        2
176
     1
 62
     7
176
     1
 90
        5
176
     1
 90
        0
176
     1
 90
        0
176
     1
290
     0
176
     1
 90
        1
176
     1
 40
-50.0
176
     1
 90
        0
176
     1
290
     0
176
     1
290
     1
176
     1
290
     1
176
     1
290
     0
176
     1
290
     0
176
     1
290
     0
176
     1
290
     0
176
     1
290
     0
176
     1
290
     0
176
     1
 90
       50
176
     1
 40
0.0
176
     1
 40
1.0
176
     1
 90
        0
176
     1
 62
    18
420
        0
176
     1
 90
       50
176
     1
 90
        3
176
     1
 62
     5
420
      255
176
     1
290
     0
176
     1
 90
       50
176
     1
 90
       50
176
     1
 90
       50
176
     1
290
     0
176
     1
 90
       50
176
     1
 62
   256
176
     0
 40
1.0
176
     0
 90
        2
176
     1
  1
strokes_ogs.tif
176
     1
290
     0
176
     1
 40
1.0
176
     1
 40
1.0
176
     1
1001
ACAD
1000
AcDbSavedByObjectVersion
1070
     0
  0
VISUALSTYLE
  5
1E6
102
{ACAD_REACTORS
330
EF
102
}
330
EF
100
AcDbVisualStyle
  2
EdgeColorOff
 70
    22
177
     3
291
     1
 70
    58
 90
        2
176
     0
 90
        2
176
     0
 90
        0
176
     0
 90
        0
176
     0
 40
0.6
176
     0
 40
30.0
176
     0
 62
     7
420
 16777215
176
     0
 90
        1
176
     0
 90
        4
176
     0
 62
     7
176
     0
 62
   257
176
     0
 90
        1
176
     0
 90
        1
176
     0
 40
1.0
176
     0
 90
        8
176
     2
 62
     7
176
     0
 40
1.0
176
     0
 90
        1
176
     0
 90
        6
176
     0
 90
        2
176
     0
 62
     7
176
     0
 90
        5
176
     0
 90
        0
176
     0
 90
        0
176
     0
290
     0
176
     0
 90
        1
176
     0
 40
0.0
176
     0
 90
        0
176
     0
290
     0
176
     1
290
     1
176
     1
290
     1
176
     1
290
     0
176
     1
290
     0
176
     1
290
     0
176
     1
290
     0
176
     1
290
     0
176
     1
290
     0
176
     1
 90
       50
176
     1
 40
0.0
176
     1
 40
1.0
176
     1
 90
        0
176
     1
 62
    18
420
        0
176
     1
 90
       50
176
     1
 90
        3
176
     1
 62
     5
420
      255
176
     1
290
     0
176
     1
 90
       50
176
     1
 90
       50
176
     1
 90
       50
176
     1
290
     0
176
     1
 90
       50
176
     1
 62
   256
176
     0
 40
1.0
176
     0
 90
        2
176
     1
  1
strokes_ogs.tif
176
     1
290
     0
176
     1
 40
1.0
176
     1
 40
1.0
176
     1
1001
ACAD
1000
AcDbSavedByObjectVersion
1070
     0
  0
VISUALSTYLE
  5
FE
102
{ACAD_REACTORS
330
EF
102
}
330
EF
100
AcDbVisualStyle
  2
Facepattern
 70
    15
177
     3
291
     1
 70
    58
 90
        2
176
     1
 90
        2
176
     1
 90
        1
176
     1
 90
        0
176
     1
 40
0.6
176
     1
 40
30.0
176
     1
 62
     7
420
 16777215
176
     1
 90
        1
176
     1
 90
        4
176
     1
 62
     7
176
     1
 62
   257
176
     1
 90
        1
176
     1
 90
        1
176
     1
 40
1.0
176
     1
 90
        8
176
     1
 62
     7
176
     1
 40
1.0
176
     1
 90
        1
176
     1
 90
        6
176
     1
 90
        2
176
     1
 62
     7
176
     1
 90
        5
176
     1
 90
        0
176
     1
 90
        0
176
     1
290
     0
176
     1
 90
        1
176
     1
 40
0.0
176
     1
 90
        0
176
     1
290
     0
176
     1
290
     1
176
     1
290
     1
176
     1
290
     0
176
     1
290
     0
176
     1
290
     0
176
     1
290
     0
176
     1
290
     0
176
     1
290
     0
176
     1
 90
       50
176
     1
 40
0.0
176
     1
 40
1.0
176
     1
 90
        0
176
     1
 62
    18
420
        0
176
     1
 90
       50
176
     1
 90
        3
176
     1
 62
     5
420
      255
176
     1
290
     0
176
     1
 90
       50
176
     1
 90
       50
176
     1
 90
       50
176
     1
290
     0
176
     1
 90
       50
176
     1
 62
   256
176
     0
 40
1.0
176
     0
 90
        2
176
     1
  1
strokes_ogs.tif
176
     1
290
     0
176
     1
 40
1.0
176
     1
 40
1.0
176
     1
1001
ACAD
1000
AcDbSavedByObjectVersion
1070
     0
  0
VISUALSTYLE
  5
F0
102
{ACAD_REACTORS
330
EF
102
}
330
EF
100
AcDbVisualStyle
  2
Flat
 70
     0
177
     3
291
     1
 70
    58
 90
        2
176
     1
 90
        1
176
     1
 90
        1
176
     1
 90
        2
176
     1
 40
0.6
176
     1
 40
30.0
176
     1
 62
     7
420
 16777215
176
     1
 90
        0
176
     1
 90
        0
176
     1
 62
     7
176
     1
 62
   257
176
     1
 90
        1
176
     1
 90
        1
176
     1
 40
1.0
176
     1
 90
        8
176
     1
 62
     7
176
     1
 40
1.0
176
     1
 90
        1
176
     1
 90
        6
176
     1
 90
        2
176
     1
 62
     7
176
     1
 90
        5
176
     1
 90
        0
176
     1
 90
        0
176
     1
290
     0
176
     1
 90
       13
176
     1
 40
0.0
176
     1
 90
        0
176
     1
290
     0
176
     1
290
     1
176
     1
290
     1
176
     1
290
     0
176
     1
290
     0
176
     1
290
     0
176
     1
290
     0
176
     1
290
     0
176
     1
290
     0
176
     1
 90
       50
176
     1
 40
0.0
176
     1
 40
1.0
176
     1
 90
        0
176
     1
 62
    18
420
        0
176
     1
 90
       50
176
     1
 90
        3
176
     1
 62
     5
420
      255
176
     1
290
     0
176
     1
 90
       50
176
     1
 90
       50
176
     1
 90
       50
176
     1
290
     0
176
     1
 90
       50
176
     1
 62
   256
176
     0
 40
1.0
176
     0
 90
        2
176
     1
  1
strokes_ogs.tif
176
     1
290
     0
176
     1
 40
1.0
176
     1
 40
1.0
176
     1
1001
ACAD
1000
AcDbSavedByObjectVersion
1070
     0
  0
VISUALSTYLE
  5
F1
102
{ACAD_REACTORS
330
EF
102
}
330
EF
100
AcDbVisualStyle
  2
FlatWithEdges
 70
     1
177
     3
291
     1
 70
    58
 90
        2
176
     1
 90
        1
176
     1
 90
        1
176
     1
 90
        2
176
     1
 40
0.6
176
     1
 40
30.0
176
     1
 62
     7
420
 16777215
176
     1
 90
        1
176
     1
 90
        0
176
     1
 62
     7
176
     1
 62
   257
176
     1
 90
        1
176
     1
 90
        1
176
     1
 40
1.0
176
     1
 90
        0
176
     1
 62
   257
176
     1
 40
1.0
176
     1
 90
        1
176
     1
 90
        6
176
     1
 90
        2
176
     1
 62
     7
176
     1
 90
        5
176
     1
 90
        0
176
     1
 90
        0
176
     1
290
     0
176
     1
 90
       13
176
     1
 40
0.0
176
     1
 90
        0
176
     1
290
     0
176
     1
290
     1
176
     1
290
     1
176
     1
290
     0
176
     1
290
     0
176
     1
290
     0
176
     1
290
     0
176
     1
290
     0
176
     1
290
     0
176
     1
 90
       50
176
     1
 40
0.0
176
     1
 40
1.0
176
     1
 90
        0
176
     1
 62
    18
420
        0
176
     1
 90
       50
176
     1
 90
        3
176
     1
 62
     5
420
      255
176
     1
290
     0
176
     1
 90
       50
176
     1
 90
       50
176
     1
 90
       50
176
     1
290
     0
176
     1
 90
       50
176
     1
 62
   256
176
     0
 40
1.0
176
     0
 90
        2
176
     1
  1
strokes_ogs.tif
176
     1
290
     0
176
     1
 40
1.0
176
     1
 40
1.0
176
     1
1001
ACAD
1000
AcDbSavedByObjectVersion
1070
     0
  0
VISUALSTYLE
  5
F2
102
{ACAD_REACTORS
330
EF
102
}
330
EF
100
AcDbVisualStyle
  2
Gouraud
 70
     2
177
     3
291
     1
 70
    58
 90
        2
176
     1
 90
        2
176
     1
 90
        1
176
     1
 90
        2
176
     1
 40
0.6
176
     1
 40
30.0
176
     1
 62
     7
420
 16777215
176
     1
 90
        0
176
     1
 90
        0
176
     1
 62
     7
176
     1
 62
   257
176
     1
 90
        1
176
     1
 90
        1
176
     1
 40
1.0
176
     1
 90
        0
176
     1
 62
     7
176
     1
 40
1.0
176
     1
 90
        1
176
     1
 90
        6
176
     1
 90
        2
176
     1
 62
     7
176
     1
 90
        5
176
     1
 90
        0
176
     1
 90
        0
176
     1
290
     0
176
     1
 90
       13
176
     1
 40
0.0
176
     1
 90
        0
176
     1
290
     0
176
     1
290
     1
176
     1
290
     1
176
     1
290
     0
176
     1
290
     0
176
     1
290
     0
176
     1
290
     0
176
     1
290
     0
176
     1
290
     0
176
     1
 90
       50
176
     1
 40
0.0
176
     1
 40
1.0
176
     1
 90
        0
176
     1
 62
    18
420
        0
176
     1
 90
       50
176
     1
 90
        3
176
     1
 62
     5
420
      255
176
     1
290
     0
176
     1
 90
       50
176
     1
 90
       50
176
     1
 90
       50
176
     1
290
     0
176
     1
 90
       50
176
     1
 62
   256
176
     0
 40
1.0
176
     0
 90
        2
176
     1
  1
strokes_ogs.tif
176
     1
290
     0
176
     1
 40
1.0
176
     1
 40
1.0
176
     1
1001
ACAD
1000
AcDbSavedByObjectVersion
1070
     0
  0
VISUALSTYLE
  5
F3
102
{ACAD_REACTORS
330
EF
102
}
330
EF
100
AcDbVisualStyle
  2
GouraudWithEdges
 70
     3
177
     3
291
     1
 70
    58
 90
        2
176
     1
 90
        2
176
     1
 90
        1
176
     1
 90
        2
176
     1
 40
0.6
176
     1
 40
30.0
176
     1
 62
     7
420
 16777215
176
     1
 90
        1
176
     1
 90
        0
176
     1
 62
     7
176
     1
 62
   257
176
     1
 90
        1
176
     1
 90
        1
176
     1
 40
1.0
176
     1
 90
        0
176
     1
 62
   257
176
     1
 40
1.0
176
     1
 90
        1
176
     1
 90
        6
176
     1
 90
        2
176
     1
 62
     7
176
     1
 90
        5
176
     1
 90
        0
176
     1
 90
        0
176
     1
290
     0
176
     1
 90
       13
176
     1
 40
0.0
176
     1
 90
        0
176
     1
290
     0
176
     1
290
     1
176
     1
290
     1
176
     1
290
     0
176
     1
290
     0
176
     1
290
     0
176
     1
290
     0
176
     1
290
     0
176
     1
290
     0
176
     1
 90
       50
176
     1
 40
0.0
176
     1
 40
1.0
176
     1
 90
        0
176
     1
 62
    18
420
        0
176
     1
 90
       50
176
     1
 90
        3
176
     1
 62
     5
420
      255
176
     1
290
     0
176
     1
 90
       50
176
     1
 90
       50
176
     1
 90
       50
176
     1
290
     0
176
     1
 90
       50
176
     1
 62
   256
176
     0
 40
1.0
176
     0
 90
        2
176
     1
  1
strokes_ogs.tif
176
     1
290
     0
176
     1
 40
1.0
176
     1
 40
1.0
176
     1
1001
ACAD
1000
AcDbSavedByObjectVersion
1070
     0
  0
VISUALSTYLE
  5
F7
102
{ACAD_REACTORS
330
EF
102
}
330
EF
100
AcDbVisualStyle
  2
Hidden
 70
     6
177
     3
291
     0
 70
    58
 90
        1
176
     1
 90
        2
176
     1
 90
        2
176
     1
 90
        0
176
     1
 40
0.6
176
     1
 40
30.0
176
     1
 62
     7
420
 16777215
176
     1
 90
        2
176
     1
 90
        2
176
     1
 62
     7
176
     1
 62
   257
176
     1
 90
        2
176
     1
 90
        1
176
     1
 40
40.0
176
     1
 90
        0
176
     1
 62
   257
176
     1
 40
1.0
176
     1
 90
        1
176
     1
 90
        6
176
     1
 90
        2
176
     1
 62
     7
176
     1
 90
        3
176
     1
 90
        0
176
     1
 90
        0
176
     1
290
     0
176
     1
 90
        1
176
     1
 40
0.0
176
     1
 90
        0
176
     1
290
     0
176
     1
290
     1
176
     1
290
     1
176
     1
290
     0
176
     1
290
     0
176
     1
290
     0
176
     1
290
     0
176
     1
290
     0
176
     1
290
     0
176
     1
 90
       50
176
     1
 40
0.0
176
     1
 40
1.0
176
     1
 90
        0
176
     1
 62
    18
420
        0
176
     1
 90
       50
176
     1
 90
        3
176
     1
 62
     5
420
      255
176
     1
290
     0
176
     1
 90
       50
176
     1
 90
       50
176
     1
 90
       50
176
     1
290
     0
176
     1
 90
       50
176
     1
 62
   256
176
     0
 40
1.0
176
     0
 90
        2
176
     1
  1
strokes_ogs.tif
176
     1
290
     0
176
     1
 40
1.0
176
     1
 40
1.0
176
     1
1001
ACAD
1000
AcDbSavedByObjectVersion
1070
     0
  0
VISUALSTYLE
  5
1E4
102
{ACAD_REACTORS
330
EF
102
}
330
EF
100
AcDbVisualStyle
  2
JitterOff
 70
    20
177
     3
291
     1
 70
    58
 90
        2
176
     0
 90
        2
176
     0
 90
        0
176
     0
 90
        0
176
     0
 40
0.6
176
     0
 40
30.0
176
     0
 62
     7
420
 16777215
176
     0
 90
        1
176
     0
 90
        4
176
     0
 62
     7
176
     0
 62
   257
176
     0
 90
        1
176
     0
 90
        1
176
     0
 40
1.0
176
     0
 90
       10
176
     2
 62
     7
176
     0
 40
1.0
176
     0
 90
        1
176
     0
 90
        6
176
     0
 90
        2
176
     0
 62
     7
176
     0
 90
        5
176
     0
 90
        0
176
     0
 90
        0
176
     0
290
     0
176
     0
 90
        1
176
     0
 40
0.0
176
     0
 90
        0
176
     0
290
     0
176
     1
290
     1
176
     1
290
     1
176
     1
290
     0
176
     1
290
     0
176
     1
290
     0
176
     1
290
     0
176
     1
290
     0
176
     1
290
     0
176
     1
 90
       50
176
     1
 40
0.0
176
     1
 40
1.0
176
     1
 90
        0
176
     1
 62
    18
420
        0
176
     1
 90
       50
176
     1
 90
        3
176
     1
 62
     5
420
      255
176
     1
290
     0
176
     1
 90
       50
176
     1
 90
       50
176
     1
 90
       50
176
     1
290
     0
176
     1
 90
       50
176
     1
 62
   256
176
     0
 40
1.0
176
     0
 90
        2
176
     1
  1
strokes_ogs.tif
176
     1
290
     0
176
     1
 40
1.0
176
     1
 40
1.0
176
     1
1001
ACAD
1000
AcDbSavedByObjectVersion
1070
     0
  0
VISUALSTYLE
  5
FD
102
{ACAD_REACTORS
330
EF
102
}
330
EF
100
AcDbVisualStyle
  2
Linepattern
 70
    14
177
     3
291
     1
 70
    58
 90
        2
176
     1
 90
        2
176
     1
 90
        1
176
     1
 90
        0
176
     1
 40
0.6
176
     1
 40
30.0
176
     1
 62
     7
420
 16777215
176
     1
 90
        1
176
     1
 90
        4
176
     1
 62
     7
176
     1
 62
   257
176
     1
 90
        7
176
     1
 90
        7
176
     1
 40
1.0
176
     1
 90
        8
176
     1
 62
     7
176
     1
 40
1.0
176
     1
 90
        1
176
     1
 90
        6
176
     1
 90
        2
176
     1
 62
     7
176
     1
 90
        5
176
     1
 90
        0
176
     1
 90
        0
176
     1
290
     0
176
     1
 90
        1
176
     1
 40
0.0
176
     1
 90
        0
176
     1
290
     0
176
     1
290
     1
176
     1
290
     1
176
     1
290
     0
176
     1
290
     0
176
     1
290
     0
176
     1
290
     0
176
     1
290
     0
176
     1
290
     0
176
     1
 90
       50
176
     1
 40
0.0
176
     1
 40
1.0
176
     1
 90
        0
176
     1
 62
    18
420
        0
176
     1
 90
       50
176
     1
 90
        3
176
     1
 62
     5
420
      255
176
     1
290
     0
176
     1
 90
       50
176
     1
 90
       50
176
     1
 90
       50
176
     1
290
     0
176
     1
 90
       50
176
     1
 62
   256
176
     0
 40
1.0
176
     0
 90
        2
176
     1
  1
strokes_ogs.tif
176
     1
290
     0
176
     1
 40
1.0
176
     1
 40
1.0
176
     1
1001
ACAD
1000
AcDbSavedByObjectVersion
1070
     0
  0
VISUALSTYLE
  5
1E5
102
{ACAD_REACTORS
330
EF
102
}
330
EF
100
AcDbVisualStyle
  2
OverhangOff
 70
    21
177
     3
291
     1
 70
    58
 90
        2
176
     0
 90
        2
176
     0
 90
        0
176
     0
 90
        0
176
     0
 40
0.6
176
     0
 40
30.0
176
     0
 62
     7
420
 16777215
176
     0
 90
        1
176
     0
 90
        4
176
     0
 62
     7
176
     0
 62
   257
176
     0
 90
        1
176
     0
 90
        1
176
     0
 40
1.0
176
     0
 90
        9
176
     2
 62
     7
176
     0
 40
1.0
176
     0
 90
        1
176
     0
 90
        6
176
     0
 90
        2
176
     0
 62
     7
176
     0
 90
        5
176
     0
 90
        0
176
     0
 90
        0
176
     0
290
     0
176
     0
 90
        1
176
     0
 40
0.0
176
     0
 90
        0
176
     0
290
     0
176
     1
290
     1
176
     1
290
     1
176
     1
290
     0
176
     1
290
     0
176
     1
290
     0
176
     1
290
     0
176
     1
290
     0
176
     1
290
     0
176
     1
 90
       50
176
     1
 40
0.0
176
     1
 40
1.0
176
     1
 90
        0
176
     1
 62
    18
420
        0
176
     1
 90
       50
176
     1
 90
        3
176
     1
 62
     5
420
      255
176
     1
290
     0
176
     1
 90
       50
176
     1
 90
       50
176
     1
 90
       50
176
     1
290
     0
176
     1
 90
       50
176
     1
 62
   256
176
     0
 40
1.0
176
     0
 90
        2
176
     1
  1
strokes_ogs.tif
176
     1
290
     0
176
     1
 40
1.0
176
     1
 40
1.0
176
     1
1001
ACAD
1000
AcDbSavedByObjectVersion
1070
     0
  0
VISUALSTYLE
  5
F9
102
{ACAD_REACTORS
330
EF
102
}
330
EF
100
AcDbVisualStyle
  2
Realistic
 70
     8
177
     3
291
     0
 70
    58
 90
        2
176
     1
 90
        3
176
     1
 90
        0
176
     1
 90
        2
176
     1
 40
0.6
176
     1
 40
30.0
176
     1
 62
     7
420
 16777215
176
     1
 90
        0
176
     1
 90
        0
176
     1
 62
     7
176
     1
 62
   257
176
     1
 90
        1
176
     1
 90
        1
176
     1
 40
1.0
176
     1
 90
        8
176
     1
 62
   257
176
     1
 40
1.0
176
     1
 90
        1
176
     1
 90
        6
176
     1
 90
        2
176
     1
 62
     7
176
     1
 90
        3
176
     1
 90
        0
176
     1
 90
        0
176
     1
290
     0
176
     1
 90
       13
176
     1
 40
0.0
176
     1
 90
        0
176
     1
290
     0
176
     1
290
     1
176
     1
290
     1
176
     1
290
     0
176
     1
290
     0
176
     1
290
     0
176
     1
290
     0
176
     1
290
     0
176
     1
290
     0
176
     1
 90
       50
176
     1
 40
0.0
176
     1
 40
1.0
176
     1
 90
        0
176
     1
 62
    18
420
        0
176
     1
 90
       50
176
     1
 90
        3
176
     1
 62
     5
420
      255
176
     1
290
     0
176
     1
 90
       50
176
     1
 90
       50
176
     1
 90
       50
176
     1
290
     0
176
     1
 90
       50
176
     1
 62
   256
176
     0
 40
1.0
176
     0
 90
        2
176
     1
  1
strokes_ogs.tif
176
     1
290
     0
176
     1
 40
1.0
176
     1
 40
1.0
176
     1
1001
ACAD
1000
AcDbSavedByObjectVersion
1070
     0
  0
VISUALSTYLE
  5
1F3
102
{ACAD_REACTORS
330
EF
102
}
330
EF
100
AcDbVisualStyle
  2
Shaded
 70
    27
177
     3
291
     0
 70
    58
 90
        2
176
     1
 90
        2
176
     1
 90
        1
176
     1
 90
        2
176
     1
 40
0.6
176
     1
 40
30.0
176
     1
 62
     7
420
 16777215
176
     1
 90
        0
176
     1
 90
        4
176
     1
 62
     7
176
     1
 62
   257
176
     1
 90
        1
176
     1
 90
        1
176
     1
 40
1.0
176
     1
 90
        8
176
     1
 62
   257
176
     1
 40
1.0
176
     1
 90
        1
176
     1
 90
        6
176
     1
 90
        2
176
     1
 62
     8
420
  7895160
176
     1
 90
        3
176
     1
 90
        0
176
     1
 90
        0
176
     1
290
     0
176
     1
 90
        5
176
     1
 40
0.0
176
     1
 90
        0
176
     1
290
     0
176
     1
290
     1
176
     1
290
     1
176
     1
290
     0
176
     1
290
     0
176
     1
290
     0
176
     1
290
     0
176
     1
290
     0
176
     1
290
     0
176
     1
 90
       50
176
     1
 40
0.0
176
     1
 40
1.0
176
     1
 90
        0
176
     1
 62
    18
420
        0
176
     1
 90
       50
176
     1
 90
        3
176
     1
 62
     5
420
      255
176
     1
290
     0
176
     1
 90
       50
176
     1
 90
       50
176
     1
 90
       50
176
     1
290
     0
176
     1
 90
       50
176
     1
 62
   256
176
     0
 40
1.0
176
     0
 90
        2
176
     1
  1
strokes_ogs.tif
176
     1
290
     0
176
     1
 40
1.0
176
     1
 40
1.0
176
     1
1001
ACAD
1000
AcDbSavedByObjectVersion
1070
     0
  0
VISUALSTYLE
  5
1F2
102
{ACAD_REACTORS
330
EF
102
}
330
EF
100
AcDbVisualStyle
  2
Shaded with edges
 70
    26
177
     3
291
     0
 70
    58
 90
        2
176
     1
 90
        2
176
     1
 90
        1
176
     1
 90
        2
176
     1
 40
0.6
176
     1
 40
30.0
176
     1
 62
     7
420
 16777215
176
     1
 90
        1
176
     1
 90
        2
176
     1
 62
     7
176
     1
 62
   257
176
     1
 90
        2
176
     1
 90
        1
176
     1
 40
1.0
176
     1
 90
        8
176
     1
 62
   257
176
     1
 40
1.0
176
     1
 90
        1
176
     1
 90
        6
176
     1
 90
        2
176
     1
 62
     7
176
     1
 90
        3
176
     1
 90
        0
176
     1
 90
        0
176
     1
290
     0
176
     1
 90
        5
176
     1
 40
0.0
176
     1
 90
        0
176
     1
290
     0
176
     1
290
     1
176
     1
290
     1
176
     1
290
     0
176
     1
290
     0
176
     1
290
     0
176
     1
290
     0
176
     1
290
     0
176
     1
290
     0
176
     1
 90
       50
176
     1
 40
0.0
176
     1
 40
1.0
176
     1
 90
        0
176
     1
 62
    18
420
        0
176
     1
 90
       50
176
     1
 90
        3
176
     1
 62
     5
420
      255
176
     1
290
     0
176
     1
 90
       50
176
     1
 90
       50
176
     1
 90
       50
176
     1
290
     0
176
     1
 90
       50
176
     1
 62
   256
176
     0
 40
1.0
176
     0
 90
        2
176
     1
  1
strokes_ogs.tif
176
     1
290
     0
176
     1
 40
1.0
176
     1
 40
1.0
176
     1
1001
ACAD
1000
AcDbSavedByObjectVersion
1070
     0
  0
VISUALSTYLE
  5
1EF
102
{ACAD_REACTORS
330
EF
102
}
330
EF
100
AcDbVisualStyle
  2
Shades of Gray
 70
    23
177
     3
291
     0
 70
    58
 90
        2
176
     1
 90
        2
176
     1
 90
        3
176
     1
 90
        0
176
     1
 40
0.6
176
     1
 40
30.0
176
     1
 62
     7
420
 16777215
176
     1
 90
        2
176
     1
 90
        2
176
     1
 62
     7
176
     1
 62
     7
176
     1
 90
        1
176
     1
 90
        1
176
     1
 40
40.0
176
     1
 90
        8
176
     1
 62
     7
176
     1
 40
1.0
176
     1
 90
        1
176
     1
 90
        6
176
     1
 90
        2
176
     1
 62
     7
176
     1
 90
        3
176
     1
 90
        0
176
     1
 90
        0
176
     1
290
     0
176
     1
 90
        1
176
     1
 40
0.0
176
     1
 90
        0
176
     1
290
     0
176
     1
290
     1
176
     1
290
     1
176
     1
290
     0
176
     1
290
     0
176
     1
290
     0
176
     1
290
     0
176
     1
290
     0
176
     1
290
     0
176
     1
 90
       50
176
     1
 40
0.0
176
     1
 40
1.0
176
     1
 90
        0
176
     1
 62
    18
420
        0
176
     1
 90
       50
176
     1
 90
        3
176
     1
 62
     5
420
      255
176
     1
290
     0
176
     1
 90
       50
176
     1
 90
       50
176
     1
 90
       50
176
     1
290
     0
176
     1
 90
       50
176
     1
 62
   256
176
     0
 40
1.0
176
     0
 90
        2
176
     1
  1
strokes_ogs.tif
176
     1
290
     0
176
     1
 40
1.0
176
     1
 40
1.0
176
     1
1001
ACAD
1000
AcDbSavedByObjectVersion
1070
     0
  0
VISUALSTYLE
  5
1F0
102
{ACAD_REACTORS
330
EF
102
}
330
EF
100
AcDbVisualStyle
  2
Sketchy
 70
    24
177
     3
291
     0
 70
    58
 90
        1
176
     1
 90
        2
176
     1
 90
        2
176
     1
 90
        0
176
     1
 40
0.6
176
     1
 40
30.0
176
     1
 62
     7
420
 16777215
176
     1
 90
        2
176
     1
 90
        2
176
     1
 62
     7
176
     1
 62
     7
176
     1
 90
        1
176
     1
 90
        1
176
     1
 40
40.0
176
     1
 90
       11
176
     1
 62
     7
176
     1
 40
1.0
176
     1
 90
        1
176
     1
 90
        6
176
     1
 90
        2
176
     1
 62
     7
176
     1
 90
        6
176
     1
 90
        0
176
     1
 90
        0
176
     1
290
     0
176
     1
 90
        1
176
     1
 40
0.0
176
     1
 90
        0
176
     1
290
     0
176
     1
290
     1
176
     1
290
     1
176
     1
290
     0
176
     1
290
     0
176
     1
290
     0
176
     1
290
     0
176
     1
290
     0
176
     1
290
     0
176
     1
 90
       50
176
     1
 40
0.0
176
     1
 40
1.0
176
     1
 90
        0
176
     1
 62
    18
420
        0
176
     1
 90
       50
176
     1
 90
        3
176
     1
 62
     5
420
      255
176
     1
290
     0
176
     1
 90
       50
176
     1
 90
       50
176
     1
 90
       50
176
     1
290
     0
176
     1
 90
       50
176
     1
 62
   256
176
     0
 40
1.0
176
     0
 90
        2
176
     1
  1
strokes_ogs.tif
176
     1
290
     0
176
     1
 40
1.0
176
     1
 40
1.0
176
     1
1001
ACAD
1000
AcDbSavedByObjectVersion
1070
     0
  0
VISUALSTYLE
  5
FC
102
{ACAD_REACTORS
330
EF
102
}
330
EF
100
AcDbVisualStyle
  2
Thicken
 70
    13
177
     3
291
     1
 70
    58
 90
        2
176
     1
 90
        2
176
     1
 90
        1
176
     1
 90
        0
176
     1
 40
0.6
176
     1
 40
30.0
176
     1
 62
     7
420
 16777215
176
     1
 90
        1
176
     1
 90
        4
176
     1
 62
     7
176
     1
 62
   257
176
     1
 90
        1
176
     1
 90
        1
176
     1
 40
1.0
176
     1
 90
       12
176
     1
 62
     7
176
     1
 40
1.0
176
     1
 90
        1
176
     1
 90
        6
176
     1
 90
        2
176
     1
 62
     7
176
     1
 90
        5
176
     1
 90
        0
176
     1
 90
        0
176
     1
290
     0
176
     1
 90
        1
176
     1
 40
0.0
176
     1
 90
        0
176
     1
290
     0
176
     1
290
     1
176
     1
290
     1
176
     1
290
     0
176
     1
290
     0
176
     1
290
     0
176
     1
290
     0
176
     1
290
     0
176
     1
290
     0
176
     1
 90
       50
176
     1
 40
0.0
176
     1
 40
1.0
176
     1
 90
        0
176
     1
 62
    18
420
        0
176
     1
 90
       50
176
     1
 90
        3
176
     1
 62
     5
420
      255
176
     1
290
     0
176
     1
 90
       50
176
     1
 90
       50
176
     1
 90
       50
176
     1
290
     0
176
     1
 90
       50
176
     1
 62
   256
176
     0
 40
1.0
176
     0
 90
        2
176
     1
  1
strokes_ogs.tif
176
     1
290
     0
176
     1
 40
1.0
176
     1
 40
1.0
176
     1
1001
ACAD
1000
AcDbSavedByObjectVersion
1070
     0
  0
VISUALSTYLE
  5
F6
102
{ACAD_REACTORS
330
EF
102
}
330
EF
100
AcDbVisualStyle
  2
Wireframe
 70
     5
177
     3
291
     0
 70
    58
 90
        0
176
     1
 90
        2
176
     1
 90
        0
176
     1
 90
        0
176
     1
 40
0.6
176
     1
 40
30.0
176
     1
 62
     7
420
 16777215
176
     1
 90
        1
176
     1
 90
        4
176
     1
 62
     7
176
     1
 62
   257
176
     1
 90
        1
176
     1
 90
        1
176
     1
 40
1.0
176
     1
 90
        0
176
     1
 62
   257
176
     1
 40
1.0
176
     1
 90
        1
176
     1
 90
        6
176
     1
 90
        2
176
     1
 62
     7
176
     1
 90
        3
176
     1
 90
        0
176
     1
 90
        0
176
     1
290
     0
176
     1
 90
        1
176
     1
 40
0.0
176
     1
 90
        0
176
     1
290
     0
176
     1
290
     1
176
     1
290
     1
176
     1
290
     0
176
     1
290
     0
176
     1
290
     0
176
     1
290
     0
176
     1
290
     0
176
     1
290
     0
176
     1
 90
       50
176
     1
 40
0.0
176
     1
 40
1.0
176
     1
 90
        0
176
     1
 62
    18
420
        0
176
     1
 90
       50
176
     1
 90
        3
176
     1
 62
     5
420
      255
176
     1
290
     0
176
     1
 90
       50
176
     1
 90
       50
176
     1
 90
       50
176
     1
290
     0
176
     1
 90
       50
176
     1
 62
   256
176
     0
 40
1.0
176
     0
 90
        2
176
     1
  1
strokes_ogs.tif
176
     1
290
     0
176
     1
 40
1.0
176
     1
 40
1.0
176
     1
1001
ACAD
1000
AcDbSavedByObjectVersion
1070
     0
  0
VISUALSTYLE
  5
1F1
102
{ACAD_REACTORS
330
EF
102
}
330
EF
100
AcDbVisualStyle
  2
X-Ray
 70
    25
177
     3
291
     0
 70
    58
 90
        2
176
     1
 90
        2
176
     1
 90
        1
176
     1
 90
        1
176
     1
 40
0.5
176
     1
 40
30.0
176
     1
 62
     7
420
 16777215
176
     1
 90
        1
176
     1
 90
        0
176
     1
 62
     7
176
     1
 62
   257
176
     1
 90
        1
176
     1
 90
        1
176
     1
 40
1.0
176
     1
 90
        8
176
     1
 62
     7
176
     1
 40
1.0
176
     1
 90
        1
176
     1
 90
        6
176
     1
 90
        2
176
     1
 62
     7
176
     1
 90
        3
176
     1
 90
        0
176
     1
 90
        0
176
     1
290
     0
176
     1
 90
       13
176
     1
 40
0.0
176
     1
 90
        0
176
     1
290
     0
176
     1
290
     1
176
     1
290
     1
176
     1
290
     0
176
     1
290
     0
176
     1
290
     0
176
     1
290
     0
176
     1
290
     0
176
     1
290
     0
176
     1
 90
       50
176
     1
 40
0.0
176
     1
 40
1.0
176
     1
 90
        0
176
     1
 62
    18
420
        0
176
     1
 90
       50
176
     1
 90
        3
176
     1
 62
     5
420
      255
176
     1
290
     0
176
     1
 90
       50
176
     1
 90
       50
176
     1
 90
       50
176
     1
290
     0
176
     1
 90
       50
176
     1
 62
   256
176
     0
 40
1.0
176
     0
 90
        2
176
     1
  1
strokes_ogs.tif
176
     1
290
     0
176
     1
 40
1.0
176
     1
 40
1.0
176
     1
1001
ACAD
1000
AcDbSavedByObjectVersion
1070
     0
  0
DICTIONARYVAR
  5
146
102
{ACAD_REACTORS
330
5E
102
}
330
5E
100
DictionaryVariables
280
     0
  1
1:1
  0
DICTIONARYVAR
  5
259
102
{ACAD_REACTORS
330
5E
102
}
330
5E
100
DictionaryVariables
280
     0
  1
3.500000
  0
DICTIONARYVAR
  5
25A
102
{ACAD_REACTORS
330
5E
102
}
330
5E
100
DictionaryVariables
280
     0
  1
acadiso.lin
  0
DICTIONARYVAR
  5
145
102
{ACAD_REACTORS
330
5E
102
}
330
5E
100
DictionaryVariables
280
     0
  1
STANDARD
  0
DICTIONARYVAR
  5
84
102
{ACAD_REACTORS
330
5E
102
}
330
5E
100
DictionaryVariables
280
     0
  1
STANDARD
  0
DICTIONARYVAR
  5
227
102
{ACAD_REACTORS
330
5E
102
}
330
5E
100
DictionaryVariables
280
     0
  1
Metric50
  0
DICTIONARYVAR
  5
228
102
{ACAD_REACTORS
330
5E
102
}
330
5E
100
DictionaryVariables
280
     0
  1
Metric50
  0
DICTIONARYVAR
  5
5F
102
{ACAD_REACTORS
330
5E
102
}
330
5E
100
DictionaryVariables
280
     0
  1
2
  0
DICTIONARYVAR
  5
63
102
{ACAD_REACTORS
330
5E
102
}
330
5E
100
DictionaryVariables
280
     0
  1
1
  0
DICTIONARYVAR
  5
1AE
102
{ACAD_REACTORS
330
5E
102
}
330
5E
100
DictionaryVariables
280
     0
  1
0
  0
DICTIONARYVAR
  5
1AF
102
{ACAD_REACTORS
330
5E
102
}
330
5E
100
DictionaryVariables
280
     0
  1
0
  0
DICTIONARY
  5
53C
102
{ACAD_REACTORS
330
53A
102
}
330
53A
100
AcDbDictionary
281
     1
  0
DICTIONARY
  5
53B
102
{ACAD_REACTORS
330
53A
102
}
330
53A
100
AcDbDictionary
281
     1
  3
1646489895120
350
535
  3
1646489895136
350
536
  3
1646489895152
350
537
  3
1646489895168
350
538
  3
1646489895184
350
539
  0
DICTIONARY
  5
53F
330
21C
100
AcDbDictionary
280
     1
281
     1
  3
ACAD_XREC_ROUNDTRIP
360
540
  0
DICTIONARY
  5
205
330
22
100
AcDbDictionary
280
     1
281
     1
  0
DICTIONARY
  5
1F9
330
ED
100
AcDbDictionary
280
     1
281
     1
  3
FBXASSET
360
1FA
  0
DICTIONARY
  5
1F7
330
EC
100
AcDbDictionary
280
     1
281
     1
  3
FBXASSET
360
1F8
  0
DICTIONARY
  5
173
330
EE
100
AcDbDictionary
280
     1
281
     1
  3
BUMPTILE
360
175
  3
DIFFUSETILE
360
174
  3
FBXASSET
360
1FB
  3
OPACITYTILE
360
176
  3
REFLECTIONTILE
360
177
  0
DICTIONARY
  5
53D
330
21A
100
AcDbDictionary
280
     1
281
     1
  3
ACAD_XREC_ROUNDTRIP
360
53E
  0
DICTIONARY
  5
162
330
7F
100
AcDbDictionary
280
     1
281
     1
  3
ACAD_ROUNDTRIP_2008_TABLESTYLE_CELLSTYLEMAP
360
533
  0
XRECORD
  5
535
102
{ACAD_REACTORS
330
53B
102
}
330
53B
100
AcDbXrecord
280
     1
  1
AcDb_Thumbnail_Schema
102
{ATTRRECORD
341
536
  2
AcDbDs::TreatedAsObjectData
280
     1
291
     1
102
ATTRRECORD}
102
{ATTRRECORD
341
537
  2
AcDbDs::Legacy
280
     1
291
     1
102
ATTRRECORD}
  2
AcDbDs::ID
280
    10
 91
        8
102
{ATTRRECORD
341
538
  2
AcDs:Indexable
280
     1
291
     1
102
ATTRRECORD}
102
{ATTRRECORD
341
539
  2
AcDbDs::HandleAttribute
280
     7
282
     1
102
ATTRRECORD}
  2
Thumbnail_Data
280
    15
 91
        0
  0
XRECORD
  5
536
102
{ACAD_REACTORS
330
53B
102
}
330
53B
100
AcDbXrecord
280
     1
  1
AcDbDs::TreatedAsObjectDataSchema
  2
AcDbDs::TreatedAsObjectData
280
     1
 91
        0
  0
XRECORD
  5
537
102
{ACAD_REACTORS
330
53B
102
}
330
53B
100
AcDbXrecord
280
     1
  1
AcDbDs::LegacySchema
  2
AcDbDs::Legacy
280
     1
 91
        0
  0
XRECORD
  5
538
102
{ACAD_REACTORS
330
53B
102
}
330
53B
100
AcDbXrecord
280
     1
  1
AcDbDs::IndexedPropertySchema
  2
AcDs:Indexable
280
     1
 91
        0
  0
XRECORD
  5
539
102
{ACAD_REACTORS
330
53B
102
}
330
53B
100
AcDbXrecord
280
     1
  1
AcDbDs::HandleAttributeSchema
  2
AcDbDs::HandleAttribute
280
     7
 91
        1
284
     1
  0
XRECORD
  5
540
102
{ACAD_REACTORS
330
53F
102
}
330
53F
100
AcDbXrecord
280
     1
102
DISPLAYNAME
  1
Metric50
102
FLAGS
 90
        0
  0
XRECORD
  5
1FA
102
{ACAD_REACTORS
330
1F9
102
}
330
1F9
100
AcDbXrecord
280
     1
 70
     1
 90
429727718
  1
D62C5603-E3A1-4AEA-B7FB-FE5D8D0755AF
310
504B03040A0000080000CC70623B3DEE336E79000000790000001B0000006175746F6465736B2D64657369676E2D7061636B6167652E786D6C3C3F786D6C2076657273696F6E3D22312E302220656E636F64696E673D227574662D3822203F3E3C666F726D6174733E3C666F726D61743E687474703A2F2F736368656D612E
310
6175746F6465736B2E636F6D2F64657369676E2D7061636B6167652F323030393C2F666F726D61743E3C2F666F726D6174733E504B0304140006080800CC70623BD486FD9CA0000000F4000000130000005B436F6E74656E745F54797065735D2E786D6C7D8EC10E82300C865F65E91D8A1E8C310C0EEA1BF002731658846E
310
D98AC1B77784ABF1D8FE5FBFBF75BBCE937A534CCEB38643598122B6FEE978D0B0485F9C41B54DDD7D022595594E1A469170414C76A4D9A4D207E29CF43ECE46F218070CC6BECC4078ACAA135ACF422C856C0E68EA1BF5669944DDD7BCDE7B1F8E415D77AECB980613C2E4AC91FC167A2B244592486606FC29C8FD7F045B9A
310
EF7053A7E60B504B0304140006080800CC70623B853B8169EB0000007C01000008000000636F72652E786D6C8D90416EC3201045AF62CDB6C206821CC7C244919D9CA01740401C94182C03558F5F9C3852BBEB6A467FFE9B197D7EFC9E1EC5975982F5AE035262288C535E5B377690E21535501C055FBC8FBF6C503839990E
310
5619041F179FE64D52DE45E362569DD7661365082642A11EB9E920A89B99642953CC8E702F67A9EE7234257977194EC9EAE275C4EABCCF5EAD5940D4AC6F0E35A568B8F43562CD7046CD199FD07E60174276A7BE677B5EADB0E0D14EEFFB6A31321A0D82627C4084204C3F096B71DD52F6819B16635EADF63F509AF53FA164
310
5DDCD1EDDD17164090FCC8732078B56691CB33A85CD7DCC40F504B0304140006080800CC70623B55019EA25F0000007C00000007000000636E782E786D6C4DCB3B0E80201045D1AD90E915ED2CF8AC45050C11660C8261F98AB1B07AC9C97D42D718D865D3E909258CFD00CCE24AC6E326A164D74DC0B4128928FF32603847
310
2BA13128B1252AC747C6BAB984FC68F0B87FE8960A5C09FE86CFB69FBA01504B0304140006080800CC70623BDBABAAF470010000D40300000C0000006662782F636F72652E786D6CC553D16E823014FD95A6AF4B694182CC941A83FA05FB810A9511A125A5257EFE2E82712ECEB8A7F100CD39F7F69E734AF9FADC366850B6
310
AF8DCE7018308C942E4C59EB2AC3DE1D498AD15A706B8CFB56869196ADCAF00863C12B6B7C374385D14E6907A836A59A41D9F7CA615434B0C8705F7CAA5606D23BA8E84F41278B93AC54100640439DE0BDB320004D43C63716C7C399D30917DCFBBA9CD9BA8469F5B156168B24CED3F7248AC8769F27244EB73B92EED8862C
310
B7F13E0C179B3C8F979C8ECD82BBBABDAA2BAC924E9558448CBD9330242CFA08E3154B5651FCC6D215639C8EE5774DBE2B5F6CF2B5768B68963BB5F5588420E442FC700B1139D4CB01F450C1E918227C2E09DF070D8140C84E1E9AAB8F1340832A9CB13130A5F1376A908D57309505ECF2A0DF179C4E9D30F5B239B87E3823
310
7A79C6F31DE1A8A5AEC08474B03C7837EAE4938639B44E5932B833D2C6B6B279CDC613877FA26EE21F4A2A4C63EC7F29A2F301D1F9F7A0E37D145F504B0304140006080800CC70623B9C113CC27E0000009D0000000B0000006662782F636E782E786D6C4DCCDF0A83201C86E15B91DFB94BFB330DD428C8FB886521330DA7
310
6397BF1A1DECE883878F57749FCDA1B7892F1BBC047A23808C7F84D9FA55424E0BE6803A256208E9EF06C84F9B91703228B1C690F78B66B34CD9A5439DF5CF0BFBF65E35BCA1B8D6A5C6F540381E886698B5741C695F9503EBA150A2F8958E3DC3EA0B504B0304140006080800CC70623B7DF2F77C2A010000120200003100
310
00006662782F41393633353835312D344632462D344230382D423046372D3739314545314133324237412F636F72652E786D6C8D51DB8EC22014FC15C2939B0D2DB4B45643319AE817EC0F6041255A68B86CFCFC856D4D76DF7CE190393373060EDB3DC707F856CE6B6B7A480A0C81328395DA5C7B18C3057510EC3873D686
310
3F34088C18550F330C39BB3A1BA7051AAC09CA84841A2BD5020AEF55806078A44B0FFD7053A328440C89E1EFC52486BBB8AA8214A99D789CF9E05200300FC927E4FB4D5B375D43103D5527440FB843077C5AA3F5861C8F645F5787F59E95B390B318B55CE45AA638FAA2957BD7248B390B7A7CC51F9C124149C82B8C378810
310
84AB2F42B7B8DD56F413775B8C5999E9FF4471926F8AA236A1AE96B8B3CC434E5839373893369E1FAF30EA395917409EB7F26AF8801C171837A4A6AC9C89E9F9C9B1A58BA30FD6A5EF5DDDCF894B9AD9B6A59C957943A9FCAE2FD5BC4DFE03504B0304140006080800CC70623BAD7543B64E01000033030000300000006662
310
782F41393633353835312D344632462D344230382D423046372D3739314545314133324237412F636E782E786D6CD593CD6EC32010845F0571AD6CE3D48AD20813A9873E410FBD12D82434182C7EAAE6EDBB2424CD25871E7B41D6EC30B3FA84F9E67BB2E40B4234DE8DB46F1925E094D7C6ED479AD3AE5951B2113C789FEE
310
6C943839C1488B4C05DF079FE72A69D8C96C13AAD6B8631503449F83828872B949AC57D26200B826A308D316B4064D6E46FCDA41C05550DC9E483A00797BFD207EFB092A45DE9514C1BBD22178396BD39D891265658C238DEA00936C654E5E433CB65A26D9F6EDB5EBC14EBF49A45CB856E66048291F6939A9A81BB5C89177
310
38143CA680F4AA299D66A042CEB3354A2684DC9D8D178FE0D9B8B41CAAD720F880EE7EF93C0C18769E099ECC04D5A102C8049A8A05632F4DDF376CF1DE0F6BB65C2F8627B65A33C6BB62177CEBBDAD973006829F89F22E814B54F4BC2BE347F8AA8F681390B50FA73F804400B5F542E796F19FF974E7F78DB802FE05E20750
310
4B0304140006080800CC70623BE75B7789680500003C100000340000006662782F41393633353835312D344632462D344230382D423046372D3739314545314133324237412F6F626A656374732E786D6CAD575B8F9B3818FD2B887D06C22499CB8AA1CA655245D5B455A356FB305264C061D8018C6C3393D95FBFC7600890
310
A4CD5EF210B0B1BFEBF98E3F7B1FF6596ABC522E1296DF9BAE3D320D9A872C4AF2F8DE2CE5CEBA358D0FBEC719939D65A691938CDE9B6ADAF4BD98B3B2D05311DD91329583D9D5FC0F438434A7A611A644887B5384CF34233629258BA878B12322891DEFF6B66BD70BFB62634E8AE781D082709A4B588AF91C528CDA28B73F
310
1C998EEF39EABBEFA97FBD6A7C7E9553F9D3D79FE442923C3C523610337627CB87ABE99D359D4CC6D6E4FACAB5E6ABF9D2726FC6A3C5F56271377BB88362213924694B38DD99FE47C48627A1E7D49F5A8BB5E1A74C0A599ED3B0F21F1E56366B89112D681E218F0915D0D6F17AD41FBA2A369DCF6335D62ABBD39779D5DDD1
310
11D4D8DE3CBB96B2E04FB8202E41051754A1AA8E8F76B4C6DFE810B580B1547F4B84911149794252234D024EF8BBE963A95AE27B3D310A9D5C215C7960FAEE415ED75694C6AFB17BCACA5D99A60A9AA65F217B0BFC53292ACB92BF283FAD0D3621576592CB5BED907C2FA8E9DF794E35E97BEA31BED21FEB401ABB94C44839
310
DCACBF0E1C5DA8DA5B2F4DFFD32AD86F543D9E565E7056502E157C00AD2671CD534549AB752FCA9CDA00677A313F04E51B22FF19E57B300579E3C97EB29F682D92935CEC18CF901B7B54FD8C51F362B56FC72FE0B3C1EAE335EDCCBF5AEC39ADB17DC238973F804BA5E6F6BFE7AF1FB32E523BE9F3BD571418E3631DCA4D48
310
5250CF639223210A9446CA30052EDF057BD35F8329C1ECD84552BF0DC8D18BE7BCE23BFE6BD960AB4A7DE79923A103BEBD80F911CBAA2C60DB19B01CF164A5583B772EE6D3FFA56666CBCDA74DC97724A48F9A58967497E489C4D979006FD7A05E227A1EBDD0F737C623387A9C844D3709995625106D157315F8B8392CD4E0
310
A0B9A720C4BE9829CEF37EA1E13111214D53925356365ADA634861B52519DD27A00AEB808EAF0628E6F435519D446F45CF2C9CF5214F0A15B2F6D06B79DA3EE3CBF7F56780D2F4E7EF73A0F5E5B02A38D07DC852C6B7C1FBB6664213E0C39E3EBA7FF4E1AD23EA2829407C85E586727488B751B2DB9502BC7B228A3FD68B6E
310
A65A22397E690AA8D158D7E404EC8CDA235CC3B7D1898680131CEC2CDF2638C65196279577750F15884AEE19F94199155B92B13297978469D4F8D358DF0AEF7631E28DC8F0D9F437D5D39A83B2231A1D52D543813A824EF8D44BCFF2FA6A31BD1E8DAD87F1CCB526B3879935BF59CDADD5C37479BB1CDD4CA7B3556B516589
310
EF352754B706114D9C885EC9131DE6EFEB43D99AFE2391C2F958179413D7CFEF6B1B6DB1E7600F00DE6E5C67454A339A4BA2E0FBA85ED26F045D454F463DBFCE484C2F90F2E5E3666003662ED8F755951A7D1BECD5B30B550B2785C8E7320B7292A4838DDA71BBC863ED7613CAF659337A3354231D4FF4A182A54904C2898C
310
98B28C4AD0CE056CCF332A80986E571EE9DBC305BB5FEB7E509220A58D25CF042D712A806AC0AD0C657FDEF80D2D9CEAA2EE4D1C76F60BFE74219A06527D6F82DF6412526107381E55E353090704D085B52408A8913C4ED159D79BDA71BB4BC506F4831350EB6F975CD22D69BF7AC49B91A2C0A9DDA3D5CA36AD20FC478E37
310
E61844E2352865EBCB61A275A65283CAAA9DD27703B4102F5AF51EF5F573B75CBB5AD38BC845F7A49F82A0966A49C2E3EA5EA0ECD326CD965F1DB402C6FA8B51A4658C5C5E2EC9E214602E55810345408596591009A82E7E7FFACA19EEA299B14A0081A705CB3296EBC14CDF658DCD336EA6D1136881AAEB87B81AB9EE53D5
310
F5EB8BC8362082DA24122F98680A4E7930C01A0079749CEA14382A0783E5EBA5A10F8C098456A03D6A4AEB6BB881E2513747552A5DB22C7EDAF83BD5528081A365F7FF06504B0304140006080000CC70623B000000000000000000000000350000006662782F41393633353835312D344632462D344230382D423046372D37
310
39314545314133324237412F76657274696365732E62696E504B0304140006080800CC70623BF270F1330600000004000000360000006662782F41393633353835312D344632462D344230382D423046372D3739314545314133324237412F747269616E676C65732E62696E636660600000504B0304140006080000CC7062
310
3B000000000000000000000000370000006662782F41393633353835312D344632462D344230382D423046372D3739314545314133324237412F617474726962757465732E62696E504B0304140006080800CC70623B08DA0BD19000000041010000360000006662782F41393633353835312D344632462D344230382D4230
310
46372D3739314545314133324237412F6469726563746F72792E786D6C858F410AC3201045AF22B36F53E9A60B35CBEEBAE80D244E44489C6234F4F835464A48035D0DF398FF9F8AF63D0E6CC63039F212F8F9020C7D47C6792B21C5FE7403D62A1188E2E60C98D7234A5830286103A55745067B9D86B8A3CF9C7F90C11DE6
310
07FB144396D7B6A82D282E9A152AD114D5EF2CB866EEE831B8EEA07A7BB5A8D7D61A2BAAEB7FD5F70921FF497D00504B0304140006080800CC70623BEDD1DC58FD000000A00100003B0000006662782F41393633353835312D344632462D344230382D423046372D3739314545314133324237412F7265736F75726365732F
310
636F72652E786D6C8D504B6E833010BD0A9A6D65B00922041947112427E8052C33A156828DFCA97AFC9A40A576D7CDCCE87D344F8F9FBFE667F689CE6B6B3A6039850C8DB2A336530731DC4903D95970676DF82583CCC8193B5861107C72362E3BA4AC096842428D1D7107A5F7182053CF7474E0D507CE32973124857FE48B
310
540F3961CEF244279DE03EB81420DB9EAC1384436FA353E879B1B182C7A8C75DA3C7F453DF353A1075D537A7BA6464B8F535A99AE14A9A2BBD90E350DD183B5CFABE3AF262350B1EF4FC9351399401471025A527C218A1E53BAB5A5AB765F5469B96525EACF23FA6B88CFF34456DC2A1DCE36E360F82A5202F42F062ED2BAD
310
579969AFDD8A6F504B010214000A0000080000CC70623B3DEE336E79000000790000001B00000000000000000000000000000000006175746F6465736B2D64657369676E2D7061636B6167652E786D6C504B01021400140006080800CC70623BD486FD9CA0000000F40000001300000000000000000000000000B20000005B
310
436F6E74656E745F54797065735D2E786D6C504B01021400140006080800CC70623B853B8169EB0000007C010000080000000000000000000000000083010000636F72652E786D6C504B01021400140006080800CC70623B55019EA25F0000007C000000070000000000000000000000000094020000636E782E786D6C504B
310
01021400140006080800CC70623BDBABAAF470010000D40300000C00000000000000000000000000180300006662782F636F72652E786D6C504B01021400140006080800CC70623B9C113CC27E0000009D0000000B00000000000000000000000000B20400006662782F636E782E786D6C504B01021400140006080800CC70
310
623B7DF2F77C2A010000120200003100000000000000000000000000590500006662782F41393633353835312D344632462D344230382D423046372D3739314545314133324237412F636F72652E786D6C504B01021400140006080800CC70623BAD7543B64E010000330300003000000000000000000000000000D2060000
310
6662782F41393633353835312D344632462D344230382D423046372D3739314545314133324237412F636E782E786D6C504B01021400140006080800CC70623BE75B7789680500003C10000034000000000000000000000000006E0800006662782F41393633353835312D344632462D344230382D423046372D3739314545
310
314133324237412F6F626A656374732E786D6C504B01021400140006080000CC70623B0000000000000000000000003500000000000000000000000000280E00006662782F41393633353835312D344632462D344230382D423046372D3739314545314133324237412F76657274696365732E62696E504B01021400140006
310
080800CC70623BF270F133060000000400000036000000000000000000000000007B0E00006662782F41393633353835312D344632462D344230382D423046372D3739314545314133324237412F747269616E676C65732E62696E504B01021400140006080000CC70623B0000000000000000000000003700000000000000
310
000000000000D50E00006662782F41393633353835312D344632462D344230382D423046372D3739314545314133324237412F617474726962757465732E62696E504B01021400140006080800CC70623B08DA0BD1900000004101000036000000000000000000000000002A0F00006662782F41393633353835312D344632
310
462D344230382D423046372D3739314545314133324237412F6469726563746F72792E786D6C504B01021400140006080800CC70623BEDD1DC58FD000000A00100003B000000000000000000000000000E1000006662782F41393633353835312D344632462D344230382D423046372D3739314545314133324237412F7265
310
736F75726365732F636F72652E786D6C504B0506000000000E000E0080040000641100000000
  0
XRECORD
  5
1F8
102
{ACAD_REACTORS
330
1F7
102
}
330
1F7
100
AcDbXrecord
280
     1
 70
     1
 90
429727718
  1
30362254-06B7-45E0-A893-8CFA70E3D6BC
310
504B03040A0000080000CC70623B3DEE336E79000000790000001B0000006175746F6465736B2D64657369676E2D7061636B6167652E786D6C3C3F786D6C2076657273696F6E3D22312E302220656E636F64696E673D227574662D3822203F3E3C666F726D6174733E3C666F726D61743E687474703A2F2F736368656D612E
310
6175746F6465736B2E636F6D2F64657369676E2D7061636B6167652F323030393C2F666F726D61743E3C2F666F726D6174733E504B0304140006080800CC70623BD486FD9CA0000000F4000000130000005B436F6E74656E745F54797065735D2E786D6C7D8EC10E82300C865F65E91D8A1E8C310C0EEA1BF002731658846E
310
D98AC1B77784ABF1D8FE5FBFBF75BBCE937A534CCEB38643598122B6FEE978D0B0485F9C41B54DDD7D022595594E1A469170414C76A4D9A4D207E29CF43ECE46F218070CC6BECC4078ACAA135ACF422C856C0E68EA1BF5669944DDD7BCDE7B1F8E415D77AECB980613C2E4AC91FC167A2B244592486606FC29C8FD7F045B9A
310
EF7053A7E60B504B0304140006080800CC70623B1EC5D7A3EB0000007C01000008000000636F72652E786D6C8D90416EC3201045AF82665B6103C6756C6122AB4D4ED00B204C5C94182C03558F5F9C3852BBEB6A467FFE9B197D71FC9E6FE8CBACC17AD7032D0820E3B41FAD9B7A48F1820F808E52ACDEC75F36404ECDA687
310
4D0629A6D5A76597B477D1B89855E747B38B2A041301E95B6E7A08FAD3CCAA50296647B8168BD2573599823EBB0CA76447F43862C7BCCF5EAC59410E4DDD9C7973C2755553CCCFA4C603E3040F1565ED3B1FDE4E432BCA0D9622DAF9795FAF464533826484B498524CD807E51D79ED187F21878E10516EF63F505AC67F42C9
310
BA58B1FDDD071640D2FCC87D2045B96591CB3DA85CB7DCE40F504B0304140006080800CC70623B55019EA25F0000007C00000007000000636E782E786D6C4DCB3B0E80201045D1AD90E915ED2CF8AC45050C11660C8261F98AB1B07AC9C97D42D718D865D3E909258CFD00CCE24AC6E326A164D74DC0B4128928FF32603847
310
2BA13128B1252AC747C6BAB984FC68F0B87FE8960A5C09FE86CFB69FBA01504B0304140006080800CC70623B8C9102E971010000D40300000C0000006662782F636F72652E786D6CC5535B6E833010BC8AE5DF0A6C08340F1947A84D4ED00B38C6A128602363A31CBFCB234A53A551FA553EC09AD9F5CE8C31DB9E9B1AF5CA
310
7695D1198E428A91D2D214952E33ECDD315861B4E5CC1AE3BE9561A445A3323CC098B3D21ADFCE9034DA29ED00D5A6503328BA4E398C640D8B0C77F253352214DE4145770A5B214FA2546114020D759C75CE8200340D19DE981F0F6746269C33EFAB6266AB02A655C74A59CCF365BADC27CB5D902ED22848F6340DF238A141
310
BE88E2F57B92BFEDF23523433367AE6A2EEAA455C2A902F398D2751045018D3FA264435F3771F242571B4A1919CA6F9A7C5B3CD9E42BED16F12C776AEB308F40C848FC700B1139D4891EF410CEC810227CC6846F8386402064270EF5C5C709A05E49676C024C61FC95EA45ED154CA5211D1FF4FB8291A913A68E9B83EBBB33
310
E2A7673CDE118E5AE8124C0807CB8377834E366998436B950D7A7746DAD846D4CFD978E0F04FD455FC5D49D2D4C6FE9722321F10997F0F32DC47FE05504B0304140006080800CC70623BFFEA85907E0000009D0000000B0000006662782F636E782E786D6C4DCCD10A83201886E15B91FFDC95D95A811AB6F23E625948A6C3
310
E9D8E5AF46073BFAE0E1E365ED67B3E8ADC3CB78C7815C7240DA3DFC64DCC221C519D7805AC182F7F1EF06C88D9BE6703008B6049F9E274D7A1E938DBB5AE3D6131B2589BA0D3D965551E0B2EA732C9B9A624AAEB41E3A557677029960D9AFB4EF11165F504B0304140006080800CC70623B4FEEA4082C0100001202000031
310
0000006662782F39464131463745442D413632322D343644302D413938332D3331353338454246344243312F636F72652E786D6C8D515B6EC32010BC0AE2AB55850DD871ED0813254D72825EC00192A2C460F1A872FC42ED48ED5F7E00CDCECCCEB26C731F6FE05B39AFADE921293004CA082BB5B9F43086336A21D870E6AC
310
0D7F68109861543DCC30E4ECE26C9C164858139409093556AA051CBC570102714B8F1E7AF1A5C6A11862480C7F2DA6415C878B2A4891CA89C7990F2E050073937C42DE1DB7E4F87ED8A36D4329AA9B3D46DBAEAD504556557BD81DEBDD0761E52CE42C462D17B996298E3E6BE59E35C962CE821E1FF18553435012728A7187
310
0841987E927A8D9B35ADDF70BBC6989599FE4F1427F9A4286A132ABAC49D651EF234CD5CE04CDA78BA3DC2A8FB645D00B9DF8B57E215725C60BCA2A463E54C4CE327C7A65E1C7DB02E7DEFCBF594B864C5CA6CDBD49C957943E9FA5D5FBAF336F90F504B0304140006080800CC70623BAD7543B64E01000033030000300000
310
006662782F39464131463745442D413632322D343644302D413938332D3331353338454246344243312F636E782E786D6CD593CD6EC32010845F0571AD6CE3D48AD20813A9873E410FBD12D82434182C7EAAE6EDBB2424CD25871E7B41D6EC30B3FA84F9E67BB2E40B4234DE8DB46F1925E094D7C6ED479AD3AE5951B2113C
310
789FEE6C943839C1488B4C05DF079FE72A69D8C96C13AAD6B8631503449F83828872B949AC57D26200B826A308D316B4064D6E46FCDA41C05550DC9E483A00797BFD207EFB092A45DE9514C1BBD22178396BD39D891265658C238DEA00936C654E5E433CB65A26D9F6EDB5EBC14EBF49A45CB856E66048291F6939A9A81BB5
310
C8917738143CA680F4AA299D66A042CEB3354A2684DC9D8D178FE0D9B8B41CAAD720F880EE7EF93C0C18769E099ECC04D5A102C8049A8A05632F4DDF376CF1DE0F6BB65C2F8627B65A33C6BB62177CEBBDAD973006829F89F22E814B54F4BC2BE347F8AA8F681390B50FA73F804400B5F542E796F19FF974E7F78DB802FE05
310
E207504B0304140006080800CC70623B16AB87BA640500003C100000340000006662782F39464131463745442D413632322D343644302D413938332D3331353338454246344243312F6F626A656374732E786D6CAD575B6FA33818FD2B887DE6924B3BED8A326A92B68A663B534DD4D13E548A0C38942D60649B369D5FBFC7
310
600890A493BDE42160637FD7F31D7FF63E6FB3D478A55C242CBF3247B66B1A340F5994E4F19559CA8D75611A9F7D8F33263BCB4C232719BD32D5B4E97B316765A1A722BA21652A07B3B7B33F0D11D29C9A46981221AE4C113ED38CD8A4942CA2E2C58E882476BCD9DA23BB5ED8171B73523C0F841684D35CC252CCE79062D4
310
468DFA43D7747CCF51DF7D4FFDEB5593E3AB9CCA9FBEFE241792E4E19EB28198C968BAB8199F5D5A67D3E9C49A9E8F47D6EC76B6B0469F26EEFC7C3EBFBCBEB98462213924694B38DD98FE1D62C393D073EA4FADC5DAF04326852CCF6958F90F0F2B9BB5C48816348F90C7840A68EB78EDF68723159BCEE7891A6B95DDE9D3
310
BCEAEEE8086A6C6F9E5D4B59F0175C10A7A0820BAA5055C7473B5AE3CFDD452D602CD5DF12616444529E90D448938013FE6EFA58AA96F85E4F8C42275708571E98FE6827AF6B2B4AE3D7D83D64E5A64C53054DD3AF90BD06FEA9149565C94FCA0F6B834DC85599E4F2423B24DF0B6AFA979E534DFA9E7A4CC6FA631D486393
310
921829879BF5D781A373557BCB85E97FB90DB62B558F8795179C15944B051F40AB495CF35451D26A4727654E6D8033BD98EF82F21D91FF8AF2DD9982BCF1643BDD4EB516C9492E368C67C88DED563FC36D5EACF66DFF057C3658BDBFA69DF9578B3DA735B64F18C7F20770A9D45CFCF7FCF563D6456A277DBEF78A02637CA2
310
43B90A490AEAB94F72244481D24819A6C0E59B606BFA4B3025981DBB48EAB701D97BF19C577CC77F2D1B6C55A9EF3C732474C0B727303F625995056C3B02963D9EAC146BE78EC5FCEC7FA999EBC5EACBAAE41B12D27B4D2C0BBA49F244E2ECDC81B76B502F113D8F5EE8FB1BE3111CDD4FC2AA9B844CAB1288B68AB90A7CDC
310
1C166AB0D3DC5310625FCC14E779BFD0709F8890A629C9292B1B2DED31A4B0DA928CEE135085754027E3018A397D4D5427D15BD1330B677DC8934285AC3DF45A9EB68FF8F2B8FC0A509AFEECFD0FF2DE25CC6047F7214B195F07EFEB9A094D800F7BFAE8FED187B78EA8A3A400F115961BCAD1215E47C966530AF0EE8128FE
310
58CEBB996A8964FFA529A046635D9353B0336A8F700DDF46271A024E70B0B37C9DE01847591E54DED53D54202AB947E4076556AC49C6CA5C9E1226B7F1A7B1BE15DEED62C41B91E1B3E9AFAAA735036547343A925075041DF0A9979E893B391F8FCFA6967B3EFB644DCF6E5CEBFAE272625DCC6FAF3FB93793C5F90CE1EF57
310
407342756B10D1C489E8953CD1617E5CEECAD6F4EF8914CE5D5D504E5C3F1F9736DA62CFC11E00BCDDB8CC8A9466349744C1F75EBDA4DF09BA8A9E8C7A7E9991989E20E5DBDD6A6003664ED8F7A04A8DBE0DF6EAD9B9AA858342E47399053949D2C146EDB85DE4B176BB0965FBAC19BD19AA918E27FA50C1D22402E144464C
310
59462568E704B6E71915404CB72B8FF4EDE184DDAF753F284990D2C6926782963815403548A70C657FDEF80D2D9CEAA2AE4C1C76F60BFE74219A06527D6582DF6412526107381E55E353090704D085B52408D0933C4ED159D79BDA71BB4BC506F4831350EB6F979CD22D69BF7AC49B91A2C0A9DDA3D5CA36AD20FC478E37E6
310
1844E2352865EBCB6EA275A652E3836BE04EFB400BF1A2556F515F1FBB35B2AB35BD889C744FFA1004B5544B121E57F70215746DD2F5E2C1412B602CBF19455AC6C8E5E9922C4E01E65215385004546899059180EAFCF7A707CE7017CD8CDB0410789AB32C63B91E5CEBBBACB17AC6CD347A022D5075FD106377347AAABA7E
310
7D11590744509B44E205134DC1290F06580320F78E537D3D73540E06CB970B431F185308AD40BBD794D6D77003C5A36E8EAA54BA64597CD8F83BD552A080A365F7FF06504B0304140006080000CC70623B000000000000000000000000350000006662782F39464131463745442D413632322D343644302D413938332D3331
310
353338454246344243312F76657274696365732E62696E504B0304140006080800CC70623BF270F1330600000004000000360000006662782F39464131463745442D413632322D343644302D413938332D3331353338454246344243312F747269616E676C65732E62696E636660600000504B0304140006080000CC70623B
310
000000000000000000000000370000006662782F39464131463745442D413632322D343644302D413938332D3331353338454246344243312F617474726962757465732E62696E504B0304140006080800CC70623B08DA0BD19000000041010000360000006662782F39464131463745442D413632322D343644302D413938
310
332D3331353338454246344243312F6469726563746F72792E786D6C858F410AC3201045AF22B36F53E9A60B35CBEEBAE80D244E44489C6234F4F835464A48035D0DF398FF9F8AF63D0E6CC63039F212F8F9020C7D47C6792B21C5FE7403D62A1188E2E60C98D7234A5830286103A55745067B9D86B8A3CF9C7F90C11DE607
310
FB144396D7B6A82D282E9A152AD114D5EF2CB866EEE831B8EEA07A7BB5A8D7D61A2BAAEB7FD5F70921FF497D00504B0304140006080800CC70623B0D6EF93BFE000000A00100003B0000006662782F39464131463745442D413632322D343644302D413938332D3331353338454246344243312F7265736F75726365732F63
310
6F72652E786D6C8D50596E833010BD0A9ADFCA60B334011947A8694ED00B586642AC041B79A97AFC9A40A5F6AF3F33A3B7689E1E3F7DCD8FEC139DD7D6F4C0720A191A65476DA61E62B892236427C19DB5E1970C322367EC618541F0C9D9B8EC90B226A009093576C41D94DE63804C3DD2D18357379C652E63480A7FCF17A9
310
EE72C29CE5894E3AC17D702940B63D59270887DE46A7D0F36263058F518FBB468FE9A7BE6A7420864373B8D4873369AA8691FA421B3294352543C5CAF65C0F6FEF43CB8BD52C78D0F34F46E550061C419494B6843142CB0F5677F4B52BEB177AEC28E5C52AFF638ACBF84F53D42654E51E77B379102C05791282176B5F693D
310
CB4C7BED567C03504B010214000A0000080000CC70623B3DEE336E79000000790000001B00000000000000000000000000000000006175746F6465736B2D64657369676E2D7061636B6167652E786D6C504B01021400140006080800CC70623BD486FD9CA0000000F40000001300000000000000000000000000B20000005B
310
436F6E74656E745F54797065735D2E786D6C504B01021400140006080800CC70623B1EC5D7A3EB0000007C010000080000000000000000000000000083010000636F72652E786D6C504B01021400140006080800CC70623B55019EA25F0000007C000000070000000000000000000000000094020000636E782E786D6C504B
310
01021400140006080800CC70623B8C9102E971010000D40300000C00000000000000000000000000180300006662782F636F72652E786D6C504B01021400140006080800CC70623BFFEA85907E0000009D0000000B00000000000000000000000000B30400006662782F636E782E786D6C504B01021400140006080800CC70
310
623B4FEEA4082C0100001202000031000000000000000000000000005A0500006662782F39464131463745442D413632322D343644302D413938332D3331353338454246344243312F636F72652E786D6C504B01021400140006080800CC70623BAD7543B64E010000330300003000000000000000000000000000D5060000
310
6662782F39464131463745442D413632322D343644302D413938332D3331353338454246344243312F636E782E786D6C504B01021400140006080800CC70623B16AB87BA640500003C1000003400000000000000000000000000710800006662782F39464131463745442D413632322D343644302D413938332D3331353338
310
454246344243312F6F626A656374732E786D6C504B01021400140006080000CC70623B0000000000000000000000003500000000000000000000000000270E00006662782F39464131463745442D413632322D343644302D413938332D3331353338454246344243312F76657274696365732E62696E504B01021400140006
310
080800CC70623BF270F133060000000400000036000000000000000000000000007A0E00006662782F39464131463745442D413632322D343644302D413938332D3331353338454246344243312F747269616E676C65732E62696E504B01021400140006080000CC70623B0000000000000000000000003700000000000000
310
000000000000D40E00006662782F39464131463745442D413632322D343644302D413938332D3331353338454246344243312F617474726962757465732E62696E504B01021400140006080800CC70623B08DA0BD190000000410100003600000000000000000000000000290F00006662782F39464131463745442D413632
310
322D343644302D413938332D3331353338454246344243312F6469726563746F72792E786D6C504B01021400140006080800CC70623B0D6EF93BFE000000A00100003B000000000000000000000000000D1000006662782F39464131463745442D413632322D343644302D413938332D3331353338454246344243312F7265
310
736F75726365732F636F72652E786D6C504B0506000000000E000E0080040000641100000000
  0
XRECORD
  5
175
102
{ACAD_REACTORS
330
173
102
}
330
173
100
AcDbXrecord
280
     1
270
     1
271
     1
  0
XRECORD
  5
174
102
{ACAD_REACTORS
330
173
102
}
330
173
100
AcDbXrecord
280
     1
270
     1
271
     1
  0
XRECORD
  5
1FB
102
{ACAD_REACTORS
330
173
102
}
330
173
100
AcDbXrecord
280
     1
 70
     0
 90
1673772943
  1
ECE7A1D2-D628-4531-984C-D00F80459256
310
504B03040A0000080000CC70623B3DEE336E79000000790000001B0000006175746F6465736B2D64657369676E2D7061636B6167652E786D6C3C3F786D6C2076657273696F6E3D22312E302220656E636F64696E673D227574662D3822203F3E3C666F726D6174733E3C666F726D61743E687474703A2F2F736368656D612E
310
6175746F6465736B2E636F6D2F64657369676E2D7061636B6167652F323030393C2F666F726D61743E3C2F666F726D6174733E504B0304140006080800CC70623BD486FD9CA0000000F4000000130000005B436F6E74656E745F54797065735D2E786D6C7D8EC10E82300C865F65E91D8A1E8C310C0EEA1BF002731658846E
310
D98AC1B77784ABF1D8FE5FBFBF75BBCE937A534CCEB38643598122B6FEE978D0B0485F9C41B54DDD7D022595594E1A469170414C76A4D9A4D207E29CF43ECE46F218070CC6BECC4078ACAA135ACF422C856C0E68EA1BF5669944DDD7BCDE7B1F8E415D77AECB980613C2E4AC91FC167A2B244592486606FC29C8FD7F045B9A
310
EF7053A7E60B504B0304140006080800CC70623BD9DDAED0EC0000007C01000008000000636F72652E786D6C8D90416EC3201045AF82665B61836D9CD8C2444DD39CA01740405C94182C03558F5F9C3852BBEB6A467FFE9B197D7EF89E6EE8CB2CC17A37002D0820E394D7D68D03A478C17B4007C117EFE32F1B20272733C0
310
2A83E0E3E2D3BC49CABB685CCCAAF3DA6CA20CC14440EA969B0182FA34932C648AD911AEC52CD5558EA6A0CF2EC329598D1E47ACCEFBECC59A050463A7EA5833865FEBDD0E37353BE3EE8DBDE3F6786A48D375FBF6CC78B9C282473B3DEFABC5C86834888A900E538A49F5419B9EB47DD5BC907D4F082F57FB1F28CDFA9F50
310
B22ED6D5F6EE030B20687EE43E10BC5CB3C8E51E54AE6B6EE207504B0304140006080800CC70623B55019EA25F0000007C00000007000000636E782E786D6C4DCB3B0E80201045D1AD90E915ED2CF8AC45050C11660C8261F98AB1B07AC9C97D42D718D865D3E909258CFD00CCE24AC6E326A164D74DC0B4128928FF326038
310
472BA13128B1252AC747C6BAB984FC68F0B87FE8960A5C09FE86CFB69FBA01504B0304140006080800CC70623BA24EB22D72010000D40300000C0000006662782F636F72652E786D6CC5535B6E833010BC8AE5DF0A6C5E49888CA3A6694ED00B38E05014B091B1518EDFE511A5A9D228FD2A1F60CDEC7A67C6986DCE4D8D7A
310
69BA4AAB0C073EC548AA5C17952A33ECECD15B61B4E1CC686DBF9561A44423333CC098B3D268D7CE50AE9595CA02AA74216750749DB418E5352C32DCE59FB211BE70162ABA93DF8AFC244AE9073ED050C759670D0840D390E18DF9F1706664C23973AE2A66B62A605A75ACA4C13C4976E1364A12EF355A2EBD384AF65EFA96
310
BC7B8BED2EA6719AAE16FB8491A199335B351775B991C2CA02F390D2D40B028F861F41BCA68B7518BFD0D59A524686F29B26D7164F36B94AD9289CE54E6D1DE6010819891F6E21228B3AD1831EC219194284CF98F06DD01008846CC5A1BEF83801D4CBDC6A1303536877A57A513B0953A94FC707FDBE6064EA84A9E3E6E0FA
310
EE8CF0E9198F7784A316AA0413C2C2F2E0ECA0934D1AE6D05A69BCDE9E91D2A611F573361E38FC1375157F5752AE6B6DFE4B11990F88CCBF0719EE23FF02504B0304140006080800CC70623B408A7D3B7C0000009D0000000B0000006662782F636E782E786D6C4DCCD10A83201886E15B91FFDC552A92A0064DBC8F581632
310
D3703A76F9ABD1C18E3E78F878E5F0D9027ABBFCF2292AE86E2D20171F69F6715550CB827B40839639A5F2770314A7CD293819B45C73AAFB45B35BA61ACAA1C1C7E7855C58C15BC331339661262CC762340413D68D77DA5B42298546CBE6573AF60CEB2F504B0304140006080800CC70623B449FB9BD290100001202000031
310
0000006662782F36394639363044362D344446342D343946362D394244322D3234314243333846323333332F636F72652E786D6C8D515B6EC32010BC0AE22B55850D98B871848994463E412FE002495162B07854397EA176A4F62F3F2C9A9D991D587EB84F37F0AD7D30CEF6905418026DA553C65E7A98E219ED203808EE9D
310
8B7F6810D871D23D2C3014FCE25D9A57483A1BB58D19B54EE9151C43D0110279CB971E06F9A5A7B11A53CC8C70ADE6515EC78BAE4895DB992778883E0700CB907242D17643D7E2538BD869608875438BBAE38922CAC8F1BDD90DB4691A5E2F42C153326A951B95E398B3D1FE599322163C9AE9115F7A3D46ADA0A018778810
310
84E907617BDCEE297BC5BB3DC6BC2EF47FA234AB2745C9D8D8D035EE220B50105E2F0DC1954B9FB747187D9F9D8FA0CCDB042D5FA0C015C65B42DF78BD10F3F3B363CB56C7109DCFDFBBB97E662ED92EB62D13BC2E1BCAE5777DB9966D8A1F504B0304140006080800CC70623BAD7543B64E01000033030000300000006662
310
782F36394639363044362D344446342D343946362D394244322D3234314243333846323333332F636E782E786D6CD593CD6EC32010845F0571AD6CE3D48AD20813A9873E410FBD12D82434182C7EAAE6EDBB2424CD25871E7B41D6EC30B3FA84F9E67BB2E40B4234DE8DB46F1925E094D7C6ED479AD3AE5951B2113C789FEE
310
6C943839C1488B4C05DF079FE72A69D8C96C13AAD6B8631503449F83828872B949AC57D26200B826A308D316B4064D6E46FCDA41C05550DC9E483A00797BFD207EFB092A45DE9514C1BBD22178396BD39D891265658C238DEA00936C654E5E433CB65A26D9F6EDB5EBC14EBF49A45CB856E66048291F6939A9A81BB5C89177
310
38143CA680F4AA299D66A042CEB3354A2684DC9D8D178FE0D9B8B41CAAD720F880EE7EF93C0C18769E099ECC04D5A102C8049A8A05632F4DDF376CF1DE0F6BB65C2F8627B65A33C6BB62177CEBBDAD973006829F89F22E814B54F4BC2BE347F8AA8F681390B50FA73F804400B5F542E796F19FF974E7F78DB802FE05E20750
310
4B0304140006080800CC70623B8D05915C650500003B100000340000006662782F36394639363044362D344446342D343946362D394244322D3234314243333846323333332F6F626A656374732E786D6CAD575B6FA33814FE2B887D06429276DA1565D4266D158D3A339A6846FB502932E050B66023DB74D2FDF5FB190C01
310
9276B2973C046C8ECFF53B17071F77456EBD502133CEAE6CDF9DD81665314F32965ED995DA3A17B6F5310C04E7AA47665B8C14F4CAD6DB7618A48257A5D94AE89654B91AEDDEDDFC61C998326A5B714EA4BCB265FC440BE2924AF184CA6737218AB8E976E7FA6E4338649B0A523E8D98964450A6A029F619B8588D52FE7039
310
B1BD30F0F4F730D0FF866AF6369557DB33949F31A9088B0F848DD8CCFCF9F2767A76E99CCDE733677E3EF59D9BBB9BA5E37F984D16E78BC5E5F5ED25044B25C0C96822E8D60EEFE11B91C581D77CEA34368A1F5329E68CD1B8B61F16D63A1B8E092D294B10C78C4A48EB593D192E7DED9BDEE7995E1B91FDEDD3ACEA9FE831
310
6A756F9F7D4D79F4274C90A7A04248AA51D5F8C718DAE06FB2F75AC4796EBE65D22A88A22223B995679120E2D50E41AA49C260C046A35368846B0BECD0DFF3EBEB8AD4F835768F69B9ADF25C43D30E6B646F807FAA64AD59F61715C7A54127C4AACA98BA3006A9D792DAE165E0D59B61A01FB3A9F9D838D2DAE62445C86166
310
F37564E842E7DE6A69879FEEA2DD5AE7E371E1A5E025154AC307D06A03D73EB5978C58FFA4C8E9033066E0F3BD53BEC1F39F91BE7B55103791EDE6BBB991A2046172CB4581D8B893FA674DDA17A77B3B7C413D1B511FD2743BFF8A38F03A658705E3ADF8015C3A3417FF3D7E439FF591DA0B5F18BC20C1B8981957AE6392A3
310
F43C640C01D1A0B4728E2DD4F26DB4B3C3152A252A3B4E913CEC1C72F012782FF88EFF8637AA552DBEF76408E8A8DE9E50F9E1CB3A2DA0DB1B6039A893B56063DC5B3E3FFB5F72E67AB9FEB4AEC496C4F4C1149625DD662C53E89D7BF0F6151A046260D1337DFDC94502430F83B0EE07A130A224BCAD7DAE1D9FB6CD422FF6
310
920702629C4BB9AE79C12F243C6432A6794E18E5552BA56B431AAB5D91317302B2B071E86C3A42B1A02F999E24061403B5D0EB639195DA655DD3EBEAB4FB862DDF579F014AD0E73C22F99E28DA57FB98E75C6CA2D74D53086D600F4786E0FE3144B771A8A7B900F03594DB8A633CBC49B2EDB69228BB479CF863B5E807AAAB
310
23872F6DFEB4129B949CA33823F58830E86D65621E10047D9DB34D862E8EAC3C2ABC2F7B2C40D67CDFE01F5545B92105AF983AC54D93D69E56FB8E797F88913F898A9FEC705D3F9D1B54EC8426FB500D40A03BD0119B06E1B95DDC7EB8F6975367793EBD70E66733DFB9BC982F9CE564727731999F5D4ECFCE3B8D6A4DC2A0
310
6D50FD148437D110834A64C6CDDF57FBACB5C307A2A477DFE4939736CFEF2B175371E0E10CF0DD1D5C15654E0BCA14D1E87DD02FF93782A162C0A3D95F1524A52770F972BF1EE9809D13CE7DD599467F8ECE9ADD85CE85A34CD45355448C64F9E8A031DC2D596ACC6E5DD93D9B82DE2EF5CAF81363A8E47996A0DE24564A79
310
4115AACE09C55E14540231FDA13C319787134EBF34E3A022514E5B4D9E0826E25C02D5805B15ABE1BEF51B26383D445DD9E875EE33FE4C22DA16427D65A3BCA92CA6D28DD01DF5DC53330704308475351050232CCD31583787BA75774AFB06E5070DD0C8EF484E19968C5D83BA5B90B244D31E54D55A372320FE4786B7EA58
310
44E135AA5467CB7EA333A61683CC6A8C3257034C10CF46F40EF9F5BE59BE5BD30C3C72D235E95D10345C1D45445A5F0BB47E46A5EBE5570F9380B5FA629579952296A773720405982B9DE04011506178964401AA8BDF1FBF0A8EAB6861DD6580C0E38217056766716DAEB2D6FA0917D3E4116581EADB879C4E7CFFB11EFACD
310
3D641311495D92C8676CB409A72D18610D803CE8A626049E8EC1887CB5B44CC39883690DDA8399B4B9855B481E7D71D4A9D22F96E5BB73BF5793020C02137BF837504B0304140006080000CC70623B000000000000000000000000350000006662782F36394639363044362D344446342D343946362D394244322D32343142
310
43333846323333332F76657274696365732E62696E504B0304140006080800CC70623BF270F1330600000004000000360000006662782F36394639363044362D344446342D343946362D394244322D3234314243333846323333332F747269616E676C65732E62696E636660600000504B0304140006080000CC70623B0000
310
00000000000000000000370000006662782F36394639363044362D344446342D343946362D394244322D3234314243333846323333332F617474726962757465732E62696E504B0304140006080800CC70623B08DA0BD19000000041010000360000006662782F36394639363044362D344446342D343946362D394244322D
310
3234314243333846323333332F6469726563746F72792E786D6C858F410AC3201045AF22B36F53E9A60B35CBEEBAE80D244E44489C6234F4F835464A48035D0DF398FF9F8AF63D0E6CC63039F212F8F9020C7D47C6792B21C5FE7403D62A1188E2E60C98D7234A5830286103A55745067B9D86B8A3CF9C7F90C11DE607FB14
310
4396D7B6A82D282E9A152AD114D5EF2CB866EEE831B8EEA07A7BB5A8D7D61A2BAAEB7FD5F70921FF497D00504B0304140006080800CC70623BCA768048FE000000A00100003B0000006662782F36394639363044362D344446342D343946362D394244322D3234314243333846323333332F7265736F75726365732F636F72
310
652E786D6C8D50596E833010BD0A9ADFCA60D600328E9AA639412F609909B1126CE4A5EAF16B0295DABFFECC8CDEA2797AECF8353F924FB44E193D409E5248504B332A3D0D10FC95B4901C39B3C6F85F3248B49871801506CE266BC2B243D2688FDA47549B11775038871E12F988C7004EDE7016A9083E2ADC3D5D84BC8B09
310
D33C8D74D471E6BC8D0192EDC93A815B742658898E651BCB59086ADC356A8C3FD555A1055ED7E7E254D615792D0F075295F585746FF53B694EE78A565DD736979A65AB9933AFE69F8CD2A2F038022F28ED489E135A7CE4554F9BBEA85E68DB53CAB255FEC71496F19FA6A0B42F8B3DEE6673C0F318E4497096AD7DC5F52C33
310
EEB55BFE0D504B010214000A0000080000CC70623B3DEE336E79000000790000001B00000000000000000000000000000000006175746F6465736B2D64657369676E2D7061636B6167652E786D6C504B01021400140006080800CC70623BD486FD9CA0000000F40000001300000000000000000000000000B20000005B436F
310
6E74656E745F54797065735D2E786D6C504B01021400140006080800CC70623BD9DDAED0EC0000007C010000080000000000000000000000000083010000636F72652E786D6C504B01021400140006080800CC70623B55019EA25F0000007C000000070000000000000000000000000095020000636E782E786D6C504B0102
310
1400140006080800CC70623BA24EB22D72010000D40300000C00000000000000000000000000190300006662782F636F72652E786D6C504B01021400140006080800CC70623B408A7D3B7C0000009D0000000B00000000000000000000000000B50400006662782F636E782E786D6C504B01021400140006080800CC70623B
310
449FB9BD290100001202000031000000000000000000000000005A0500006662782F36394639363044362D344446342D343946362D394244322D3234314243333846323333332F636F72652E786D6C504B01021400140006080800CC70623BAD7543B64E010000330300003000000000000000000000000000D20600006662
310
782F36394639363044362D344446342D343946362D394244322D3234314243333846323333332F636E782E786D6C504B01021400140006080800CC70623B8D05915C650500003B10000034000000000000000000000000006E0800006662782F36394639363044362D344446342D343946362D394244322D32343142433338
310
46323333332F6F626A656374732E786D6C504B01021400140006080000CC70623B0000000000000000000000003500000000000000000000000000250E00006662782F36394639363044362D344446342D343946362D394244322D3234314243333846323333332F76657274696365732E62696E504B010214001400060808
310
00CC70623BF270F13306000000040000003600000000000000000000000000780E00006662782F36394639363044362D344446342D343946362D394244322D3234314243333846323333332F747269616E676C65732E62696E504B01021400140006080000CC70623B00000000000000000000000037000000000000000000
310
00000000D20E00006662782F36394639363044362D344446342D343946362D394244322D3234314243333846323333332F617474726962757465732E62696E504B01021400140006080800CC70623B08DA0BD190000000410100003600000000000000000000000000270F00006662782F36394639363044362D344446342D
310
343946362D394244322D3234314243333846323333332F6469726563746F72792E786D6C504B01021400140006080800CC70623BCA768048FE000000A00100003B000000000000000000000000000B1000006662782F36394639363044362D344446342D343946362D394244322D3234314243333846323333332F7265736F
310
75726365732F636F72652E786D6C504B0506000000000E000E0080040000621100000000
  0
XRECORD
  5
176
102
{ACAD_REACTORS
330
173
102
}
330
173
100
AcDbXrecord
280
     1
270
     1
271
     1
  0
XRECORD
  5
177
102
{ACAD_REACTORS
330
173
102
}
330
173
100
AcDbXrecord
280
     1
270
     1
271
     1
  0
XRECORD
  5
53E
102
{ACAD_REACTORS
330
53D
102
}
330
53D
100
AcDbXrecord
280
     1
102
DISPLAYNAME
  1
Metric50
102
FLAGS
 90
        0
  0
CELLSTYLEMAP
  5
533
102
{ACAD_REACTORS
330
162
102
}
330
162
100
AcDbCellStyleMap
 90
        3
300
CELLSTYLE
  1
TABLEFORMAT_BEGIN
 90
        5
170
     1
 91
        0
 92
    32768
 62
   257
 93
        1
300
CONTENTFORMAT
  1
CONTENTFORMAT_BEGIN
 90
        0
 91
        0
 92
      512
 93
        0
300

 40
0.0
140
1.0
 94
        5
 62
     0
340
11
144
6.0
309
CONTENTFORMAT_END
171
     1
301
MARGIN
  1
CELLMARGIN_BEGIN
 40
1.5
 40
1.5
 40
1.5
 40
1.5
 40
4.5
 40
4.5
309
CELLMARGIN_END
 94
        6
 95
        1
302
GRIDFORMAT
  1
GRIDFORMAT_BEGIN
 90
        0
 91
        1
 62
     0
 92
       -2
340
14
 93
        0
 40
1.125
309
GRIDFORMAT_END
 95
        2
302
GRIDFORMAT
  1
GRIDFORMAT_BEGIN
 90
        0
 91
        1
 62
     0
 92
       -2
340
14
 93
        0
 40
1.125
309
GRIDFORMAT_END
 95
        4
302
GRIDFORMAT
  1
GRIDFORMAT_BEGIN
 90
        0
 91
        1
 62
     0
 92
       -2
340
14
 93
        0
 40
1.125
309
GRIDFORMAT_END
 95
        8
302
GRIDFORMAT
  1
GRIDFORMAT_BEGIN
 90
        0
 91
        1
 62
     0
 92
       -2
340
14
 93
        0
 40
1.125
309
GRIDFORMAT_END
 95
       16
302
GRIDFORMAT
  1
GRIDFORMAT_BEGIN
 90
        0
 91
        1
 62
     0
 92
       -2
340
14
 93
        0
 40
1.125
309
GRIDFORMAT_END
 95
       32
302
GRIDFORMAT
  1
GRIDFORMAT_BEGIN
 90
        0
 91
        1
 62
     0
 92
       -2
340
14
 93
        0
 40
1.125
309
GRIDFORMAT_END
309
TABLEFORMAT_END
  1
CELLSTYLE_BEGIN
 90
        1
 91
        1
300
_TITLE
309
CELLSTYLE_END
300
CELLSTYLE
  1
TABLEFORMAT_BEGIN
 90
        5
170
     1
 91
        0
 92
        0
 62
   257
 93
        1
300
CONTENTFORMAT
  1
CONTENTFORMAT_BEGIN
 90
        0
 91
        0
 92
      512
 93
        0
300

 40
0.0
140
1.0
 94
        5
 62
     0
340
11
144
4.5
309
CONTENTFORMAT_END
171
     1
301
MARGIN
  1
CELLMARGIN_BEGIN
 40
1.5
 40
1.5
 40
1.5
 40
1.5
 40
4.5
 40
4.5
309
CELLMARGIN_END
 94
        6
 95
        1
302
GRIDFORMAT
  1
GRIDFORMAT_BEGIN
 90
        0
 91
        1
 62
     0
 92
       -2
340
14
 93
        0
 40
1.125
309
GRIDFORMAT_END
 95
        2
302
GRIDFORMAT
  1
GRIDFORMAT_BEGIN
 90
        0
 91
        1
 62
     0
 92
       -2
340
14
 93
        0
 40
1.125
309
GRIDFORMAT_END
 95
        4
302
GRIDFORMAT
  1
GRIDFORMAT_BEGIN
 90
        0
 91
        1
 62
     0
 92
       -2
340
14
 93
        0
 40
1.125
309
GRIDFORMAT_END
 95
        8
302
GRIDFORMAT
  1
GRIDFORMAT_BEGIN
 90
        0
 91
        1
 62
     0
 92
       -2
340
14
 93
        0
 40
1.125
309
GRIDFORMAT_END
 95
       16
302
GRIDFORMAT
  1
GRIDFORMAT_BEGIN
 90
        0
 91
        1
 62
     0
 92
       -2
340
14
 93
        0
 40
1.125
309
GRIDFORMAT_END
 95
       32
302
GRIDFORMAT
  1
GRIDFORMAT_BEGIN
 90
        0
 91
        1
 62
     0
 92
       -2
340
14
 93
        0
 40
1.125
309
GRIDFORMAT_END
309
TABLEFORMAT_END
  1
CELLSTYLE_BEGIN
 90
        2
 91
        1
300
_HEADER
309
CELLSTYLE_END
300
CELLSTYLE
  1
TABLEFORMAT_BEGIN
 90
        5
170
     1
 91
        0
 92
        0
 62
   257
 93
        1
300
CONTENTFORMAT
  1
CONTENTFORMAT_BEGIN
 90
        0
 91
        0
 92
      512
 93
        0
300

 40
0.0
140
1.0
 94
        2
 62
     0
340
11
144
4.5
309
CONTENTFORMAT_END
171
     1
301
MARGIN
  1
CELLMARGIN_BEGIN
 40
1.5
 40
1.5
 40
1.5
 40
1.5
 40
4.5
 40
4.5
309
CELLMARGIN_END
 94
        6
 95
        1
302
GRIDFORMAT
  1
GRIDFORMAT_BEGIN
 90
        0
 91
        1
 62
     0
 92
       -2
340
14
 93
        0
 40
1.125
309
GRIDFORMAT_END
 95
        2
302
GRIDFORMAT
  1
GRIDFORMAT_BEGIN
 90
        0
 91
        1
 62
     0
 92
       -2
340
14
 93
        0
 40
1.125
309
GRIDFORMAT_END
 95
        4
302
GRIDFORMAT
  1
GRIDFORMAT_BEGIN
 90
        0
 91
        1
 62
     0
 92
       -2
340
14
 93
        0
 40
1.125
309
GRIDFORMAT_END
 95
        8
302
GRIDFORMAT
  1
GRIDFORMAT_BEGIN
 90
        0
 91
        1
 62
     0
 92
       -2
340
14
 93
        0
 40
1.125
309
GRIDFORMAT_END
 95
       16
302
GRIDFORMAT
  1
GRIDFORMAT_BEGIN
 90
        0
 91
        1
 62
     0
 92
       -2
340
14
 93
        0
 40
1.125
309
GRIDFORMAT_END
 95
       32
302
GRIDFORMAT
  1
GRIDFORMAT_BEGIN
 90
        0
 91
        1
 62
     0
 92
       -2
340
14
 93
        0
 40
1.125
309
GRIDFORMAT_END
309
TABLEFORMAT_END
  1
CELLSTYLE_BEGIN
 90
        3
 91
        2
300
_DATA
309
CELLSTYLE_END
  0
ENDSEC
  0
SECTION
  2
ACDSDATA
 70
     2
 71
     8
  0
ACDSSCHEMA
 90
        0
  1
AcDb_Thumbnail_Schema
  2
AcDbDs::ID
280
    10
 91
        8
  2
Thumbnail_Data
280
    15
 91
        0
101
ACDSRECORD
 95
        0
 90
        1
  2
AcDbDs::TreatedAsObjectData
280
     1
291
     1
101
ACDSRECORD
 95
        0
 90
        2
  2
AcDbDs::Legacy
280
     1
291
     1
101
ACDSRECORD
  1
AcDbDs::ID
 90
        3
  2
AcDs:Indexable
280
     1
291
     1
101
ACDSRECORD
  1
AcDbDs::ID
 90
        4
  2
AcDbDs::HandleAttribute
280
     7
282
     1
  0
ACDSSCHEMA
 90
        1
  1
AcDbDs::TreatedAsObjectDataSchema
  2
AcDbDs::TreatedAsObjectData
280
     1
 91
        0
  0
ACDSSCHEMA
 90
        2
  1
AcDbDs::LegacySchema
  2
AcDbDs::Legacy
280
     1
 91
        0
  0
ACDSSCHEMA
 90
        3
  1
AcDbDs::IndexedPropertySchema
  2
AcDs:Indexable
280
     1
 91
        0
  0
ACDSSCHEMA
 90
        4
  1
AcDbDs::HandleAttributeSchema
  2
AcDbDs::HandleAttribute
280
     7
 91
        1
284
     1
  0
ACDSRECORD
 90
        0
  2
AcDbDs::ID
280
    10
320
22
  2
Thumbnail_Data
280
    15
 94
      896
310
89504E470D0A1A0A0000000D49484452000001000000009108030000001BE1960600000300504C5445212830FFFFFF2128300000000000000000000000000000000000000000000000000000330000660000990000CC0000FF0033000033330033660033990033CC0033FF0066000066330066660066990066CC0066FF0099
310
000099330099660099990099CC0099FF00CC0000CC3300CC6600CC9900CCCC00CCFF00FF0000FF3300FF6600FF9900FFCC00FFFF3300003300333300663300993300CC3300FF3333003333333333663333993333CC3333FF3366003366333366663366993366CC3366FF3399003399333399663399993399CC3399FF33CC00
310
33CC3333CC6633CC9933CCCC33CCFF33FF0033FF3333FF6633FF9933FFCC33FFFF6600006600336600666600996600CC6600FF6633006633336633666633996633CC6633FF6666006666336666666666996666CC6666FF6699006699336699666699996699CC6699FF66CC0066CC3366CC6666CC9966CCCC66CCFF66FF0066
310
FF3366FF6666FF9966FFCC66FFFF9900009900339900669900999900CC9900FF9933009933339933669933999933CC9933FF9966009966339966669966999966CC9966FF9999009999339999669999999999CC9999FF99CC0099CC3399CC6699CC9999CCCC99CCFF99FF0099FF3399FF6699FF9999FFCC99FFFFCC0000CC00
310
33CC0066CC0099CC00CCCC00FFCC3300CC3333CC3366CC3399CC33CCCC33FFCC6600CC6633CC6666CC6699CC66CCCC66FFCC9900CC9933CC9966CC9999CC99CCCC99FFCCCC00CCCC33CCCC66CCCC99CCCCCCCCCCFFCCFF00CCFF33CCFF66CCFF99CCFFCCCCFFFFFF0000FF0033FF0066FF0099FF00CCFF00FFFF3300FF3333
310
FF3366FF3399FF33CCFF33FFFF6600FF6633FF6666FF6699FF66CCFF66FFFF9900FF9933FF9966FF9999FF99CCFF99FFFFCC00FFCC33FFCC66FFCC99FFCCCCFFCCFFFFFF00FFFF33FFFF66FFFF99FFFFCCFFFFFF0000000D0D0D1A1A1A2828283535354343435050505D5D5D6B6B6B787878868686939393A1A1A1AEAEAEBB
310
BBBBC9C9C9D6D6D6E4E4E4F1F1F1FFFFFF0000000000000000000000000000000000000000000000000000000000002E4550F10000003B4944415478DAEDC13101000000C2A0F54F6D0B2FA0000000000000000000000000000000000000000000000000000000000000000000000000CE06919100016C9A5B1B0000000049
310
454E44AE426082
  0
ENDSEC
  0
EOF
