  0
SECTION
  2
HEADER
  9
$ACADVER
  1
AC1032
  9
$ACADMAINTVER
 90
      199
  9
$DWGCODEPAGE
  3
ANSI_1252
  9
$LASTSAVEDBY
  1
ufficio.tecnico
  9
$REQUIREDVERSIONS
160
                 0
  9
$INSBASE
 10
0.0
 20
0.0
 30
0.0
  9
$EXTMIN
 10
-56.09179494667037
 20
-75.46291150186475
 30
0.0
  9
$EXTMAX
 10
109.0738310121696
 20
-23.02565141413235
 30
0.0
  9
$LIMMIN
 10
0.0
 20
0.0
  9
$LIMMAX
 10
12.0
 20
9.0
  9
$ORTHOMODE
 70
     0
  9
$REGENMODE
 70
     1
  9
$FILLMODE
 70
     1
  9
$QTEXTMODE
 70
     0
  9
$MIRRTEXT
 70
     0
  9
$LTSCALE
 40
1.0
  9
$ATTMODE
 70
     1
  9
$TEXTSIZE
 40
0.2
  9
$TRACEWID
 40
0.05
  9
$TEXTSTYLE
  7
Standard
  9
$CLAYER
  8
0
  9
$CELTYPE
  6
ByLayer
  9
$CECOLOR
 62
   256
  9
$CELTSCALE
 40
1.0
  9
$DISPSILH
 70
     0
  9
$DIMSCALE
 40
1.0
  9
$DIMASZ
 40
0.18
  9
$DIMEXO
 40
0.0625
  9
$DIMDLI
 40
0.38
  9
$DIMRND
 40
0.0
  9
$DIMDLE
 40
0.0
  9
$DIMEXE
 40
0.18
  9
$DIMTP
 40
0.0
  9
$DIMTM
 40
0.0
  9
$DIMTXT
 40
0.18
  9
$DIMCEN
 40
0.09
  9
$DIMTSZ
 40
0.0
  9
$DIMTOL
 70
     0
  9
$DIMLIM
 70
     0
  9
$DIMTIH
 70
     1
  9
$DIMTOH
 70
     1
  9
$DIMSE1
 70
     0
  9
$DIMSE2
 70
     0
  9
$DIMTAD
 70
     0
  9
$DIMZIN
 70
     0
  9
$DIMBLK
  1

  9
$DIMASO
 70
     1
  9
$DIMSHO
 70
     1
  9
$DIMPOST
  1

  9
$DIMAPOST
  1

  9
$DIMALT
 70
     0
  9
$DIMALTD
 70
     2
  9
$DIMALTF
 40
25.4
  9
$DIMLFAC
 40
1.0
  9
$DIMTOFL
 70
     0
  9
$DIMTVP
 40
0.0
  9
$DIMTIX
 70
     0
  9
$DIMSOXD
 70
     0
  9
$DIMSAH
 70
     0
  9
$DIMBLK1
  1

  9
$DIMBLK2
  1

  9
$DIMSTYLE
  2
Standard
  9
$DIMCLRD
 70
     0
  9
$DIMCLRE
 70
     0
  9
$DIMCLRT
 70
     0
  9
$DIMTFAC
 40
1.0
  9
$DIMGAP
 40
0.09
  9
$DIMJUST
 70
     0
  9
$DIMSD1
 70
     0
  9
$DIMSD2
 70
     0
  9
$DIMTOLJ
 70
     1
  9
$DIMTZIN
 70
     0
  9
$DIMALTZ
 70
     0
  9
$DIMALTTZ
 70
     0
  9
$DIMUPT
 70
     0
  9
$DIMDEC
 70
     4
  9
$DIMTDEC
 70
     4
  9
$DIMALTU
 70
     2
  9
$DIMALTTD
 70
     2
  9
$DIMTXSTY
  7
Standard
  9
$DIMAUNIT
 70
     0
  9
$DIMADEC
 70
     0
  9
$DIMALTRND
 40
0.0
  9
$DIMAZIN
 70
     0
  9
$DIMDSEP
 70
    46
  9
$DIMATFIT
 70
     3
  9
$DIMFRAC
 70
     0
  9
$DIMLDRBLK
  1

  9
$DIMLUNIT
 70
     2
  9
$DIMLWD
 70
    -2
  9
$DIMLWE
 70
    -2
  9
$DIMTMOVE
 70
     0
  9
$DIMFXL
 40
1.0
  9
$DIMFXLON
 70
     0
  9
$DIMJOGANG
 40
0.7853981633974483
  9
$DIMTFILL
 70
     0
  9
$DIMTFILLCLR
 70
     0
  9
$DIMARCSYM
 70
     0
  9
$DIMLTYPE
  6

  9
$DIMLTEX1
  6

  9
$DIMLTEX2
  6

  9
$DIMTXTDIRECTION
 70
     0
  9
$LUNITS
 70
     2
  9
$LUPREC
 70
     4
  9
$SKETCHINC
 40
0.1
  9
$FILLETRAD
 40
0.0
  9
$AUNITS
 70
     0
  9
$AUPREC
 70
     0
  9
$MENU
  1
.
  9
$ELEVATION
 40
0.0
  9
$PELEVATION
 40
0.0
  9
$THICKNESS
 40
0.0
  9
$LIMCHECK
 70
     0
  9
$CHAMFERA
 40
0.0
  9
$CHAMFERB
 40
0.0
  9
$CHAMFERC
 40
0.0
  9
$CHAMFERD
 40
0.0
  9
$SKPOLY
 70
     0
  9
$TDCREATE
 40
2460266.487766204
  9
$TDUCREATE
 40
2460266.446099537
  9
$TDUPDATE
 40
2460266.584062500
  9
$TDUUPDATE
 40
2460266.542395834
  9
$TDINDWG
 40
0.0961689815
  9
$TDUSRTIMER
 40
0.0961689815
  9
$USRTIMER
 70
     1
  9
$ANGBASE
 50
0.0
  9
$ANGDIR
 70
     0
  9
$PDMODE
 70
     0
  9
$PDSIZE
 40
0.0
  9
$PLINEWID
 40
0.0
  9
$SPLFRAME
 70
     0
  9
$SPLINETYPE
 70
     6
  9
$SPLINESEGS
 70
     8
  9
$HANDSEED
  5
311
  9
$SURFTAB1
 70
     6
  9
$SURFTAB2
 70
     6
  9
$SURFTYPE
 70
     6
  9
$SURFU
 70
     6
  9
$SURFV
 70
     6
  9
$UCSBASE
  2

  9
$UCSNAME
  2

  9
$UCSORG
 10
0.0
 20
0.0
 30
0.0
  9
$UCSXDIR
 10
1.0
 20
0.0
 30
0.0
  9
$UCSYDIR
 10
0.0
 20
1.0
 30
0.0
  9
$UCSORTHOREF
  2

  9
$UCSORTHOVIEW
 70
     0
  9
$UCSORGTOP
 10
0.0
 20
0.0
 30
0.0
  9
$UCSORGBOTTOM
 10
0.0
 20
0.0
 30
0.0
  9
$UCSORGLEFT
 10
0.0
 20
0.0
 30
0.0
  9
$UCSORGRIGHT
 10
0.0
 20
0.0
 30
0.0
  9
$UCSORGFRONT
 10
0.0
 20
0.0
 30
0.0
  9
$UCSORGBACK
 10
0.0
 20
0.0
 30
0.0
  9
$PUCSBASE
  2

  9
$PUCSNAME
  2

  9
$PUCSORG
 10
0.0
 20
0.0
 30
0.0
  9
$PUCSXDIR
 10
1.0
 20
0.0
 30
0.0
  9
$PUCSYDIR
 10
0.0
 20
1.0
 30
0.0
  9
$PUCSORTHOREF
  2

  9
$PUCSORTHOVIEW
 70
     0
  9
$PUCSORGTOP
 10
0.0
 20
0.0
 30
0.0
  9
$PUCSORGBOTTOM
 10
0.0
 20
0.0
 30
0.0
  9
$PUCSORGLEFT
 10
0.0
 20
0.0
 30
0.0
  9
$PUCSORGRIGHT
 10
0.0
 20
0.0
 30
0.0
  9
$PUCSORGFRONT
 10
0.0
 20
0.0
 30
0.0
  9
$PUCSORGBACK
 10
0.0
 20
0.0
 30
0.0
  9
$USERI1
 70
     0
  9
$USERI2
 70
     0
  9
$USERI3
 70
     0
  9
$USERI4
 70
     0
  9
$USERI5
 70
     0
  9
$USERR1
 40
0.0
  9
$USERR2
 40
0.0
  9
$USERR3
 40
0.0
  9
$USERR4
 40
0.0
  9
$USERR5
 40
0.0
  9
$WORLDVIEW
 70
     1
  9
$SHADEDGE
 70
     3
  9
$SHADEDIF
 70
    70
  9
$TILEMODE
 70
     1
  9
$MAXACTVP
 70
    64
  9
$PINSBASE
 10
0.0
 20
0.0
 30
0.0
  9
$PLIMCHECK
 70
     0
  9
$PEXTMIN
 10
1.000000000000000E+20
 20
1.000000000000000E+20
 30
1.000000000000000E+20
  9
$PEXTMAX
 10
-1.000000000000000E+20
 20
-1.000000000000000E+20
 30
-1.000000000000000E+20
  9
$PLIMMIN
 10
0.0
 20
0.0
  9
$PLIMMAX
 10
12.0
 20
9.0
  9
$UNITMODE
 70
     0
  9
$VISRETAIN
 70
     1
  9
$PLINEGEN
 70
     0
  9
$PSLTSCALE
 70
     1
  9
$TREEDEPTH
 70
  3020
  9
$CMLSTYLE
  2
Standard
  9
$CMLJUST
 70
     0
  9
$CMLSCALE
 40
1.0
  9
$PROXYGRAPHICS
 70
     1
  9
$MEASUREMENT
 70
     0
  9
$CELWEIGHT
370
    -1
  9
$ENDCAPS
280
     0
  9
$JOINSTYLE
280
     0
  9
$LWDISPLAY
290
     1
  9
$INSUNITS
 70
     4
  9
$HYPERLINKBASE
  1

  9
$STYLESHEET
  1

  9
$XEDIT
290
     1
  9
$CEPSNTYPE
380
     0
  9
$PSTYLEMODE
290
     1
  9
$FINGERPRINTGUID
  2
{493BCA97-E7EB-7C47-99BF-B5BCB39079B1}
  9
$VERSIONGUID
  2
{2B503190-7228-2143-BC05-B30AB3AA1DD3}
  9
$EXTNAMES
290
     1
  9
$PSVPSCALE
 40
0.0
  9
$OLESTARTUP
290
     0
  9
$SORTENTS
280
   127
  9
$INDEXCTL
280
     0
  9
$HIDETEXT
280
     1
  9
$XCLIPFRAME
280
     2
  9
$HALOGAP
280
     0
  9
$OBSCOLOR
 70
   257
  9
$OBSLTYPE
280
     0
  9
$INTERSECTIONDISPLAY
280
     0
  9
$INTERSECTIONCOLOR
 70
   257
  9
$DIMASSOC
280
     2
  9
$PROJECTNAME
  1

  9
$CAMERADISPLAY
290
     0
  9
$LENSLENGTH
 40
50.0
  9
$CAMERAHEIGHT
 40
0.0
  9
$STEPSPERSEC
 40
2.0
  9
$STEPSIZE
 40
6.0
  9
$3DDWFPREC
 40
2.0
  9
$PSOLWIDTH
 40
0.25
  9
$PSOLHEIGHT
 40
4.0
  9
$LOFTANG1
 40
1.570796326794896
  9
$LOFTANG2
 40
1.570796326794896
  9
$LOFTMAG1
 40
0.0
  9
$LOFTMAG2
 40
0.0
  9
$LOFTPARAM
 70
     7
  9
$LOFTNORMALS
280
     1
  9
$LATITUDE
 40
37.795
  9
$LONGITUDE
 40
-122.394
  9
$NORTHDIRECTION
 40
0.0
  9
$TIMEZONE
 70
 -8000
  9
$LIGHTGLYPHDISPLAY
280
     1
  9
$TILEMODELIGHTSYNCH
280
     1
  9
$CMATERIAL
347
11
  9
$SOLIDHIST
280
     0
  9
$SHOWHIST
280
     1
  9
$DWFFRAME
280
     2
  9
$DGNFRAME
280
     0
  9
$REALWORLDSCALE
290
     1
  9
$INTERFERECOLOR
 62
     1
  9
$INTERFEREOBJVS
345
33
  9
$INTERFEREVPVS
346
30
  9
$CSHADOW
280
     0
  9
$SHADOWPLANELOCATION
 40
0.0
  0
ENDSEC
  0
SECTION
  2
CLASSES
  0
CLASS
  1
ACDBDICTIONARYWDFLT
  2
AcDbDictionaryWithDefault
  3
ObjectDBX Classes
 90
        0
 91
        1
280
     0
281
     0
  0
CLASS
  1
MATERIAL
  2
AcDbMaterial
  3
ObjectDBX Classes
 90
     1153
 91
        3
280
     0
281
     0
  0
CLASS
  1
VISUALSTYLE
  2
AcDbVisualStyle
  3
ObjectDBX Classes
 90
     4095
 91
       24
280
     0
281
     0
  0
CLASS
  1
SCALE
  2
AcDbScale
  3
ObjectDBX Classes
 90
     1153
 91
       17
280
     0
281
     0
  0
CLASS
  1
TABLESTYLE
  2
AcDbTableStyle
  3
ObjectDBX Classes
 90
     4095
 91
        1
280
     0
281
     0
  0
CLASS
  1
MLEADERSTYLE
  2
AcDbMLeaderStyle
  3
ACDB_MLEADERSTYLE_CLASS
 90
     4095
 91
        1
280
     0
281
     0
  0
CLASS
  1
ACDBSECTIONVIEWSTYLE
  2
AcDbSectionViewStyle
  3
ObjectDBX Classes
 90
     1025
 91
        1
280
     0
281
     0
  0
CLASS
  1
ACDBDETAILVIEWSTYLE
  2
AcDbDetailViewStyle
  3
ObjectDBX Classes
 90
     1025
 91
        1
280
     0
281
     0
  0
CLASS
  1
DICTIONARYVAR
  2
AcDbDictionaryVar
  3
ObjectDBX Classes
 90
        0
 91
        5
280
     0
281
     0
  0
CLASS
  1
EXACXREFPANELOBJECT
  2
ExAcXREFPanelObject
  3
EXAC_ESW
 90
     1025
 91
        1
280
     0
281
     0
  0
CLASS
  1
NPOCOLLECTION
  2
AcDbImpNonPersistentObjectsCollection
  3
ObjectDBX Classes
 90
     1153
 91
        1
280
     0
281
     0
  0
CLASS
  1
SORTENTSTABLE
  2
AcDbSortentsTable
  3
ObjectDBX Classes
 90
        0
 91
        4
280
     0
281
     0
  0
CLASS
  1
CELLSTYLEMAP
  2
AcDbCellStyleMap
  3
ObjectDBX Classes
 90
     1152
 91
        4
280
     0
281
     0
  0
ENDSEC
  0
SECTION
  2
TABLES
  0
TABLE
  2
VPORT
  5
8
330
0
100
AcDbSymbolTable
 70
     1
  0
VPORT
  5
57
330
8
100
AcDbSymbolTableRecord
100
AcDbViewportTableRecord
  2
*Active
 70
     0
 10
0.0
 20
0.0
 11
1.0
 21
1.0
 12
-20.87654020857156
 22
3.192123434855574
 13
0.0
 23
0.0
 14
1.0
 24
1.0
 15
0.0
 25
0.0
 16
0.0
 26
0.0
 36
1.0
 17
37.4999999906338
 27
-24.99999999375587
 37
0.0
 40
208.9547008521795
 41
2.246006389776357
 42
50.0
 43
0.0
 44
0.0
 50
0.0
 51
0.0
 71
     0
 72
   100
 73
     1
 74
     1
 75
     0
 76
     0
 77
     0
 78
     0
281
     0
 65
     1
110
0.0
120
0.0
130
0.0
111
1.0
121
0.0
131
0.0
112
0.0
122
1.0
132
0.0
 79
     0
146
0.0
348
2F
 60
     3
 61
     5
292
     1
282
     1
141
0.0
142
0.0
 63
   250
421
  3355443
1001
ACAD_NAV_VCDISPLAY
1070
     3
  0
ENDTAB
  0
TABLE
  2
LTYPE
  5
5
330
0
100
AcDbSymbolTable
 70
     3
  0
LTYPE
  5
5B
330
5
100
AcDbSymbolTableRecord
100
AcDbLinetypeTableRecord
  2
ByBlock
 70
     0
  3

 72
    65
 73
     0
 40
0.0
  0
LTYPE
  5
5C
330
5
100
AcDbSymbolTableRecord
100
AcDbLinetypeTableRecord
  2
ByLayer
 70
     0
  3

 72
    65
 73
     0
 40
0.0
  0
LTYPE
  5
5D
330
5
100
AcDbSymbolTableRecord
100
AcDbLinetypeTableRecord
  2
Continuous
 70
     0
  3
Solid line
 72
    65
 73
     0
 40
0.0
  0
ENDTAB
  0
TABLE
  2
LAYER
  5
2
102
{ACAD_XDICTIONARY
360
2F1
102
}
330
0
100
AcDbSymbolTable
 70
     3
  0
LAYER
  5
54
330
2
100
AcDbSymbolTableRecord
100
AcDbLayerTableRecord
  2
0
 70
     0
 62
     7
  6
Continuous
370
    -3
390
F
347
21
348
0
  0
LAYER
  5
78
330
2
100
AcDbSymbolTableRecord
100
AcDbLayerTableRecord
  2
Livello 1
 70
     0
 62
     7
  6
Continuous
370
     0
390
F
347
21
348
0
  0
LAYER
  5
2D3
330
2
100
AcDbSymbolTableRecord
100
AcDbLayerTableRecord
  2
Livello 2
 70
     0
 62
     7
  6
Continuous
370
     0
390
F
347
21
348
0
  0
ENDTAB
  0
TABLE
  2
STYLE
  5
3
330
0
100
AcDbSymbolTable
 70
     2
  0
STYLE
  5
55
330
3
100
AcDbSymbolTableRecord
100
AcDbTextStyleTableRecord
  2
Standard
 70
     0
 40
0.0
 41
1.0
 50
0.0
 71
     0
 42
0.2
  3
txt
  4

  0
STYLE
  5
5A
330
3
100
AcDbSymbolTableRecord
100
AcDbTextStyleTableRecord
  2
Annotative
 70
     0
 40
0.0
 41
1.0
 50
0.0
 71
     0
 42
0.2
  3
txt
  4

1001
AcadAnnotative
1000
AnnotativeData
1002
{
1070
     1
1070
     1
1002
}
  0
ENDTAB
  0
TABLE
  2
VIEW
  5
6
330
0
100
AcDbSymbolTable
 70
     3
  0
ENDTAB
  0
TABLE
  2
UCS
  5
7
330
0
100
AcDbSymbolTable
 70
     0
  0
ENDTAB
  0
TABLE
  2
APPID
  5
9
330
0
100
AcDbSymbolTable
 70
     4
  0
APPID
  5
56
330
9
100
AcDbSymbolTableRecord
100
AcDbRegAppTableRecord
  2
ACAD
 70
     0
  0
APPID
  5
5E
330
9
100
AcDbSymbolTableRecord
100
AcDbRegAppTableRecord
  2
AcadAnnotative
 70
     0
  0
APPID
  5
2C9
330
9
100
AcDbSymbolTableRecord
100
AcDbRegAppTableRecord
  2
ACAD_EXEMPT_FROM_CAD_STANDARDS
 70
     0
  0
APPID
  5
2D4
330
9
100
AcDbSymbolTableRecord
100
AcDbRegAppTableRecord
  2
ACAD_NAV_VCDISPLAY
 70
     0
  0
ENDTAB
  0
TABLE
  2
DIMSTYLE
  5
A
330
0
100
AcDbSymbolTable
 70
     3
100
AcDbDimStyleTable
 71
     1
340
58
  0
DIMSTYLE
105
58
330
A
100
AcDbSymbolTableRecord
100
AcDbDimStyleTableRecord
  2
Standard
 70
     0
340
55
  0
DIMSTYLE
105
59
330
A
100
AcDbSymbolTableRecord
100
AcDbDimStyleTableRecord
  2
Annotative
 70
     0
340
55
1001
AcadAnnotative
1000
AnnotativeData
1002
{
1070
     1
1070
     1
1002
}
  0
ENDTAB
  0
TABLE
  2
BLOCK_RECORD
  5
1
330
0
100
AcDbSymbolTable
 70
     6
  0
BLOCK_RECORD
  5
70
102
{ACAD_XDICTIONARY
360
1C1
102
}
330
1
100
AcDbSymbolTableRecord
100
AcDbBlockTableRecord
  2
*Model_Space
340
73
 70
     0
280
     1
281
     0
  0
BLOCK_RECORD
  5
6C
330
1
100
AcDbSymbolTableRecord
100
AcDbBlockTableRecord
  2
*Paper_Space
340
6F
 70
     0
280
     1
281
     0
  0
BLOCK_RECORD
  5
74
330
1
100
AcDbSymbolTableRecord
100
AcDbBlockTableRecord
  2
*Paper_Space0
340
77
 70
     0
280
     1
281
     0
  0
BLOCK_RECORD
  5
83
330
1
100
AcDbSymbolTableRecord
100
AcDbBlockTableRecord
  2
Block_0
340
0
 70
     0
280
     1
281
     0
  0
ENDTAB
  0
ENDSEC
  0
SECTION
  2
BLOCKS
  0
BLOCK
  5
71
330
70
100
AcDbEntity
  8
0
100
AcDbBlockBegin
  2
*Model_Space
 70
     0
 10
0.0
 20
0.0
 30
0.0
  3
*Model_Space
  1

  0
ENDBLK
  5
72
330
70
100
AcDbEntity
  8
0
100
AcDbBlockEnd
  0
BLOCK
  5
6D
330
6C
100
AcDbEntity
 67
     1
  8
0
100
AcDbBlockBegin
  2
*Paper_Space
 70
     0
 10
0.0
 20
0.0
 30
0.0
  3
*Paper_Space
  1

  0
ENDBLK
  5
6E
330
6C
100
AcDbEntity
 67
     1
  8
0
100
AcDbBlockEnd
  0
BLOCK
  5
75
330
74
100
AcDbEntity
 67
     1
  8
0
100
AcDbBlockBegin
  2
*Paper_Space0
 70
     0
 10
0.0
 20
0.0
 30
0.0
  3
*Paper_Space0
  1

  0
ENDBLK
  5
76
330
74
100
AcDbEntity
 67
     1
  8
0
100
AcDbBlockEnd
  0
BLOCK
  5
85
330
83
100
AcDbEntity
  8
0
100
AcDbBlockBegin
  2
Block_0
 70
     0
 10
0.0
 20
0.0
 30
0.0
  3
Block_0
  1

  0
LINE
  5
87
330
83
100
AcDbEntity
  8
Livello 1
 62
    18
420
    65793
370
     9
100
AcDbLine
 10
15.14133184427948
 20
-27.03473624294285
 30
0.0
 11
15.31827294293038
 21
-26.85605757473962
 31
0.0
  0
LINE
  5
88
330
83
100
AcDbEntity
  8
Livello 1
 62
    18
420
    65793
370
     9
100
AcDbLine
 10
15.40403794027042
 20
-26.94098854611863
 30
0.0
 11
15.45344043205433
 21
-26.86251213101636
 31
0.0
  0
LWPOLYLINE
  5
89
330
83
100
AcDbEntity
  8
Livello 1
 62
    18
420
    65793
370
     9
100
AcDbPolyline
 90
        3
 70
     0
 43
0.0
 10
19.85532893527693
 20
-23.78971326959175
 10
19.86386855203863
 20
-24.08128479787615
 10
19.87707138249762
 20
-26.78399811414008
  0
LINE
  5
8A
330
83
100
AcDbEntity
  8
Livello 1
 62
    18
420
    65793
370
     9
100
AcDbLine
 10
15.61448924924004
 20
-26.34250740777992
 30
0.0
 11
15.45010429285675
 21
-26.17972102104059
 31
0.0
  0
LINE
  5
8B
330
83
100
AcDbEntity
  8
Livello 1
 62
    18
420
    65793
370
     9
100
AcDbLine
 10
19.58513026586851
 20
-23.8052571159662
 30
0.0
 11
19.58485044843893
 21
-23.74835846856463
 31
0.0
  0
LINE
  5
8C
330
83
100
AcDbEntity
  8
Livello 1
 62
    18
420
    65793
370
     9
100
AcDbLine
 10
19.58853499621257
 20
-24.50227153783846
 30
0.0
 11
19.58978424847325
 21
-24.75832002169359
 31
0.0
  0
LINE
  5
8D
330
83
100
AcDbEntity
  8
Livello 1
 62
    18
420
    65793
370
     9
100
AcDbLine
 10
19.56440406867116
 20
-26.84242583123287
 30
0.0
 11
19.56432533762426
 21
-25.37012273711384
 31
0.0
  0
LINE
  5
8E
330
83
100
AcDbEntity
  8
Livello 1
 62
    18
420
    65793
370
     9
100
AcDbLine
 10
19.55010112575802
 20
-25.37019223706786
 30
0.0
 11
19.54316007864189
 21
-25.40579205190511
 31
0.0
  0
LINE
  5
8F
330
83
100
AcDbEntity
  8
Livello 1
 62
    18
420
    65793
370
     9
100
AcDbLine
 10
19.51471074610283
 20
-25.40593015184438
 30
0.0
 11
19.51457083738787
 21
-25.37748082814375
 31
0.0
  0
LINE
  5
90
330
83
100
AcDbEntity
  8
Livello 1
 62
    18
420
    65793
370
     9
100
AcDbLine
 10
19.24097575992137
 20
-26.15408823492866
 30
0.0
 11
19.07111561710252
 21
-26.32561641199494
 31
0.0
  0
LINE
  5
91
330
83
100
AcDbEntity
  8
Livello 1
 62
    18
420
    65793
370
     9
100
AcDbLine
 10
19.82045253485036
 20
-26.84117296141984
 30
0.0
 11
14.88444934330144
 21
-26.86529133526081
 31
0.0
  0
LINE
  5
92
330
83
100
AcDbEntity
  8
Livello 1
 62
    18
420
    65793
370
     9
100
AcDbLine
 10
15.68484759133799
 20
-26.1856881423195
 30
0.0
 11
15.62774042639876
 21
-26.14329170659995
 31
0.0
  0
LINE
  5
93
330
83
100
AcDbEntity
  8
Livello 1
 62
    18
420
    65793
370
     9
100
AcDbLine
 10
15.13680043073804
 20
-24.65205014914911
 30
0.0
 11
15.10800268962292
 21
-24.58106628978903
 31
0.0
  0
LINE
  5
94
330
83
100
AcDbEntity
  8
Livello 1
 62
    18
420
    65793
370
     9
100
AcDbLine
 10
19.26061285802103
 20
-25.8054726888498
 30
0.0
 11
19.25499416299474
 21
-26.11134156418112
 31
0.0
  0
LINE
  5
95
330
83
100
AcDbEntity
  8
Livello 1
 62
    18
420
    65793
370
     9
100
AcDbLine
 10
19.56743923718358
 20
-24.55216506449662
 30
0.0
 11
19.53940872198246
 21
-24.63765023556896
 31
0.0
  0
LINE
  5
96
330
83
100
AcDbEntity
  8
Livello 1
 62
    18
420
    65793
370
     9
100
AcDbLine
 10
18.99922460543821
 20
-26.16949218142724
 30
0.0
 11
19.07014167358938
 21
-26.12646931080053
 31
0.0
  0
LINE
  5
97
330
83
100
AcDbEntity
  8
Livello 1
 62
    18
420
    65793
370
     9
100
AcDbLine
 10
16.18271580314716
 20
-26.18325463790664
 30
0.0
 11
16.06815215588508
 21
-26.02733890719941
 31
0.0
  0
LINE
  5
98
330
83
100
AcDbEntity
  8
Livello 1
 62
    18
420
    65793
370
     9
100
AcDbLine
 10
15.7320999871766
 20
-25.66623671880824
 30
0.0
 11
15.69629439005955
 21
-25.61662392722373
 31
0.0
  0
LINE
  5
99
330
83
100
AcDbEntity
  8
Livello 1
 62
    18
420
    65793
370
     9
100
AcDbLine
 10
15.76020000233141
 20
-25.5949757596015
 30
0.0
 11
15.7960055994491
 21
-25.64458855118472
 31
0.0
  0
LINE
  5
9A
330
83
100
AcDbEntity
  8
Livello 1
 62
    18
420
    65793
370
     9
100
AcDbLine
 10
19.07111561710252
 20
-26.32561641199494
 30
0.0
 11
19.07215455188828
 21
-26.53899046031378
 31
0.0
  0
LINE
  5
9B
330
83
100
AcDbEntity
  8
Livello 1
 62
    18
420
    65793
370
     9
100
AcDbLine
 10
19.01025349562872
 20
-25.51508179516653
 30
0.0
 11
19.00969476957678
 21
-25.40128540033219
 31
0.0
  0
LINE
  5
9C
330
83
100
AcDbEntity
  8
Livello 1
 62
    18
420
    65793
370
     9
100
AcDbLine
 10
18.94690300953366
 20
-25.65052999285073
 30
0.0
 11
18.98221938055279
 21
-25.60057060146649
 31
0.0
  0
LINE
  5
9D
330
83
100
AcDbEntity
  8
Livello 1
 62
    18
420
    65793
370
     9
100
AcDbLine
 10
18.91810435961131
 20
-25.57954523352251
 30
0.0
 11
18.8827843887164
 21
-25.62950826013373
 31
0.0
  0
LINE
  5
9E
330
83
100
AcDbEntity
  8
Livello 1
 62
    18
420
    65793
370
     9
100
AcDbLine
 10
18.50135639362936
 20
-26.17192568583883
 30
0.0
 11
18.61439188000808
 21
-26.01489518525847
 31
0.0
  0
LINE
  5
9F
330
83
100
AcDbEntity
  8
Livello 1
 62
    18
420
    65793
370
     9
100
AcDbLine
 10
17.13758306079798
 20
-26.54844374288968
 30
0.0
 11
17.99107103946127
 21
-26.54427266892544
 31
0.0
  0
LINE
  5
A0
330
83
100
AcDbEntity
  8
Livello 1
 62
    18
420
    65793
370
     9
100
AcDbLine
 10
19.07215455188828
 20
-26.53899046031378
 30
0.0
 11
18.2897930500445
 21
-26.54281219922009
 31
0.0
  0
LINE
  5
A1
330
83
100
AcDbEntity
  8
Livello 1
 62
    18
420
    65793
370
     9
100
AcDbLine
 10
16.34099643828202
 20
-26.55233408178091
 30
0.0
 11
15.61553269270817
 21
-26.55587872083991
 31
0.0
  0
LINE
  5
A2
330
83
100
AcDbEntity
  8
Livello 1
 62
    18
420
    65793
370
     9
100
AcDbLine
 10
16.67469001118313
 20
-26.42978862616564
 30
0.0
 11
16.78848552372397
 21
-26.42923442647167
 31
0.0
  0
LINE
  5
A3
330
83
100
AcDbEntity
  8
Livello 1
 62
    18
420
    65793
370
     9
100
AcDbLine
 10
17.99037691337579
 20
-26.40202421513292
 30
0.0
 11
18.29624577987027
 21
-26.4076411013832
 31
0.0
  0
LINE
  5
A4
330
83
100
AcDbEntity
  8
Livello 1
 62
    18
420
    65793
370
     9
100
AcDbLine
 10
16.13906922403529
 20
-25.98431603657398
 30
0.0
 11
16.24648510658081
 21
-26.1331535113568
 31
0.0
  0
LINE
  5
A5
330
83
100
AcDbEntity
  8
Livello 1
 62
    18
420
    65793
370
     9
100
AcDbLine
 10
18.99234473598949
 20
-24.76123822584641
 30
0.0
 11
18.99678098763961
 21
-24.21354961372293
 31
0.0
  0
LINE
  5
A6
330
83
100
AcDbEntity
  8
Livello 1
 62
    18
420
    65793
370
     9
100
AcDbLine
 10
18.931843854062
 20
-25.47990081534122
 30
0.0
 11
18.93212007161484
 21
-25.53680309797073
 31
0.0
  0
LINE
  5
A7
330
83
100
AcDbEntity
  8
Livello 1
 62
    18
420
    65793
370
     9
100
AcDbLine
 10
18.93538580205181
 20
-26.20536909611084
 30
0.0
 11
18.94309138401372
 21
-26.32624284690145
 31
0.0
  0
LINE
  5
A8
330
83
100
AcDbEntity
  8
Livello 1
 62
    18
420
    65793
370
     9
100
AcDbLine
 10
18.93399664107586
 20
-25.92087128855573
 30
0.0
 11
18.93288369765339
 21
-25.69327576362949
 31
0.0
  0
LINE
  5
A9
330
83
100
AcDbEntity
  8
Livello 1
 62
    18
420
    65793
370
     9
100
AcDbLine
 10
18.90610243471327
 20
-26.03480941855631
 30
0.0
 11
18.90659166081119
 21
-26.13438160152442
 31
0.0
  0
LINE
  5
AA
330
83
100
AcDbEntity
  8
Livello 1
 62
    18
420
    65793
370
     9
100
AcDbLine
 10
18.90339183045406
 20
-25.48004345047689
 30
0.0
 11
18.9030461129456
 21
-25.40891695598179
 31
0.0
  0
LINE
  5
AB
330
83
100
AcDbEntity
  8
Livello 1
 62
    18
420
    65793
370
     9
100
AcDbLine
 10
18.85475387351528
 20
-25.71499343120607
 30
0.0
 11
18.85579731698277
 21
-25.92836474426671
 31
0.0
  0
LINE
  5
AC
330
83
100
AcDbEntity
  8
Livello 1
 62
    18
420
    65793
370
     9
100
AcDbLine
 10
18.84649407418316
 20
-25.48032055032356
 30
0.0
 11
18.83899790088991
 21
-25.40212033510045
 31
0.0
  0
LINE
  5
AD
330
83
100
AcDbEntity
  8
Livello 1
 62
    18
420
    65793
370
     9
100
AcDbLine
 10
18.55728471506884
 20
-25.97249874953956
 30
0.0
 11
18.44424922868981
 21
-26.12952925011927
 31
0.0
  0
LINE
  5
AE
330
83
100
AcDbEntity
  8
Livello 1
 62
    18
420
    65793
370
     9
100
AcDbLine
 10
15.64293767297187
 20
-26.34236840787123
 30
0.0
 11
16.22615748227273
 21
-26.33951696841487
 31
0.0
  0
LINE
  5
AF
330
83
100
AcDbEntity
  8
Livello 1
 62
    18
420
    65793
370
     9
100
AcDbLine
 10
17.23611451788088
 20
-26.33458409486242
 30
0.0
 11
17.99002759599314
 21
-26.33090135586416
 31
0.0
  0
LINE
  5
B0
330
83
100
AcDbEntity
  8
Livello 1
 62
    18
420
    65793
370
     9
100
AcDbLine
 10
18.29582696253264
 20
-26.32229403024948
 30
0.0
 11
19.04974004064491
 21
-26.31861129125121
 31
0.0
  0
LINE
  5
B1
330
83
100
AcDbEntity
  8
Livello 1
 62
    18
420
    65793
370
     9
100
AcDbLine
 10
17.98253502257567
 20
-26.25269750541406
 30
0.0
 11
18.29548124502482
 21
-26.25116753575501
 31
0.0
  0
LINE
  5
B2
330
83
100
AcDbEntity
  8
Livello 1
 62
    18
420
    65793
370
     9
100
AcDbLine
 10
16.49601134297991
 20
-26.25284752751507
 30
0.0
 11
16.68093333233993
 21
-26.25194399276189
 31
0.0
  0
LINE
  5
B3
330
83
100
AcDbEntity
  8
Livello 1
 62
    18
420
    65793
370
     9
100
AcDbLine
 10
16.78050463301484
 20
-26.25145929302162
 30
0.0
 11
16.96542662237423
 21
-26.25055575826845
 31
0.0
  0
LINE
  5
B4
330
83
100
AcDbEntity
  8
Livello 1
 62
    18
420
    65793
370
     9
100
AcDbLine
 10
15.74903571210863
 20
-26.2209340869021
 30
0.0
 11
16.11887969082868
 21
-26.21912701739639
 31
0.0
  0
LINE
  5
B5
330
83
100
AcDbEntity
  8
Livello 1
 62
    18
420
    65793
370
     9
100
AcDbLine
 10
18.57261827048049
 20
-26.20002840973844
 30
0.0
 11
18.93538580205181
 21
-26.20536909611084
 31
0.0
  0
LINE
  5
B6
330
83
100
AcDbEntity
  8
Livello 1
 62
    18
420
    65793
370
     9
100
AcDbLine
 10
18.66122276743985
 20
-25.41010122580861
 30
0.0
 11
18.66157117601655
 21
-25.48122318510795
 31
0.0
  0
LINE
  5
B7
330
83
100
AcDbEntity
  8
Livello 1
 62
    18
420
    65793
370
     9
100
AcDbLine
 10
18.64242239520823
 20
-25.92941001418613
 30
0.0
 11
18.64138255161684
 21
-25.71603506589914
 31
0.0
  0
LINE
  5
B8
330
83
100
AcDbEntity
  8
Livello 1
 62
    18
420
    65793
370
     9
100
AcDbLine
 10
18.59717724645304
 20
-25.4033000697315
 30
0.0
 11
18.59759606379035
 21
-25.48864714086523
 31
0.0
  0
LINE
  5
B9
330
83
100
AcDbEntity
  8
Livello 1
 62
    18
420
    65793
370
     9
100
AcDbLine
 10
18.60079229427234
 20
-26.14298892713974
 30
0.0
 11
18.60030757685647
 21
-26.04341400891408
 31
0.0
  0
LINE
  5
BA
330
83
100
AcDbEntity
  8
Livello 1
 62
    18
420
    65793
370
     9
100
AcDbLine
 10
17.77589264805647
 20
-26.17547032489719
 30
0.0
 11
17.83966195148949
 21
-26.12536919834735
 31
0.0
  0
LINE
  5
BB
330
83
100
AcDbEntity
  8
Livello 1
 62
    18
420
    65793
370
     9
100
AcDbLine
 10
18.90659166081119
 20
-26.13438160152442
 30
0.0
 11
18.60079229427234
 21
-26.14298892713974
 31
0.0
  0
LINE
  5
BC
330
83
100
AcDbEntity
  8
Livello 1
 62
    18
420
    65793
370
     9
100
AcDbLine
 10
16.08300459375761
 20
-26.15529001394564
 30
0.0
 11
15.78428258317438
 21
-26.15675048365099
 31
0.0
  0
LINE
  5
BD
330
83
100
AcDbEntity
  8
Livello 1
 62
    18
420
    65793
370
     9
100
AcDbLine
 10
16.95779504904903
 20
-26.14390348408651
 30
0.0
 11
16.78709727155524
 21
-26.14473751888535
 31
0.0
  0
LINE
  5
BE
330
83
100
AcDbEntity
  8
Livello 1
 62
    18
420
    65793
370
     9
100
AcDbLine
 10
16.6732972503314
 20
-26.14529445383752
 30
0.0
 11
16.50259947283794
 21
-26.14612848863635
 31
0.0
  0
LINE
  5
BF
330
83
100
AcDbEntity
  8
Livello 1
 62
    18
420
    65793
370
     9
100
AcDbLine
 10
17.22091636250117
 20
-26.13550649362108
 30
0.0
 11
17.27802443624731
 21
-26.17790382931006
 31
0.0
  0
LINE
  5
C0
330
83
100
AcDbEntity
  8
Livello 1
 62
    18
420
    65793
370
     9
100
AcDbLine
 10
18.56303971893398
 20
-25.6950828331352
 30
0.0
 11
18.57129951826546
 21
-25.92975571401771
 31
0.0
  0
LINE
  5
C1
330
83
100
AcDbEntity
  8
Livello 1
 62
    18
420
    65793
370
     9
100
AcDbLine
 10
18.57324649648677
 20
-26.32804901643966
 30
0.0
 11
18.57261827048049
 21
-26.20002840973844
 31
0.0
  0
LINE
  5
C2
330
83
100
AcDbEntity
  8
Livello 1
 62
    18
420
    65793
370
     9
100
AcDbLine
 10
18.56227518408853
 20
-25.53860926750766
 30
0.0
 11
18.56199627546585
 21
-25.48171152007456
 31
0.0
  0
LINE
  5
C3
330
83
100
AcDbEntity
  8
Livello 1
 62
    18
420
    65793
370
     9
100
AcDbLine
 10
18.52092130070548
 20
-25.80909046309014
 30
0.0
 11
18.52904119132265
 21
-26.01531402027202
 31
0.0
  0
LINE
  5
C4
330
83
100
AcDbEntity
  8
Livello 1
 62
    18
420
    65793
370
     9
100
AcDbLine
 10
18.52258846149753
 20
-26.15048511810891
 30
0.0
 11
18.52342609617214
 21
-26.32117926037571
 31
0.0
  0
LINE
  5
C5
330
83
100
AcDbEntity
  8
Livello 1
 62
    18
420
    65793
370
     9
100
AcDbLine
 10
18.49052498994607
 20
-25.41093526060809
 30
0.0
 11
18.49101330723805
 21
-25.51050654360741
 31
0.0
  0
LINE
  5
C6
330
83
100
AcDbEntity
  8
Livello 1
 62
    18
420
    65793
370
     9
100
AcDbLine
 10
16.77911638084612
 20
-25.9669623854353
 30
0.0
 11
16.67954057148819
 21
-25.96744982043313
 31
0.0
  0
LINE
  5
C7
330
83
100
AcDbEntity
  8
Livello 1
 62
    18
420
    65793
370
     9
100
AcDbLine
 10
17.98815462640855
 20
-25.94682953005281
 30
0.0
 11
18.28687212830909
 21
-25.94537179560438
 31
0.0
  0
LINE
  5
C8
330
83
100
AcDbEntity
  8
Livello 1
 62
    18
420
    65793
370
     9
100
AcDbLine
 10
19.55947117744342
 20
-25.83246517807206
 30
0.0
 11
19.26074916685956
 21
-25.83392564777805
 31
0.0
  0
LINE
  5
C9
330
83
100
AcDbEntity
  8
Livello 1
 62
    18
420
    65793
370
     9
100
AcDbLine
 10
15.43428242015346
 20
-25.85262007784239
 30
0.0
 11
15.12133619770431
 21
-25.85415004750144
 31
0.0
  0
LINE
  5
CA
330
83
100
AcDbEntity
  8
Livello 1
 62
    18
420
    65793
370
     9
100
AcDbLine
 10
19.55933126872847
 20
-25.80401585437208
 30
0.0
 11
18.93344242370564
 21
-25.80707215846319
 31
0.0
  0
LINE
  5
CB
330
83
100
AcDbEntity
  8
Livello 1
 62
    18
420
    65793
370
     9
100
AcDbLine
 10
18.86231594688678
 20
-25.8074214935224
 30
0.0
 11
18.64179776907869
 21
-25.80138577225921
 31
0.0
  0
LINE
  5
CC
330
83
100
AcDbEntity
  8
Livello 1
 62
    18
420
    65793
370
     9
100
AcDbLine
 10
18.57067489213497
 20
-25.80173147209079
 30
0.0
 11
18.52092130070548
 21
-25.80909046309014
 31
0.0
  0
LINE
  5
CD
330
83
100
AcDbEntity
  8
Livello 1
 62
    18
420
    65793
370
     9
100
AcDbLine
 10
16.15960625701203
 20
-25.82062611508212
 30
0.0
 11
16.11693271260769
 21
-25.82083371497573
 31
0.0
  0
LINE
  5
CE
330
83
100
AcDbEntity
  8
Livello 1
 62
    18
420
    65793
370
     9
100
AcDbLine
 10
16.03866028868544
 20
-25.81410659404745
 30
0.0
 11
15.82528896678732
 21
-25.81514822873924
 31
0.0
  0
LINE
  5
CF
330
83
100
AcDbEntity
  8
Livello 1
 62
    18
420
    65793
370
     9
100
AcDbLine
 10
15.74708873388765
 20
-25.8226407844808
 30
0.0
 11
15.12119628898904
 21
-25.82570072380082
 31
0.0
  0
LINE
  5
D0
330
83
100
AcDbEntity
  8
Livello 1
 62
    18
420
    65793
370
     9
100
AcDbLine
 10
18.2897930500445
 20
-26.54281219922009
 30
0.0
 11
18.29124247988129
 21
-25.38345533638832
 31
0.0
  0
LINE
  5
D1
330
83
100
AcDbEntity
  8
Livello 1
 62
    18
420
    65793
370
     9
100
AcDbLine
 10
16.45742473284208
 20
-25.63424365601611
 30
0.0
 11
17.00504384501153
 21
-25.62445569580159
 31
0.0
  0
LINE
  5
D2
330
83
100
AcDbEntity
  8
Livello 1
 62
    18
420
    65793
370
     9
100
AcDbLine
 10
17.99107103946127
 20
-26.54427266892544
 30
0.0
 11
17.98537361338809
 21
-25.3778384501374
 31
0.0
  0
LINE
  5
D3
330
83
100
AcDbEntity
  8
Livello 1
 62
    18
420
    65793
370
     9
100
AcDbLine
 10
17.72357014334438
 20
-25.65650723635318
 30
0.0
 11
17.75888742317009
 21
-25.60654874493709
 31
0.0
  0
LINE
  5
D4
330
83
100
AcDbEntity
  8
Livello 1
 62
    18
420
    65793
370
     9
100
AcDbLine
 10
17.69477240222862
 20
-25.5855233769931
 30
0.0
 11
17.65945512240354
 21
-25.63548186840919
 31
0.0
  0
LINE
  5
D5
330
83
100
AcDbEntity
  8
Livello 1
 62
    18
420
    65793
370
     9
100
AcDbLine
 10
17.27802443624731
 20
-26.17790382931006
 30
0.0
 11
17.39105992262506
 21
-26.02087332873099
 31
0.0
  0
LINE
  5
D6
330
83
100
AcDbEntity
  8
Livello 1
 62
    18
420
    65793
370
     9
100
AcDbLine
 10
18.931843854062
 20
-25.47990081534122
 30
0.0
 11
18.56199627546585
 21
-25.48171152007456
 31
0.0
  0
LINE
  5
D7
330
83
100
AcDbEntity
  8
Livello 1
 62
    18
420
    65793
370
     9
100
AcDbLine
 10
17.70851189667867
 20
-25.48587895881374
 30
0.0
 11
17.33866791795926
 21
-25.48768602831945
 31
0.0
  0
LINE
  5
D8
330
83
100
AcDbEntity
  8
Livello 1
 62
    18
420
    65793
370
     9
100
AcDbLine
 10
16.11533505176967
 20
-25.49366327182254
 30
0.0
 11
15.74549107305027
 21
-25.4954703413289
 31
0.0
  0
LINE
  5
D9
330
83
100
AcDbEntity
  8
Livello 1
 62
    18
420
    65793
370
     9
100
AcDbLine
 10
16.95452931861302
 20
-25.47533748594449
 30
0.0
 11
16.49933374240128
 21
-25.47756249049561
 31
0.0
  0
LINE
  5
DA
330
83
100
AcDbEntity
  8
Livello 1
 62
    18
420
    65793
370
     9
100
AcDbLine
 10
15.11925291064383
 20
-25.42740378615317
 30
0.0
 11
17.98551261329581
 21
-25.40628687386956
 31
0.0
  0
LINE
  5
DB
330
83
100
AcDbEntity
  8
Livello 1
 62
    18
420
    65793
370
     9
100
AcDbLine
 10
18.29137787991355
 20
-25.41190739534683
 30
0.0
 11
19.55738429050716
 21
-25.40572255195077
 31
0.0
  0
LINE
  5
DC
330
83
100
AcDbEntity
  8
Livello 1
 62
    18
420
    65793
370
     9
100
AcDbLine
 10
15.11911300192952
 20
-25.39895446245191
 30
0.0
 11
17.98537361338809
 21
-25.3778384501374
 31
0.0
  0
LINE
  5
DD
330
83
100
AcDbEntity
  8
Livello 1
 62
    18
420
    65793
370
     9
100
AcDbLine
 10
18.29124247988129
 20
-25.38345533638832
 30
0.0
 11
19.56432533762426
 21
-25.37012273711384
 31
0.0
  0
LINE
  5
DE
330
83
100
AcDbEntity
  8
Livello 1
 62
    18
420
    65793
370
     9
100
AcDbLine
 10
17.28947123496823
 20
-25.60883961421493
 30
0.0
 11
17.3252768320856
 21
-25.65845240579879
 31
0.0
  0
LINE
  5
DF
330
83
100
AcDbEntity
  8
Livello 1
 62
    18
420
    65793
370
     9
100
AcDbLine
 10
17.78692062944041
 20
-25.52105903866898
 30
0.0
 11
17.78636641206987
 21
-25.40725990857708
 31
0.0
  0
LINE
  5
E0
330
83
100
AcDbEntity
  8
Livello 1
 62
    18
420
    65793
370
     9
100
AcDbLine
 10
17.33395184887957
 20
-25.97847599304137
 30
0.0
 11
17.22091636250117
 21
-26.13550649362108
 31
0.0
  0
LINE
  5
E1
330
83
100
AcDbEntity
  8
Livello 1
 62
    18
420
    65793
370
     9
100
AcDbLine
 10
18.44424922868981
 20
-26.12952925011927
 30
0.0
 11
18.50135639362936
 21
-26.17192568583883
 31
0.0
  0
LINE
  5
E2
330
83
100
AcDbEntity
  8
Livello 1
 62
    18
420
    65793
370
     9
100
AcDbLine
 10
17.66132900079409
 20
-26.01955459418996
 30
0.0
 11
17.77589264805647
 21
-26.17547032489719
 31
0.0
  0
LINE
  5
E3
330
83
100
AcDbEntity
  8
Livello 1
 62
    18
420
    65793
370
     9
100
AcDbLine
 10
17.83966195148949
 20
-26.12536919834735
 30
0.0
 11
17.72509830422774
 21
-25.96945346764012
 31
0.0
  0
LINE
  5
E4
330
83
100
AcDbEntity
  8
Livello 1
 62
    18
420
    65793
370
     9
100
AcDbLine
 10
17.38918244435778
 20
-25.63680423817592
 30
0.0
 11
17.35337684724073
 21
-25.58719144659205
 31
0.0
  0
LINE
  5
E5
330
83
100
AcDbEntity
  8
Livello 1
 62
    18
420
    65793
370
     9
100
AcDbLine
 10
17.72586283907319
 20
-26.12592703326767
 30
0.0
 11
17.72635115636452
 21
-26.22549831626763
 31
0.0
  0
LINE
  5
E6
330
83
100
AcDbEntity
  8
Livello 1
 62
    18
420
    65793
370
     9
100
AcDbLine
 10
17.70851189667867
 20
-25.48587895881374
 30
0.0
 11
17.70878720542524
 21
-25.54278034147318
 31
0.0
  0
LINE
  5
E7
330
83
100
AcDbEntity
  8
Livello 1
 62
    18
420
    65793
370
     9
100
AcDbLine
 10
17.71066468369317
 20
-25.92684943202697
 30
0.0
 11
17.70955174027102
 21
-25.69925390710072
 31
0.0
  0
LINE
  5
E8
330
83
100
AcDbEntity
  8
Livello 1
 62
    18
420
    65793
370
     9
100
AcDbLine
 10
17.68006256414057
 20
-25.48601705875236
 30
0.0
 11
17.67971415556355
 21
-25.41489509945366
 31
0.0
  0
LINE
  5
E9
330
83
100
AcDbEntity
  8
Livello 1
 62
    18
420
    65793
370
     9
100
AcDbLine
 10
17.63142100732601
 20
-25.72097067470916
 30
0.0
 11
17.63246445079414
 21
-25.93434198776916
 31
0.0
  0
LINE
  5
EA
330
83
100
AcDbEntity
  8
Livello 1
 62
    18
420
    65793
370
     9
100
AcDbLine
 10
17.61608385203762
 20
-25.49344464973662
 30
0.0
 11
17.61566863457641
 21
-25.40809394337591
 31
0.0
  0
LINE
  5
EB
330
83
100
AcDbEntity
  8
Livello 1
 62
    18
420
    65793
370
     9
100
AcDbLine
 10
16.24648510658081
 20
-26.1331535113568
 30
0.0
 11
16.18271580314716
 21
-26.18325463790664
 31
0.0
  0
LINE
  5
EC
330
83
100
AcDbEntity
  8
Livello 1
 62
    18
420
    65793
370
     9
100
AcDbLine
 10
19.65056403902437
 20
-24.09655517963059
 30
0.0
 11
19.5583490029284
 21
-24.14679077089367
 31
0.0
  0
LINE
  5
ED
330
83
100
AcDbEntity
  8
Livello 1
 62
    18
420
    65793
370
     9
100
AcDbLine
 10
17.43074664521703
 20
-25.40899747812909
 30
0.0
 11
17.43116186267824
 21
-25.49434818448979
 31
0.0
  0
LINE
  5
EE
330
83
100
AcDbEntity
  8
Livello 1
 62
    18
420
    65793
370
     9
100
AcDbLine
 10
17.41909312889569
 20
-25.93538362246095
 30
0.0
 11
17.41805059423415
 21
-25.72201320936974
 31
0.0
  0
LINE
  5
EF
330
83
100
AcDbEntity
  8
Livello 1
 62
    18
420
    65793
370
     9
100
AcDbLine
 10
17.37384528907035
 20
-25.40927821320338
 30
0.0
 11
17.37426410640766
 21
-25.49462528433646
 31
0.0
  0
LINE
  5
F0
330
83
100
AcDbEntity
  8
Livello 1
 62
    18
420
    65793
370
     9
100
AcDbLine
 10
17.33970685274471
 20
-25.7010600766383
 30
0.0
 11
17.34082070497344
 21
-25.92865650153332
 31
0.0
  0
LINE
  5
F1
330
83
100
AcDbEntity
  8
Livello 1
 62
    18
420
    65793
370
     9
100
AcDbLine
 10
17.33894322670616
 20
-25.54458741097889
 30
0.0
 11
17.33866791795926
 21
-25.48768602831945
 31
0.0
  0
LINE
  5
F2
330
83
100
AcDbEntity
  8
Livello 1
 62
    18
420
    65793
370
     9
100
AcDbLine
 10
19.58978424847325
 20
-24.75832002169359
 30
0.0
 11
18.99234473598949
 21
-24.76123822584641
 31
0.0
  0
LINE
  5
F3
330
83
100
AcDbEntity
  8
Livello 1
 62
    18
420
    65793
370
     9
100
AcDbLine
 10
15.67796681308269
 20
-24.7774332867702
 30
0.0
 11
15.08767415650793
 21
-24.78742884687929
 31
0.0
  0
LINE
  5
F4
330
83
100
AcDbEntity
  8
Livello 1
 62
    18
420
    65793
370
     9
100
AcDbLine
 10
17.26719572363258
 20
-25.4169088688842
 30
0.0
 11
17.26768134985471
 21
-25.51648468707992
 31
0.0
  0
LINE
  5
F5
330
83
100
AcDbEntity
  8
Livello 1
 62
    18
420
    65793
370
     9
100
AcDbLine
 10
17.16228103667794
 20
-25.78016382661522
 30
0.0
 11
17.15749637645112
 21
-26.25673047944032
 31
0.0
  0
LINE
  5
F6
330
83
100
AcDbEntity
  8
Livello 1
 62
    18
420
    65793
370
     9
100
AcDbLine
 10
16.96542662237423
 20
-26.25055575826845
 30
0.0
 11
16.95779504904903
 21
-26.14390348408651
 31
0.0
  0
LINE
  5
F7
330
83
100
AcDbEntity
  8
Livello 1
 62
    18
420
    65793
370
     9
100
AcDbLine
 10
16.96216089193822
 20
-25.5819897601277
 30
0.0
 11
16.95424950118344
 21
-25.41843883854389
 31
0.0
  0
LINE
  5
F8
330
83
100
AcDbEntity
  8
Livello 1
 62
    18
420
    65793
370
     9
100
AcDbLine
 10
18.88466095817678
 20
-26.01357645071937
 30
0.0
 11
18.99922460543821
 21
-26.16949218142724
 31
0.0
  0
LINE
  5
F9
330
83
100
AcDbEntity
  8
Livello 1
 62
    18
420
    65793
370
     9
100
AcDbLine
 10
18.51988145711313
 20
-25.59571551480315
 30
0.0
 11
18.54860609839941
 21
-25.65247879752333
 31
0.0
  0
LINE
  5
FA
330
83
100
AcDbEntity
  8
Livello 1
 62
    18
420
    65793
370
     9
100
AcDbLine
 10
18.6125153105477
 20
-25.63082699467283
 30
0.0
 11
18.57670971343001
 21
-25.5812142030896
 31
0.0
  0
LINE
  5
FB
330
83
100
AcDbEntity
  8
Livello 1
 62
    18
420
    65793
370
     9
100
AcDbLine
 10
16.78848552372397
 20
-26.42923442647167
 30
0.0
 11
16.78050463301484
 21
-26.25145929302162
 31
0.0
  0
LINE
  5
FC
330
83
100
AcDbEntity
  8
Livello 1
 62
    18
420
    65793
370
     9
100
AcDbLine
 10
16.78709727155524
 20
-26.14473751888535
 30
0.0
 11
16.77911638084612
 21
-25.9669623854353
 31
0.0
  0
LINE
  5
FD
330
83
100
AcDbEntity
  8
Livello 1
 62
    18
420
    65793
370
     9
100
AcDbLine
 10
16.16169314394797
 20
-26.24736874120341
 30
0.0
 11
16.11943481700548
 21
-26.33292704745643
 31
0.0
  0
LINE
  5
FE
330
83
100
AcDbEntity
  8
Livello 1
 62
    18
420
    65793
370
     9
100
AcDbLine
 10
16.16571057826142
 20
-25.61433305794589
 30
0.0
 11
16.13039329843506
 21
-25.66429154936198
 31
0.0
  0
LINE
  5
FF
330
83
100
AcDbEntity
  8
Livello 1
 62
    18
420
    65793
370
     9
100
AcDbLine
 10
16.0662782774939
 20
-25.643266181418
 30
0.0
 11
16.10159555731994
 21
-25.59330769000191
 31
0.0
  0
LINE
  5
100
330
83
100
AcDbEntity
  8
Livello 1
 62
    18
420
    65793
370
     9
100
AcDbLine
 10
15.79788307771574
 20
-26.02865764173979
 30
0.0
 11
15.68484759133799
 21
-26.1856881423195
 31
0.0
  0
LINE
  5
101
330
83
100
AcDbEntity
  8
Livello 1
 62
    18
420
    65793
370
     9
100
AcDbLine
 10
19.86386855203863
 20
-24.08128479787615
 30
0.0
 11
19.65764139498064
 21
-24.08940832371998
 31
0.0
  0
LINE
  5
102
330
83
100
AcDbEntity
  8
Livello 1
 62
    18
420
    65793
370
     9
100
AcDbLine
 10
19.07014167358938
 20
-26.12646931080053
 30
0.0
 11
18.95557802632699
 21
-25.9705535800933
 31
0.0
  0
LINE
  5
103
330
83
100
AcDbEntity
  8
Livello 1
 62
    18
420
    65793
370
     9
100
AcDbLine
 10
16.67954057148819
 20
-25.96744982043313
 30
0.0
 11
16.6732972503314
 21
-26.14529445383752
 31
0.0
  0
LINE
  5
104
330
83
100
AcDbEntity
  8
Livello 1
 62
    18
420
    65793
370
     9
100
AcDbLine
 10
16.68093333233993
 20
-26.25194399276189
 30
0.0
 11
16.67469001118313
 21
-26.42978862616564
 31
0.0
  0
LINE
  5
105
330
83
100
AcDbEntity
  8
Livello 1
 62
    18
420
    65793
370
     9
100
AcDbLine
 10
16.4990548337786
 20
-25.42066474306315
 30
0.0
 11
16.49988886857776
 21
-25.59136252055629
 31
0.0
  0
LINE
  5
106
330
83
100
AcDbEntity
  8
Livello 1
 62
    18
420
    65793
370
     9
100
AcDbLine
 10
16.50259947283794
 20
-26.14612848863635
 30
0.0
 11
16.49601134297991
 21
-26.25284752751507
 31
0.0
  0
LINE
  5
107
330
83
100
AcDbEntity
  8
Livello 1
 62
    18
420
    65793
370
     9
100
AcDbLine
 10
15.62774042639876
 20
-26.14329170659995
 30
0.0
 11
15.74077591277683
 21
-25.9862612060196
 31
0.0
  0
LINE
  5
108
330
83
100
AcDbEntity
  8
Livello 1
 62
    18
420
    65793
370
     9
100
AcDbLine
 10
16.30400839778847
 20
-26.2609015534052
 30
0.0
 11
16.30171570205966
 21
-25.79148175648943
 31
0.0
  0
LINE
  5
109
330
83
100
AcDbEntity
  8
Livello 1
 62
    18
420
    65793
370
     9
100
AcDbLine
 10
16.19318956716119
 20
-25.41504422158589
 30
0.0
 11
16.19374469333735
 21
-25.52884425164657
 31
0.0
  0
LINE
  5
10A
330
83
100
AcDbEntity
  8
Livello 1
 62
    18
420
    65793
370
     9
100
AcDbLine
 10
16.16925521731978
 20
-26.33979680351974
 30
0.0
 11
16.16835168256693
 21
-26.15487481415972
 31
0.0
  0
LINE
  5
10B
330
83
100
AcDbEntity
  8
Livello 1
 62
    18
420
    65793
370
     9
100
AcDbLine
 10
16.16772705643611
 20
-26.0268505722328
 30
0.0
 11
16.15960625701203
 21
-25.82062611508212
 31
0.0
  0
LINE
  5
10C
330
83
100
AcDbEntity
  8
Livello 1
 62
    18
420
    65793
370
     9
100
AcDbLine
 10
16.1163784952378
 20
-25.70703458488254
 30
0.0
 11
16.11748783878448
 21
-25.93463374503577
 31
0.0
  0
LINE
  5
10D
330
83
100
AcDbEntity
  8
Livello 1
 62
    18
420
    65793
370
     9
100
AcDbLine
 10
16.11887969082868
 20
-26.21912701739639
 30
0.0
 11
16.11943481700548
 21
-26.33292704745643
 31
0.0
  0
LINE
  5
10E
330
83
100
AcDbEntity
  8
Livello 1
 62
    18
420
    65793
370
     9
100
AcDbLine
 10
16.1156103605172
 20
-25.55056465448198
 30
0.0
 11
16.11533505176967
 21
-25.49366327182254
 31
0.0
  0
LINE
  5
10F
330
83
100
AcDbEntity
  8
Livello 1
 62
    18
420
    65793
370
     9
100
AcDbLine
 10
16.08959363242222
 20
-26.04857187503635
 30
0.0
 11
16.08300459375761
 21
-26.15529001394564
 31
0.0
  0
LINE
  5
110
330
83
100
AcDbEntity
  8
Livello 1
 62
    18
420
    65793
370
     9
100
AcDbLine
 10
16.08688571923156
 20
-25.49380137176116
 30
0.0
 11
16.08653731065455
 21
-25.4226794124631
 31
0.0
  0
LINE
  5
111
330
83
100
AcDbEntity
  8
Livello 1
 62
    18
420
    65793
370
     9
100
AcDbLine
 10
16.03928760588514
 20
-25.94212630077796
 30
0.0
 11
16.03824507122327
 21
-25.72875588768738
 31
0.0
  0
LINE
  5
112
330
83
100
AcDbEntity
  8
Livello 1
 62
    18
420
    65793
370
     9
100
AcDbLine
 10
16.02290700712862
 20
-25.50122896274543
 30
0.0
 11
16.02249178966709
 21
-25.41587825638536
 31
0.0
  0
LINE
  5
113
330
83
100
AcDbEntity
  8
Livello 1
 62
    18
420
    65793
370
     9
100
AcDbLine
 10
15.83756980030739
 20
-25.4167817911379
 30
0.0
 11
15.83798501776892
 21
-25.5021324974986
 31
0.0
  0
LINE
  5
114
330
83
100
AcDbEntity
  8
Livello 1
 62
    18
420
    65793
370
     9
100
AcDbLine
 10
15.82487374932515
 20
-25.72979752237854
 30
0.0
 11
15.8259171927936
 21
-25.94316883543982
 31
0.0
  0
LINE
  5
115
330
83
100
AcDbEntity
  8
Livello 1
 62
    18
420
    65793
370
     9
100
AcDbLine
 10
15.78066844416135
 20
-25.41706252621219
 30
0.0
 11
15.78108726149962
 21
-25.50240959734527
 31
0.0
  0
LINE
  5
116
330
83
100
AcDbEntity
  8
Livello 1
 62
    18
420
    65793
370
     9
100
AcDbLine
 10
15.78428258317438
 20
-26.15675048365099
 30
0.0
 11
15.78379786575851
 21
-26.05717556542533
 31
0.0
  0
LINE
  5
117
330
83
100
AcDbEntity
  8
Livello 1
 62
    18
420
    65793
370
     9
100
AcDbLine
 10
15.74549107305027
 20
-25.4954703413289
 30
0.0
 11
15.74576638179716
 21
-25.55237172398834
 31
0.0
  0
LINE
  5
118
330
83
100
AcDbEntity
  8
Livello 1
 62
    18
420
    65793
370
     9
100
AcDbLine
 10
15.7567376941954
 20
-26.34181147291906
 30
0.0
 11
15.74903571210863
 21
-26.2209340869021
 31
0.0
  0
LINE
  5
119
330
83
100
AcDbEntity
  8
Livello 1
 62
    18
420
    65793
370
     9
100
AcDbLine
 10
15.75479071597409
 20
-25.94351817049839
 30
0.0
 11
15.74653091664229
 21
-25.70884528961588
 31
0.0
  0
LINE
  5
11A
330
83
100
AcDbEntity
  8
Livello 1
 62
    18
420
    65793
370
     9
100
AcDbLine
 10
15.67532570877653
 20
-24.23689153055638
 30
0.0
 11
15.67796681308269
 21
-24.7774332867702
 31
0.0
  0
LINE
  5
11B
330
83
100
AcDbEntity
  8
Livello 1
 62
    18
420
    65793
370
     9
100
AcDbLine
 10
15.67450450494635
 20
-25.52426900008808
 30
0.0
 11
15.67401978753048
 21
-25.42469408186243
 31
0.0
  0
LINE
  5
11C
330
83
100
AcDbEntity
  8
Livello 1
 62
    18
420
    65793
370
     9
100
AcDbLine
 10
19.43143771326111
 20
-24.3750127307261
 30
0.0
 11
19.54579195185421
 21
-24.48825492586583
 31
0.0
  0
LINE
  5
11D
330
83
100
AcDbEntity
  8
Livello 1
 62
    18
420
    65793
370
     9
100
AcDbLine
 10
19.44566192512703
 20
-24.37494323077175
 30
0.0
 11
19.58853499621257
 21
-24.50227153783846
 31
0.0
  0
LINE
  5
11E
330
83
100
AcDbEntity
  8
Livello 1
 62
    18
420
    65793
370
     9
100
AcDbLine
 10
15.61553269270817
 20
-26.55587872083991
 30
0.0
 11
15.61448924924004
 21
-26.34250740777992
 31
0.0
  0
LINE
  5
11F
330
83
100
AcDbEntity
  8
Livello 1
 62
    18
420
    65793
370
     9
100
AcDbLine
 10
15.42852381641189
 20
-26.13003962947181
 30
0.0
 11
15.42699565552917
 21
-25.81709339818486
 31
0.0
  0
LINE
  5
120
330
83
100
AcDbEntity
  8
Livello 1
 62
    18
420
    65793
370
     9
100
AcDbLine
 10
15.12188209278792
 20
-24.50987119530998
 30
0.0
 11
15.2493475998251
 21
-24.3954483655688
 31
0.0
  0
LINE
  5
121
330
83
100
AcDbEntity
  8
Livello 1
 62
    18
420
    65793
370
     9
100
AcDbLine
 10
15.08642130437115
 20
-24.53138399825114
 30
0.0
 11
15.2279756232423
 21
-24.38843960959841
 31
0.0
  0
LINE
  5
122
330
83
100
AcDbEntity
  8
Livello 1
 62
    18
420
    65793
370
     9
100
AcDbLine
 10
15.16900381100444
 20
-25.42004933035024
 30
0.0
 11
15.16886390229013
 21
-25.39160000664865
 31
0.0
  0
LINE
  5
123
330
83
100
AcDbEntity
  8
Livello 1
 62
    18
420
    65793
370
     9
100
AcDbLine
 10
15.13347712251007
 20
-25.42733428619883
 30
0.0
 11
15.14041547855797
 21
-25.39173900655702
 31
0.0
  0
LINE
  5
124
330
83
100
AcDbEntity
  8
Livello 1
 62
    18
420
    65793
370
     9
100
AcDbLine
 10
15.11911300192952
 20
-25.39895446245191
 30
0.0
 11
15.12626908893204
 21
-26.86411070066033
 31
0.0
  0
LINE
  5
125
330
83
100
AcDbEntity
  8
Livello 1
 62
    18
420
    65793
370
     9
100
AcDbLine
 10
15.08767415650793
 20
-24.78742884687929
 30
0.0
 11
15.08642130437115
 21
-24.53138399825114
 31
0.0
  0
SPLINE
  5
126
330
83
100
AcDbEntity
  8
Livello 1
 62
    18
420
    65793
370
     9
100
AcDbSpline
210
0.0
220
0.0
230
1.0
 70
     8
 71
     3
 72
    41
 73
    37
 74
     0
 42
0.000000001
 43
0.0000000001
 40
0.0
 40
0.0
 40
0.0
 40
0.0
 40
1.0
 40
1.0
 40
1.0
 40
2.0
 40
2.0
 40
2.0
 40
3.0
 40
3.0
 40
3.0
 40
4.0
 40
4.0
 40
4.0
 40
5.0
 40
5.0
 40
5.0
 40
6.0
 40
6.0
 40
6.0
 40
7.0
 40
7.0
 40
7.0
 40
8.0
 40
8.0
 40
8.0
 40
9.0
 40
9.0
 40
9.0
 40
10.0
 40
10.0
 40
10.0
 40
11.0
 40
11.0
 40
11.0
 40
12.0
 40
12.0
 40
12.0
 40
12.0
 10
19.54023083462019
 20
-23.35027366600636
 30
0.0
 10
19.54023083462019
 20
-23.35027366600636
 30
0.0
 10
19.05596220854677
 20
-23.22461342853764
 30
0.0
 10
19.05596220854677
 20
-23.22461342853764
 30
0.0
 10
19.05596220854677
 20
-23.22461342853764
 30
0.0
 10
18.56468572647077
 20
-23.12032425884545
 30
0.0
 10
18.56468572647077
 20
-23.12032425884545
 30
0.0
 10
18.56468572647077
 20
-23.12032425884545
 30
0.0
 10
18.0736159619952
 20
-23.05871315991493
 30
0.0
 10
18.0736159619952
 20
-23.05871315991493
 30
0.0
 10
18.0736159619952
 20
-23.05871315991493
 30
0.0
 10
17.58268879730281
 20
-23.02554684948958
 30
0.0
 10
17.58268879730281
 20
-23.02554684948958
 30
0.0
 10
17.58268879730281
 20
-23.02554684948958
 30
0.0
 10
17.08482058549396
 20
-23.02798035390309
 30
0.0
 10
17.08482058549396
 20
-23.02798035390309
 30
0.0
 10
17.08482058549396
 20
-23.02798035390309
 30
0.0
 10
16.5800140176369
 20
-23.06600913795744
 30
0.0
 10
16.5800140176369
 20
-23.06600913795744
 30
0.0
 10
16.5800140176369
 20
-23.06600913795744
 30
0.0
 10
16.08957247916761
 20
-23.13241864572718
 30
0.0
 10
16.08957247916761
 20
-23.13241864572718
 30
0.0
 10
16.08957247916761
 20
-23.13241864572718
 30
0.0
 10
15.60641679651601
 20
-23.23435393318534
 30
0.0
 10
15.60641679651601
 20
-23.23435393318534
 30
0.0
 10
15.60641679651601
 20
-23.23435393318534
 30
0.0
 10
15.13054427861323
 20
-23.37181953552641
 30
0.0
 10
15.13054427861323
 20
-23.37181953552641
 30
0.0
 10
15.13054427861323
 20
-23.37181953552641
 30
0.0
 10
14.80407157025816
 20
-23.51566382370566
 30
0.0
 10
14.80553023118749
 20
-23.81438584312733
 30
0.0
 10
14.80553023118749
 20
-23.81438584312733
 30
0.0
 10
14.80698889211715
 20
-24.113107862549
 30
0.0
 10
14.80698889211715
 20
-24.113107862549
 30
0.0
 10
14.80698889211715
 20
-24.113107862549
 30
0.0
 10
14.82012491369163
 20
-26.80159243175061
 30
0.0
 10
14.82012491369163
 20
-26.80159243175061
 30
0.0
  0
LWPOLYLINE
  5
127
330
83
100
AcDbEntity
  8
Livello 1
 62
    18
420
    65793
370
     9
100
AcDbPolyline
 90
       15
 70
     0
 43
0.0
 10
19.5346816395476
 20
-23.67036675320295
 10
19.05749036943044
 20
-23.53755965982458
 10
18.56621388735477
 20
-23.4332704901324
 10
18.07514772275466
 20
-23.37165575597489
 10
17.57707010227716
 20
-23.3314157248209
 10
17.07920189046799
 20
-23.33384922923344
 10
16.58861953447684
 20
-23.37180851333377
 10
16.09110064005096
 20
-23.44536487701412
 10
15.60801445735371
 20
-23.5615243763382
 10
15.13214284825752
 20
-23.6989908786487
 10
15.08301657402677
 20
-23.83436957637888
 10
15.22554392760545
 20
-23.89057138895176
 10
15.35398337815642
 20
-23.97529566040596
 10
15.46126026079389
 20
-24.0956847114563
 10
15.5330808636976
 20
-24.23758383018929
  0
LWPOLYLINE
  5
128
330
83
100
AcDbEntity
  8
Livello 1
 62
    18
420
    65793
370
     9
100
AcDbPolyline
 90
        8
 70
     0
 43
0.0
 10
15.75081802848523
 20
-23.67462847153964
 10
16.19844702264181
 20
-23.57997813993038
 10
16.65336278142428
 20
-23.52085448797802
 10
17.10841844892074
 20
-23.4901801597266
 10
17.56360951644946
 20
-23.48795789043368
 10
18.01186313673623
 20
-23.52133180075167
 10
18.46018985685408
 20
-23.56892628770923
 10
18.90872238576481
 20
-23.65919794545968
  0
LWPOLYLINE
  5
129
330
83
100
AcDbEntity
  8
Livello 1
 62
    18
420
    65793
370
     9
100
AcDbPolyline
 90
        3
 70
     0
 43
0.0
 10
18.88466095817678
 20
-26.01357645071937
 10
18.8702273376422
 20
-25.97097241510621
 10
18.85579731698277
 20
-25.92836474426671
  0
LWPOLYLINE
  5
12A
330
83
100
AcDbEntity
  8
Livello 1
 62
    18
420
    65793
370
     9
100
AcDbPolyline
 90
        3
 70
     0
 43
0.0
 10
18.85475387351528
 20
-25.71499343120607
 10
18.86876867671287
 20
-25.6722503956855
 10
18.8827843887164
 20
-25.62950826013373
  0
LWPOLYLINE
  5
12B
330
83
100
AcDbEntity
  8
Livello 1
 62
    18
420
    65793
370
     9
100
AcDbPolyline
 90
        3
 70
     0
 43
0.0
 10
19.01025349562872
 20
-25.51508179516653
 10
19.00331604838837
 20
-25.55067797477712
 10
18.98221938055279
 20
-25.60057060146649
  0
LWPOLYLINE
  5
12C
330
83
100
AcDbEntity
  8
Livello 1
 62
    18
420
    65793
370
     9
100
AcDbPolyline
 90
        3
 70
     0
 43
0.0
 10
18.51988145711313
 20
-25.59571551480315
 10
18.49836957181635
 20
-25.56025743513054
 10
18.49101330723805
 20
-25.51050654360741
  0
LINE
  5
12D
330
83
100
AcDbEntity
  8
Livello 1
 62
    18
420
    65793
370
     9
100
AcDbLine
 10
18.95557802632699
 20
-25.9705535800933
 30
0.0
 11
18.93399664107586
 21
-25.92087128855573
 31
0.0
  0
LINE
  5
12E
330
83
100
AcDbEntity
  8
Livello 1
 62
    18
420
    65793
370
     9
100
AcDbLine
 10
18.93288369765339
 20
-25.69327576362949
 30
0.0
 11
18.94690300953366
 21
-25.65052999285073
 31
0.0
  0
LINE
  5
12F
330
83
100
AcDbEntity
  8
Livello 1
 62
    18
420
    65793
370
     9
100
AcDbLine
 10
18.57670971343001
 20
-25.5812142030896
 30
0.0
 11
18.56227518408853
 21
-25.53860926750766
 31
0.0
  0
LINE
  5
130
330
83
100
AcDbEntity
  8
Livello 1
 62
    18
420
    65793
370
     9
100
AcDbLine
 10
18.93212007161484
 20
-25.53680309797073
 30
0.0
 11
18.91810435961131
 21
-25.57954523352251
 31
0.0
  0
LWPOLYLINE
  5
131
330
83
100
AcDbEntity
  8
Livello 1
 62
    18
420
    65793
370
     9
100
AcDbPolyline
 90
        3
 70
     0
 43
0.0
 10
19.25499416299474
 20
-26.11134156418112
 10
19.25513407170905
 20
-26.13979088788238
 10
19.24097575992137
 20
-26.15408823492866
  0
LWPOLYLINE
  5
132
330
83
100
AcDbEntity
  8
Livello 1
 62
    18
420
    65793
370
     9
100
AcDbPolyline
 90
        3
 70
     0
 43
0.0
 10
19.09234768497069
 20
-26.30417584426503
 10
19.07819297305879
 20
-26.31846955608497
 10
19.04974004064491
 20
-26.31861129125121
  0
LWPOLYLINE
  5
133
330
83
100
AcDbEntity
  8
Livello 1
 62
    18
420
    65793
370
     9
100
AcDbPolyline
 90
        3
 70
     0
 43
0.0
 10
17.75528520631881
 20
-26.32493513455531
 10
17.73370382106704
 20
-26.2752528430171
 10
17.72635115636452
 20
-26.22549831626763
  0
LWPOLYLINE
  5
134
330
83
100
AcDbEntity
  8
Livello 1
 62
    18
420
    65793
370
     9
100
AcDbPolyline
 90
        3
 70
     0
 43
0.0
 10
17.66132900079409
 20
-26.01955459418996
 10
17.6468989801353
 20
-25.97694692335175
 10
17.63246445079414
 20
-25.93434198776916
  0
LWPOLYLINE
  5
135
330
83
100
AcDbEntity
  8
Livello 1
 62
    18
420
    65793
370
     9
100
AcDbPolyline
 90
        3
 70
     0
 43
0.0
 10
17.63142100732601
 20
-25.72097067470916
 10
17.64543671933018
 20
-25.67822853915802
 10
17.65945512240354
 20
-25.63548186840919
  0
LWPOLYLINE
  5
136
330
83
100
AcDbEntity
  8
Livello 1
 62
    18
420
    65793
370
     9
100
AcDbPolyline
 90
        3
 70
     0
 43
0.0
 10
17.78692062944041
 20
-25.52105903866898
 10
17.77290582624282
 20
-25.56380207418954
 10
17.75888742317009
 20
-25.60654874493709
  0
LWPOLYLINE
  5
137
330
83
100
AcDbEntity
  8
Livello 1
 62
    18
420
    65793
370
     9
100
AcDbPolyline
 90
        3
 70
     0
 43
0.0
 10
17.28947123496823
 20
-25.60883961421493
 10
17.27503761443366
 20
-25.56623557860305
 10
17.26768134985471
 20
-25.51648468707992
  0
LWPOLYLINE
  5
138
330
83
100
AcDbEntity
  8
Livello 1
 62
    18
420
    65793
370
     9
100
AcDbPolyline
 90
        3
 70
     0
 43
0.0
 10
18.6125153105477
 20
-25.63082699467283
 10
18.64117314294819
 20
-25.67336153033164
 10
18.64138255161684
 20
-25.71603506589914
  0
LWPOLYLINE
  5
139
330
83
100
AcDbEntity
  8
Livello 1
 62
    18
420
    65793
370
     9
100
AcDbPolyline
 90
        3
 70
     0
 43
0.0
 10
18.64242239520823
 20
-25.92941001418613
 10
18.64263180387752
 20
-25.97208354975363
 10
18.61439188000808
 20
-26.01489518525847
  0
LWPOLYLINE
  5
13A
330
83
100
AcDbEntity
  8
Livello 1
 62
    18
420
    65793
370
     9
100
AcDbPolyline
 90
        7
 70
     0
 43
0.0
 10
17.74473271125756
 20
-25.62084245675703
 10
17.75222888455146
 20
-25.69904267198078
 10
17.73120262547617
 20
-25.76316041050453
 10
17.75285351068196
 20
-25.8270669139077
 10
17.75313241930463
 20
-25.8839646613408
 10
17.73210616022998
 20
-25.94808239986392
 10
17.75375704543513
 20
-26.01198890326772
  0
LINE
  5
13B
330
83
100
AcDbEntity
  8
Livello 1
 62
    18
420
    65793
370
     9
100
AcDbLine
 10
17.73294019502882
 20
-26.11878017735834
 30
0.0
 11
17.72586283907319
 21
-26.12592703326767
 31
0.0
  0
LINE
  5
13C
330
83
100
AcDbEntity
  8
Livello 1
 62
    18
420
    65793
370
     9
100
AcDbLine
 10
17.72509830422774
 20
-25.96945346764012
 30
0.0
 11
17.71066468369317
 21
-25.92684943202697
 31
0.0
  0
LINE
  5
13D
330
83
100
AcDbEntity
  8
Livello 1
 62
    18
420
    65793
370
     9
100
AcDbLine
 10
17.70955174027102
 20
-25.69925390710072
 30
0.0
 11
17.72357014334438
 21
-25.65650723635318
 31
0.0
  0
LINE
  5
13E
330
83
100
AcDbEntity
  8
Livello 1
 62
    18
420
    65793
370
     9
100
AcDbLine
 10
17.35337684724073
 20
-25.58719144659205
 30
0.0
 11
17.33894322670616
 21
-25.54458741097889
 31
0.0
  0
LINE
  5
13F
330
83
100
AcDbEntity
  8
Livello 1
 62
    18
420
    65793
370
     9
100
AcDbLine
 10
17.70878720542524
 20
-25.54278034147318
 30
0.0
 11
17.69477240222862
 21
-25.5855233769931
 31
0.0
  0
LINE
  5
140
330
83
100
AcDbEntity
  8
Livello 1
 62
    18
420
    65793
370
     9
100
AcDbLine
 10
18.57129951826546
 20
-25.92975571401771
 30
0.0
 11
18.55728471506884
 21
-25.97249874953956
 31
0.0
  0
LINE
  5
141
330
83
100
AcDbEntity
  8
Livello 1
 62
    18
420
    65793
370
     9
100
AcDbLine
 10
18.54860609839941
 20
-25.65247879752333
 30
0.0
 11
18.56303971893398
 21
-25.6950828331352
 31
0.0
  0
LINE
  5
142
330
83
100
AcDbEntity
  8
Livello 1
 62
    18
420
    65793
370
     9
100
AcDbLine
 10
19.01766733800026
 20
-24.12098255149823
 30
0.0
 11
19.06700302089871
 21
-24.02827738933524
 31
0.0
  0
LWPOLYLINE
  5
143
330
83
100
AcDbEntity
  8
Livello 1
 62
    18
420
    65793
370
     9
100
AcDbPolyline
 90
        5
 70
     0
 43
0.0
 10
19.14617628850526
 20
-24.21993103481866
 10
19.20952677460096
 20
-24.08448283713414
 10
19.3156212138629
 20
-23.96305215139168
 10
19.4360797737041
 20
-23.87000128939646
 10
19.58513026586851
 20
-23.8052571159662
  0
LWPOLYLINE
  5
144
330
83
100
AcDbEntity
  8
Livello 1
 62
    18
420
    65793
370
     9
100
AcDbPolyline
 90
        6
 70
     0
 43
0.0
 10
19.54023083462019
 20
-23.35027366600636
 10
19.64715839987341
 20
-23.3995398577889
 10
19.73285480606666
 20
-23.47024751727014
 10
19.80446509149417
 20
-23.56947220046876
 10
19.8405505060408
 20
-23.6759836394542
 10
19.85532893527693
 20
-23.78971326959175
  0
LWPOLYLINE
  5
145
330
83
100
AcDbEntity
  8
Livello 1
 62
    18
420
    65793
370
     9
100
AcDbPolyline
 90
        4
 70
     0
 43
0.0
 10
19.40964691934101
 20
-24.28265690362167
 10
19.45197565504475
 20
-24.21132370920302
 10
19.51567185864764
 20
-24.14700200601297
 10
19.59366537394753
 20
-24.09683137950879
  0
LWPOLYLINE
  5
146
330
83
100
AcDbEntity
  8
Livello 1
 62
    18
420
    65793
370
     9
100
AcDbPolyline
 90
        7
 70
     0
 43
0.0
 10
19.47556991859542
 20
-24.67352715025352
 10
19.37592820915958
 20
-24.65978673815941
 10
19.28322125589585
 20
-24.61045468164951
 10
19.20460220565951
 20
-24.53260016625862
 10
19.14721973197339
 20
-24.43330234787899
 10
19.12535943809894
 20
-24.32672230890864
 10
19.14617628850526
 20
-24.21993103481866
  0
LWPOLYLINE
  5
147
330
83
100
AcDbEntity
  8
Livello 1
 62
    18
420
    65793
370
     9
100
AcDbPolyline
 90
        3
 70
     0
 43
0.0
 10
19.43087898720821
 20
-24.26121633589176
 10
19.48035457882257
 20
-24.19696049742938
 10
19.5583490029284
 20
-24.14679077089367
  0
LWPOLYLINE
  5
148
330
83
100
AcDbEntity
  8
Livello 1
 62
    18
420
    65793
370
     9
100
AcDbPolyline
 90
        3
 70
     0
 43
0.0
 10
18.99678098763961
 20
-24.21354961372293
 10
19.00364893492754
 20
-24.16372922224578
 10
19.01766733800026
 20
-24.12098255149823
  0
LWPOLYLINE
  5
149
330
83
100
AcDbEntity
  8
Livello 1
 62
    18
420
    65793
370
     9
100
AcDbPolyline
 90
        6
 70
     0
 43
0.0
 10
18.90872238576481
 20
-23.65919794545968
 10
18.99427888324214
 20
-23.70145628124094
 10
19.05860331285227
 20
-23.76515518475146
 10
19.09454790987769
 20
-23.84321640006717
 10
19.0950335360995
 20
-23.94279221826225
 10
19.06700302089871
 20
-24.02827738933524
  0
LINE
  5
14A
330
83
100
AcDbEntity
  8
Livello 1
 62
    18
420
    65793
370
     9
100
AcDbLine
 10
19.56133582474205
 20
-24.75845902160132
 30
0.0
 11
19.58950893972668
 21
-24.70141863903415
 31
0.0
  0
LINE
  5
14B
330
83
100
AcDbEntity
  8
Livello 1
 62
    18
420
    65793
370
     9
100
AcDbLine
 10
19.59366537394753
 20
-24.09683137950879
 30
0.0
 11
19.65764139498064
 21
-24.08940832371998
 31
0.0
  0
LWPOLYLINE
  5
14C
330
83
100
AcDbEntity
  8
Livello 1
 62
    18
420
    65793
370
     9
100
AcDbPolyline
 90
        4
 70
     0
 43
0.0
 10
19.44566192512703
 20
-24.37494323077175
 10
19.42415094863619
 20
-24.33948605106921
 10
19.41686418401159
 20
-24.30395937141264
 10
19.43087898720821
 20
-24.26121633589176
  0
LWPOLYLINE
  5
14D
330
83
100
AcDbEntity
  8
Livello 1
 62
    18
420
    65793
370
     9
100
AcDbPolyline
 90
        3
 70
     0
 43
0.0
 10
19.43143771326111
 20
-24.3750127307261
 10
19.40277897205372
 20
-24.33247729509818
 10
19.40964691934101
 20
-24.28265690362167
  0
LWPOLYLINE
  5
14E
330
83
100
AcDbEntity
  8
Livello 1
 62
    18
420
    65793
370
     9
100
AcDbPolyline
 90
        3
 70
     0
 43
0.0
 10
19.5346816395476
 20
-23.67036675320295
 10
19.57041682790436
 20
-23.70575443295212
 10
19.58485044843893
 20
-23.74835846856463
  0
LWPOLYLINE
  5
14F
330
83
100
AcDbEntity
  8
Livello 1
 62
    18
420
    65793
370
     9
100
AcDbPolyline
 90
        3
 70
     0
 43
0.0
 10
19.54579195185421
 20
-24.48825492586583
 10
19.56730292834441
 20
-24.52371210556933
 10
19.56743923718358
 20
-24.55216506449662
  0
LWPOLYLINE
  5
150
330
83
100
AcDbEntity
  8
Livello 1
 62
    18
420
    65793
370
     9
100
AcDbPolyline
 90
        3
 70
     0
 43
0.0
 10
19.53940872198246
 20
-24.63765023556896
 10
19.51109569828289
 20
-24.66624129443614
 10
19.47556991859542
 20
-24.67352715025352
  0
LINE
  5
151
330
83
100
AcDbEntity
  8
Livello 1
 62
    18
420
    65793
370
     9
100
AcDbLine
 10
19.65056403902437
 20
-24.09655517963059
 30
0.0
 11
19.67894656267797
 21
-24.08218833262996
 31
0.0
  0
LWPOLYLINE
  5
152
330
83
100
AcDbEntity
  8
Livello 1
 62
    18
420
    65793
370
     9
100
AcDbPolyline
 90
        6
 70
     0
 43
0.0
 10
17.03815076003079
 20
-26.57737686636178
 10
16.92470005619183
 20
-26.64905666058207
 10
16.80396258772635
 20
-26.68520977514483
 10
16.66879149872694
 20
-26.67875885409508
 10
16.54063186560587
 20
-26.65093323004213
 10
16.43363029171498
 20
-26.58744556165251
  0
LWPOLYLINE
  5
153
330
83
100
AcDbEntity
  8
Livello 1
 62
    18
420
    65793
370
     9
100
AcDbPolyline
 90
       25
 70
     0
 43
0.0
 10
17.03481552964076
 20
-25.89458665635544
 10
16.94911912344879
 20
-25.82387899687388
 10
16.84225745827317
 20
-25.7888406521836
 10
16.73546889292767
 20
-25.76802288413386
 10
16.62173928046444
 20
-25.78280493092105
 10
16.51529643262644
 20
-25.83311365736449
 10
16.42314729660871
 20
-25.89757709571983
 10
16.35958740184371
 20
-25.99035175783781
 10
16.31739857485524
 20
-26.09013427595707
 10
16.30373218023467
 20
-26.20399927077697
 10
16.31851151827707
 20
-26.31772980088332
 10
16.36167337997338
 20
-26.41709348398967
 10
16.43321507425377
 20
-26.50209485529181
 10
16.51891057163947
 20
-26.57280161480394
 10
16.61869218979027
 20
-26.61499135059932
 10
16.73256080216091
 20
-26.6286577275446
 10
16.84628772355463
 20
-26.61388021595318
 10
16.94565321543668
 20
-26.5707183454197
 10
17.03065458673785
 20
-26.49917665113867
 10
17.10136224621909
 20
-26.41348024494639
 10
17.15062842916383
 20
-26.30655087091651
 10
17.16429751485359
 20
-26.19268134090084
 10
17.14243812978637
 20
-26.08610220190024
 10
17.10635631511521
 20
-25.97958712768815
 10
17.03481552964076
 20
-25.89458665635544
  0
LWPOLYLINE
  5
154
330
83
100
AcDbEntity
  8
Livello 1
 62
    18
420
    65793
370
     9
100
AcDbPolyline
 90
       21
 70
     0
 43
0.0
 10
17.01357986189745
 20
-25.91603085931169
 10
16.91365924383893
 20
-25.84539269978512
 10
16.7925760578669
 20
-25.81041931985341
 10
16.67163008954
 20
-25.80389979881874
 10
16.55089262107483
 20
-25.8400529133815
 10
16.44458877314488
 20
-25.91881006355678
 10
16.37395152242458
 20
-26.01873158158409
 10
16.33897996010636
 20
-26.13981656749464
 10
16.33960727730606
 20
-26.26783627422644
 10
16.38283594788752
 20
-26.38142870439416
 10
16.45444714212226
 20
-26.48065428756061
 10
16.55436776018014
 20
-26.55129244708847
 10
16.66837628126541
 20
-26.59340814773502
 10
16.79639691447907
 20
-26.59278534805549
 10
16.90998752703394
 20
-26.5495548775371
 10
17.00921311020136
 20
-26.47794368330237
 10
17.0869286256842
 20
-26.37087620933387
 10
17.1290470439127
 20
-26.25686857937894
 10
17.12134506182625
 20
-26.13599119336199
 10
17.08519105613219
 20
-26.01525644248007
 10
17.01357986189745
 20
-25.91603085931169
  0
LWPOLYLINE
  5
155
330
83
100
AcDbEntity
  8
Livello 1
 62
    18
420
    65793
370
     9
100
AcDbPolyline
 90
        3
 70
     0
 43
0.0
 10
17.38918244435778
 20
-25.63680423817592
 10
17.41069342084926
 20
-25.67226141787783
 10
17.41805059423415
 20
-25.72201320936974
  0
LWPOLYLINE
  5
156
330
83
100
AcDbEntity
  8
Livello 1
 62
    18
420
    65793
370
     9
100
AcDbPolyline
 90
        3
 70
     0
 43
0.0
 10
17.41909312889569
 20
-25.93538362246095
 10
17.4122215817323
 20
-25.98520764916541
 10
17.39105992262506
 20
-26.02087332873099
  0
LWPOLYLINE
  5
157
330
83
100
AcDbEntity
  8
Livello 1
 62
    18
420
    65793
370
     9
100
AcDbPolyline
 90
        3
 70
     0
 43
0.0
 10
16.06815215588508
 20
-26.02733890719941
 10
16.05372213522629
 20
-25.98473123636054
 10
16.03928760588514
 20
-25.94212630077796
  0
LWPOLYLINE
  5
158
330
83
100
AcDbEntity
  8
Livello 1
 62
    18
420
    65793
370
     9
100
AcDbPolyline
 90
        3
 70
     0
 43
0.0
 10
16.03824507122327
 20
-25.72875588768738
 10
16.05225987442086
 20
-25.68601285216554
 10
16.0662782774939
 20
-25.643266181418
  0
LINE
  5
159
330
83
100
AcDbEntity
  8
Livello 1
 62
    18
420
    65793
370
     9
100
AcDbLine
 10
16.49988886857776
 20
-25.59136252055629
 30
0.0
 11
16.5213998450686
 21
-25.62681970026012
 31
0.0
  0
LINE
  5
15A
330
83
100
AcDbEntity
  8
Livello 1
 62
    18
420
    65793
370
     9
100
AcDbLine
 10
16.93392187687535
 20
-25.6248022956026
 30
0.0
 11
16.96216089193822
 21
-25.5819897601277
 31
0.0
  0
LWPOLYLINE
  5
15B
330
83
100
AcDbEntity
  8
Livello 1
 62
    18
420
    65793
370
     9
100
AcDbPolyline
 90
        5
 70
     0
 43
0.0
 10
17.00504384501153
 20
-25.62445569580159
 10
17.06201201004272
 20
-25.63840370778931
 10
17.1119723190723
 20
-25.67372278755259
 10
17.14777791618935
 20
-25.72333557913711
 10
17.16228103667794
 20
-25.78016382661522
  0
LWPOLYLINE
  5
15C
330
83
100
AcDbEntity
  8
Livello 1
 62
    18
420
    65793
370
     9
100
AcDbPolyline
 90
        5
 70
     0
 43
0.0
 10
16.30171570205966
 20
-25.79148175648943
 10
16.30851414939294
 20
-25.727437153147
 10
16.34383412028753
 20
-25.67747412653578
 10
16.39344602074009
 20
-25.64167124700037
 10
16.45742473284208
 20
-25.63424365601611
  0
LWPOLYLINE
  5
15D
330
83
100
AcDbEntity
  8
Livello 1
 62
    18
420
    65793
370
     9
100
AcDbPolyline
 90
        3
 70
     0
 43
0.0
 10
16.34099643828202
 20
-26.55233408178091
 10
16.390816838596
 20
-26.55920383784357
 10
16.43363029171498
 20
-26.58744556165251
  0
LWPOLYLINE
  5
15E
330
83
100
AcDbEntity
  8
Livello 1
 62
    18
420
    65793
370
     9
100
AcDbPolyline
 90
        3
 70
     0
 43
0.0
 10
17.03815076003079
 20
-26.57737686636178
 10
17.08783216043802
 20
-26.55579819869389
 10
17.13758306079798
 20
-26.54844374288968
  0
LINE
  5
15F
330
83
100
AcDbEntity
  8
Livello 1
 62
    18
420
    65793
370
     9
100
AcDbLine
 10
17.34082070497344
 20
-25.92865650153332
 30
0.0
 11
17.33395184887957
 21
-25.97847599304137
 31
0.0
  0
LINE
  5
160
330
83
100
AcDbEntity
  8
Livello 1
 62
    18
420
    65793
370
     9
100
AcDbLine
 10
17.3252768320856
 20
-25.65845240579879
 30
0.0
 11
17.33970685274471
 21
-25.7010600766383
 31
0.0
  0
LINE
  5
161
330
83
100
AcDbEntity
  8
Livello 1
 62
    18
420
    65793
370
     9
100
AcDbLine
 10
16.1163784952378
 20
-25.70703458488254
 30
0.0
 11
16.13039329843506
 21
-25.66429154936198
 31
0.0
  0
LINE
  5
162
330
83
100
AcDbEntity
  8
Livello 1
 62
    18
420
    65793
370
     9
100
AcDbLine
 10
16.13906922403529
 20
-25.98431603657398
 30
0.0
 11
16.11748783878448
 21
-25.93463374503577
 31
0.0
  0
LWPOLYLINE
  5
163
330
83
100
AcDbEntity
  8
Livello 1
 62
    18
420
    65793
370
     9
100
AcDbPolyline
 90
        4
 70
     0
 43
0.0
 10
17.23611451788088
 20
-26.33458409486242
 10
17.20051832943281
 20
-26.32764483884541
 10
17.17192999698602
 20
-26.29933451505284
 10
17.15749637645112
 20
-26.25673047944032
  0
LWPOLYLINE
  5
164
330
83
100
AcDbEntity
  8
Livello 1
 62
    18
420
    65793
370
     9
100
AcDbPolyline
 90
        4
 70
     0
 43
0.0
 10
16.30400839778847
 20
-26.2609015534052
 10
16.29707004174025
 20
-26.29649683304636
 10
16.26876061791678
 20
-26.32508425668625
 10
16.22615748227273
 20
-26.33951696841487
  0
LWPOLYLINE
  5
165
330
83
100
AcDbEntity
  8
Livello 1
 62
    18
420
    65793
370
     9
100
AcDbPolyline
 90
        3
 70
     0
 43
0.0
 10
15.69629439005955
 20
-25.61662392722373
 10
15.68186076952434
 20
-25.57401989161185
 10
15.67450450494635
 20
-25.52426900008808
  0
LWPOLYLINE
  5
166
330
83
100
AcDbEntity
  8
Livello 1
 62
    18
420
    65793
370
     9
100
AcDbPolyline
 90
        3
 70
     0
 43
0.0
 10
15.7960055994491
 20
-25.64458855118472
 10
15.82466434065682
 20
-25.68712398681232
 10
15.82487374932515
 20
-25.72979752237854
  0
LWPOLYLINE
  5
167
330
83
100
AcDbEntity
  8
Livello 1
 62
    18
420
    65793
370
     9
100
AcDbPolyline
 90
        3
 70
     0
 43
0.0
 10
15.8259171927936
 20
-25.94316883543982
 10
15.81904564563052
 20
-25.99299286214364
 10
15.79788307771574
 20
-26.02865764173979
  0
LWPOLYLINE
  5
168
330
83
100
AcDbEntity
  8
Livello 1
 62
    18
420
    65793
370
     9
100
AcDbPolyline
 90
        3
 70
     0
 43
0.0
 10
16.19374469333735
 20
-25.52884425164657
 10
16.18680633728945
 20
-25.56443953128837
 10
16.16571057826142
 20
-25.61433305794589
  0
LINE
  5
169
330
83
100
AcDbEntity
  8
Livello 1
 62
    18
420
    65793
370
     9
100
AcDbLine
 10
15.76020000233141
 20
-25.5949757596015
 30
0.0
 11
15.74576638179716
 21
-25.55237172398834
 31
0.0
  0
LINE
  5
16A
330
83
100
AcDbEntity
  8
Livello 1
 62
    18
420
    65793
370
     9
100
AcDbLine
 10
16.1156103605172
 20
-25.55056465448198
 30
0.0
 11
16.10159555731994
 21
-25.59330769000191
 31
0.0
  0
LINE
  5
16B
330
83
100
AcDbEntity
  8
Livello 1
 62
    18
420
    65793
370
     9
100
AcDbLine
 10
15.7320999871766
 20
-25.66623671880824
 30
0.0
 11
15.74653091664229
 21
-25.70884528961588
 31
0.0
  0
LINE
  5
16C
330
83
100
AcDbEntity
  8
Livello 1
 62
    18
420
    65793
370
     9
100
AcDbLine
 10
15.75479071597409
 20
-25.94351817049839
 30
0.0
 11
15.74077591277683
 21
-25.9862612060196
 31
0.0
  0
LWPOLYLINE
  5
16D
330
83
100
AcDbEntity
  8
Livello 1
 62
    18
420
    65793
370
     9
100
AcDbPolyline
 90
        3
 70
     0
 43
0.0
 10
15.64293767297187
 20
-26.34236840787123
 10
15.62156660519631
 20
-26.3353605518693
 10
15.59304777270354
 20
-26.32127443994232
  0
LWPOLYLINE
  5
16E
330
83
100
AcDbEntity
  8
Livello 1
 62
    18
420
    65793
370
     9
100
AcDbPolyline
 90
        3
 70
     0
 43
0.0
 10
15.45010429285675
 20
-26.17972102104059
 10
15.43574017227652
 20
-26.15134119729367
 10
15.42852381641189
 20
-26.13003962947181
  0
LWPOLYLINE
  5
16F
330
83
100
AcDbEntity
  8
Livello 1
 62
    18
420
    65793
370
     9
100
AcDbPolyline
 90
        4
 70
     0
 43
0.0
 10
14.88444934330144
 20
-26.86529133526081
 10
14.84885315485305
 20
-26.8583520792438
 10
14.82741167831655
 20
-26.83711911140685
 10
14.82012491369163
 20
-26.80159243175061
  0
LWPOLYLINE
  5
170
330
83
100
AcDbEntity
  8
Livello 1
 62
    18
420
    65793
370
     9
100
AcDbPolyline
 90
        3
 70
     0
 43
0.0
 10
15.36315594333427
 20
-25.85296941290096
 10
15.41305035228561
 20
-25.87406064557166
 10
15.42748037294408
 20
-25.9166683164118
  0
LINE
  5
171
330
83
100
AcDbEntity
  8
Livello 1
 62
    18
420
    65793
370
     9
100
AcDbLine
 10
15.60322979712561
 20
-24.0380910291633
 30
0.0
 11
15.65346901477819
 21
-24.13030785635937
 31
0.0
  0
LWPOLYLINE
  5
172
330
83
100
AcDbEntity
  8
Livello 1
 62
    18
420
    65793
370
     9
100
AcDbPolyline
 90
        4
 70
     0
 43
0.0
 10
15.07733107011629
 20
-24.12600970464819
 10
15.14866335572835
 20
-24.16833754038283
 10
15.21298687653126
 20
-24.23203554392489
 10
15.26315659422949
 20
-24.31002815925471
  0
LWPOLYLINE
  5
173
330
83
100
AcDbEntity
  8
Livello 1
 62
    18
420
    65793
370
     9
100
AcDbPolyline
 90
        3
 70
     0
 43
0.0
 10
15.39985675291885
 20
-24.62942621156084
 10
15.30049035223054
 20
-24.6725871821252
 10
15.20105536039479
 20
-24.7015248407934
  0
LWPOLYLINE
  5
174
330
83
100
AcDbEntity
  8
Livello 1
 62
    18
420
    65793
370
     9
100
AcDbPolyline
 90
        5
 70
     0
 43
0.0
 10
15.5330808636976
 20
-24.23758383018929
 10
15.54071243702247
 20
-24.34423610437218
 10
15.52704335133368
 20
-24.45810563438753
 10
15.47770766843459
 20
-24.55081079655084
 10
15.39985675291885
 20
-24.62942621156084
  0
LWPOLYLINE
  5
175
330
83
100
AcDbEntity
  8
Livello 1
 62
    18
420
    65793
370
     9
100
AcDbPolyline
 90
        4
 70
     0
 43
0.0
 10
15.24171511769267
 20
-24.28879519141809
 10
15.18446804403881
 20
-24.21794943199726
 10
15.12021402318961
 20
-24.16847564032209
 10
14.80698889211715
 20
-24.113107862549
  0
LWPOLYLINE
  5
176
330
83
100
AcDbEntity
  8
Livello 1
 62
    18
420
    65793
370
     9
100
AcDbPolyline
 90
        3
 70
     0
 43
0.0
 10
15.65346901477819
 20
-24.13030785635937
 10
15.67505040003028
 20
-24.17999014789694
 10
15.67532570877653
 20
-24.23689153055638
  0
LWPOLYLINE
  5
177
330
83
100
AcDbEntity
  8
Livello 1
 62
    18
420
    65793
370
     9
100
AcDbPolyline
 90
        6
 70
     0
 43
0.0
 10
15.60322979712561
 20
-24.0380910291633
 10
15.57436164725052
 20
-23.9528820579682
 10
15.57394642978868
 20
-23.86753135160814
 10
15.60905790082152
 20
-23.77489568939852
 10
15.67275410442473
 20
-23.71057398620943
 10
15.75081802848523
 20
-23.67462847153964
  0
LINE
  5
178
330
83
100
AcDbEntity
  8
Livello 1
 62
    18
420
    65793
370
     9
100
AcDbLine
 10
15.08739524788557
 20
-24.73053109944619
 30
0.0
 11
15.10897572433012
 21
-24.78021249101465
 31
0.0
  0
LINE
  5
179
330
83
100
AcDbEntity
  8
Livello 1
 62
    18
420
    65793
370
     9
100
AcDbLine
 10
15.2562850470661
 20
-24.35985218595789
 30
0.0
 11
15.2279756232423
 21
-24.38843960959841
 31
0.0
  0
LWPOLYLINE
  5
17A
330
83
100
AcDbEntity
  8
Livello 1
 62
    18
420
    65793
370
     9
100
AcDbPolyline
 90
        3
 70
     0
 43
0.0
 10
15.24171511769267
 20
-24.28879519141809
 10
15.24899828244149
 20
-24.32432550630196
 10
15.2562850470661
 20
-24.35985218595789
  0
LWPOLYLINE
  5
17B
330
83
100
AcDbEntity
  8
Livello 1
 62
    18
420
    65793
370
     9
100
AcDbPolyline
 90
        3
 70
     0
 43
0.0
 10
15.26315659422949
 20
-24.31002815925471
 10
15.26336240302172
 20
-24.35270533004888
 10
15.2493475998251
 20
-24.3954483655688
  0
LWPOLYLINE
  5
17C
330
83
100
AcDbEntity
  8
Livello 1
 62
    18
420
    65793
370
     9
100
AcDbPolyline
 90
        3
 70
     0
 43
0.0
 10
15.20105536039479
 20
-24.7015248407934
 10
15.1583114072292
 20
-24.68750732885166
 10
15.13680043073804
 20
-24.65205014914911
  0
LWPOLYLINE
  5
17D
330
83
100
AcDbEntity
  8
Livello 1
 62
    18
420
    65793
370
     9
100
AcDbPolyline
 90
        3
 70
     0
 43
0.0
 10
15.10800268962292
 20
-24.58106628978903
 10
15.10779328095426
 20
-24.53839275422249
 10
15.12188209278792
 20
-24.50987119530998
  0
ENDBLK
  5
86
330
83
100
AcDbEntity
  8
0
100
AcDbBlockEnd
  0
ENDSEC
  0
SECTION
  2
ENTITIES
  0
LINE
  5
7B
330
70
100
AcDbEntity
  8
Livello 1
370
     9
100
AcDbLine
 10
74.18330663881889
 20
-41.9066043841433
 30
0.0
 11
74.18330663881889
 21
-51.62987987712815
 31
0.0
  0
LINE
  5
7C
330
70
100
AcDbEntity
  8
Livello 1
370
     9
100
AcDbLine
 10
80.18696650762398
 20
-41.9066043841433
 30
0.0
 11
80.18696650762398
 21
-51.62987987712815
 31
0.0
  0
LINE
  5
7D
330
70
100
AcDbEntity
  8
Livello 1
370
     9
100
AcDbLine
 10
80.38263483521546
 20
-42.10250654099871
 30
0.0
 11
80.38263483521546
 21
-51.4342115495384
 31
0.0
  0
LINE
  5
7E
330
70
100
AcDbEntity
  8
Livello 1
370
     9
100
AcDbLine
 10
74.18330663881889
 20
-51.04278136265159
 30
0.0
 11
80.18696650762398
 21
-51.04278136265159
 31
0.0
  0
LINE
  5
7F
330
70
100
AcDbEntity
  8
Livello 1
370
     9
100
AcDbLine
 10
74.18330663881889
 20
-51.63011370639206
 30
0.0
 11
80.18696650762398
 21
-51.63011370639206
 31
0.0
  0
LINE
  5
82
330
70
100
AcDbEntity
  8
Livello 1
370
     9
100
AcDbLine
 10
80.18696650762398
 20
-41.9066043841433
 30
0.0
 11
63.10807423792127
 21
-41.9066043841433
 31
0.0
  0
LINE
  5
1C3
330
70
100
AcDbEntity
  8
Livello 1
100
AcDbLine
 10
-8.079254574289151
 20
-41.90487404759553
 30
0.0
 11
74.18484991195902
 21
-41.90487404759553
 31
0.0
  0
LINE
  5
1C4
330
70
100
AcDbEntity
  8
Livello 1
100
AcDbLine
 10
74.18484991195902
 20
-41.90487404759553
 30
0.0
 11
74.18484991195902
 21
-51.62814954058037
 31
0.0
  0
LINE
  5
1C5
330
70
100
AcDbEntity
  8
Livello 1
100
AcDbLine
 10
74.18484991195902
 20
-51.62814954058037
 30
0.0
 11
-8.079254574289151
 21
-51.62814954058037
 31
0.0
  0
LINE
  5
1C6
330
70
100
AcDbEntity
  8
Livello 1
100
AcDbLine
 10
-8.079254574289151
 20
-51.62814954058037
 30
0.0
 11
-8.079254574289151
 21
-41.90487404759553
 31
0.0
  0
LINE
  5
1C7
330
70
100
AcDbEntity
  8
Livello 1
370
     9
100
AcDbLine
 10
-8.079254574289151
 20
-41.90487404759553
 30
0.0
 11
74.18484991195902
 21
-41.90487404759553
 31
0.0
  0
LINE
  5
1C8
330
70
100
AcDbEntity
  8
Livello 1
370
     9
100
AcDbLine
 10
74.18484991195902
 20
-41.90487404759553
 30
0.0
 11
74.18484991195902
 21
-51.62814954058037
 31
0.0
  0
LINE
  5
1C9
330
70
100
AcDbEntity
  8
Livello 1
370
     9
100
AcDbLine
 10
74.18484991195902
 20
-51.62814954058037
 30
0.0
 11
-8.079254574289151
 21
-51.62814954058037
 31
0.0
  0
LINE
  5
1CA
330
70
100
AcDbEntity
  8
Livello 1
370
     9
100
AcDbLine
 10
-8.079254574289151
 20
-51.62814954058037
 30
0.0
 11
-8.079254574289151
 21
-41.90487404759553
 31
0.0
  0
LINE
  5
1CB
330
70
100
AcDbEntity
  8
Livello 1
370
     9
100
AcDbLine
 10
80.18696650762398
 20
-51.63011370639206
 30
0.0
 11
80.31725617317684
 21
-51.56496887361736
 31
0.0
  0
LINE
  5
1CC
330
70
100
AcDbEntity
  8
Livello 1
370
     9
100
AcDbLine
 10
80.31725617317684
 20
-51.56496887361736
 30
0.0
 11
80.38263483521546
 21
-51.4342115495384
 31
0.0
  0
LINE
  5
1CD
330
70
100
AcDbEntity
  8
Livello 1
370
     9
100
AcDbLine
 10
80.38263483521546
 20
-50.97744946646576
 30
0.0
 11
80.38263483521546
 21
-50.97744946646576
 31
0.0
  0
LINE
  5
1CE
330
70
100
AcDbEntity
  8
Livello 1
370
     9
100
AcDbLine
 10
80.38263483521546
 20
-50.97744946646576
 30
0.0
 11
80.31753676829353
 21
-50.97744946646576
 31
0.0
  0
LINE
  5
1CF
330
70
100
AcDbEntity
  8
Livello 1
370
     9
100
AcDbLine
 10
80.31753676829353
 20
-50.97744946646576
 30
0.0
 11
80.31753676829353
 21
-51.04278136265159
 31
0.0
  0
LINE
  5
1D0
330
70
100
AcDbEntity
  8
Livello 1
370
     9
100
AcDbLine
 10
80.31753676829353
 20
-51.04278136265159
 30
0.0
 11
80.25239193551712
 21
-51.04278136265159
 31
0.0
  0
LINE
  5
1D1
330
70
100
AcDbEntity
  8
Livello 1
370
     9
100
AcDbLine
 10
80.25239193551712
 20
-51.04278136265159
 30
0.0
 11
80.18677944421284
 21
-51.04278136265159
 31
0.0
  0
LINE
  5
1D2
330
70
100
AcDbEntity
  8
Livello 1
370
     9
100
AcDbLine
 10
-24.66167802661565
 20
-52.05100959096455
 30
0.0
 11
-24.18068725370974
 21
-51.56529546702077
 31
0.0
  0
LINE
  5
1D3
330
70
100
AcDbEntity
  8
Livello 1
370
     9
100
AcDbLine
 10
-23.94754654941101
 20
-51.7961689830027
 30
0.0
 11
-23.81325246574251
 21
-51.58284131722734
 31
0.0
  0
LWPOLYLINE
  5
1D4
330
70
100
AcDbEntity
  8
Livello 1
370
     9
100
AcDbPolyline
 90
        3
 70
     0
 43
0.0
 10
-11.84730577752829
 20
-43.2298475209297
 10
-11.82409196853846
 20
-44.0224458252025
 10
-11.78820183518089
 20
-51.36941143604534
  0
LINE
  5
1D5
330
70
100
AcDbEntity
  8
Livello 1
370
     9
100
AcDbLine
 10
-23.37546273998428
 20
-50.16927784525125
 30
0.0
 11
-23.82232131511329
 21
-49.72676476845166
 31
0.0
  0
LINE
  5
1D6
330
70
100
AcDbEntity
  8
Livello 1
370
     9
100
AcDbLine
 10
-12.58180481606607
 20
-43.2721013937641
 30
0.0
 11
-12.58256546242101
 21
-43.11743001102914
 31
0.0
  0
LINE
  5
1D7
330
70
100
AcDbEntity
  8
Livello 1
370
     9
100
AcDbLine
 10
-12.57254951081359
 20
-45.16684211855392
 30
0.0
 11
-12.56915358519201
 21
-45.86287576528658
 31
0.0
  0
LINE
  5
1D8
330
70
100
AcDbEntity
  8
Livello 1
370
     9
100
AcDbLine
 10
-12.63814621829183
 20
-51.52823939075946
 30
0.0
 11
-12.63836023814016
 21
-47.52597983324828
 31
0.0
  0
LINE
  5
1D9
330
70
100
AcDbEntity
  8
Livello 1
370
     9
100
AcDbLine
 10
-12.67702686060201
 20
-47.52616875960206
 30
0.0
 11
-12.69589517125806
 21
-47.62294210725524
 31
0.0
  0
LINE
  5
1DA
330
70
100
AcDbEntity
  8
Livello 1
370
     9
100
AcDbLine
 10
-12.77323088665123
 20
-47.62331751351771
 30
0.0
 11
-12.77361120982913
 21
-47.54598182215067
 31
0.0
  0
LINE
  5
1DB
330
70
100
AcDbEntity
  8
Livello 1
370
     9
100
AcDbLine
 10
-13.51734293059519
 20
-49.65708545879601
 30
0.0
 11
-13.97908506966453
 21
-50.12336192645278
 31
0.0
  0
LINE
  5
1DC
330
70
100
AcDbEntity
  8
Livello 1
370
     9
100
AcDbLine
 10
-11.9421126196088
 20
-51.52483363130441
 30
0.0
 11
-25.35997883763983
 21
-51.59039621322262
 31
0.0
  0
LINE
  5
1DD
330
70
100
AcDbEntity
  8
Livello 1
370
     9
100
AcDbLine
 10
-23.18420297272782
 20
-49.74298559164001
 30
0.0
 11
-23.3394411825729
 21
-49.62773653678115
 31
0.0
  0
LINE
  5
1DE
330
70
100
AcDbEntity
  8
Livello 1
370
     9
100
AcDbLine
 10
-24.67399606984176
 20
-45.5739952930757
 30
0.0
 11
-24.75227888747157
 21
-45.38103514058557
 31
0.0
  0
LINE
  5
1DF
330
70
100
AcDbEntity
  8
Livello 1
370
     9
100
AcDbLine
 10
-13.46396209898172
 20
-48.70942060176738
 30
0.0
 11
-13.47923577188205
 21
-49.54088433673457
 31
0.0
  0
LINE
  5
1E0
330
70
100
AcDbEntity
  8
Livello 1
370
     9
100
AcDbLine
 10
-12.62989551757945
 20
-45.30247101502449
 30
0.0
 11
-12.70609273390924
 21
-45.53485104894302
 31
0.0
  0
LINE
  5
1E1
330
70
100
AcDbEntity
  8
Livello 1
370
     9
100
AcDbLine
 10
-14.17451119468047
 20
-49.69895903248038
 30
0.0
 11
-13.98173260518187
 21
-49.58200709789225
 31
0.0
  0
LINE
  5
1E2
330
70
100
AcDbEntity
  8
Livello 1
370
     9
100
AcDbLine
 10
-21.83081465407695
 20
-49.73637043452084
 30
0.0
 11
-22.14224064647584
 21
-49.31253431960542
 31
0.0
  0
LINE
  5
1E3
330
70
100
AcDbEntity
  8
Livello 1
370
     9
100
AcDbLine
 10
-23.05575363806585
 20
-48.33092619115718
 30
0.0
 11
-23.15308637739547
 21
-48.19606043553454
 31
0.0
  0
LINE
  5
1E4
330
70
100
AcDbEntity
  8
Livello 1
370
     9
100
AcDbLine
 10
-22.97936749538314
 20
-48.13721277969875
 30
0.0
 11
-22.88203475605177
 21
-48.27207853531789
 31
0.0
  0
LINE
  5
1E5
330
70
100
AcDbEntity
  8
Livello 1
370
     9
100
AcDbLine
 10
-13.97908506966453
 20
-50.12336192645278
 30
0.0
 11
-13.97626086404236
 21
-50.7033908129097
 31
0.0
  0
LINE
  5
1E6
330
70
100
AcDbEntity
  8
Livello 1
370
     9
100
AcDbLine
 10
-14.14453062794115
 20
-47.92003169516219
 30
0.0
 11
-14.14604945017982
 21
-47.61069137613733
 31
0.0
  0
LINE
  5
1E7
330
70
100
AcDbEntity
  8
Livello 1
370
     9
100
AcDbLine
 10
-14.31674047349518
 20
-48.28822955190418
 30
0.0
 11
-14.22073763005043
 21
-48.15242161096208
 31
0.0
  0
LINE
  5
1E8
330
70
100
AcDbEntity
  8
Livello 1
370
     9
100
AcDbLine
 10
-14.3950257615962
 20
-48.09526695297073
 30
0.0
 11
-14.49103839082304
 21
-48.23108477579244
 31
0.0
  0
LINE
  5
1E9
330
70
100
AcDbEntity
  8
Livello 1
370
     9
100
AcDbLine
 10
-15.52789951333046
 20
-49.70557418959607
 30
0.0
 11
-15.22062762243776
 21
-49.27870772148983
 31
0.0
  0
LINE
  5
1EA
330
70
100
AcDbEntity
  8
Livello 1
370
     9
100
AcDbLine
 10
-19.23513539254947
 20
-50.72908830053324
 30
0.0
 11
-16.91504217704892
 21
-50.71774979237882
 31
0.0
  0
LINE
  5
1EB
330
70
100
AcDbEntity
  8
Livello 1
370
     9
100
AcDbLine
 10
-13.97626086404236
 20
-50.7033908129097
 30
0.0
 11
-16.10300624051436
 21
-50.71377970031011
 31
0.0
  0
LINE
  5
1EC
330
70
100
AcDbEntity
  8
Livello 1
370
     9
100
AcDbLine
 10
-21.40054986195106
 20
-50.73966366784151
 30
0.0
 11
-23.37262627811055
 21
-50.74929929627189
 31
0.0
  0
LINE
  5
1ED
330
70
100
AcDbEntity
  8
Livello 1
370
     9
100
AcDbLine
 10
-20.49344839842893
 20
-50.40654019420021
 30
0.0
 11
-20.18411047780127
 21
-50.40503367626187
 31
0.0
  0
LINE
  5
1EE
330
70
100
AcDbEntity
  8
Livello 1
370
     9
100
AcDbLine
 10
-16.91692906621655
 20
-50.33106634655413
 30
0.0
 11
-16.08546535527112
 21
-50.34633510253817
 31
0.0
  0
LINE
  5
1EF
330
70
100
AcDbEntity
  8
Livello 1
370
     9
100
AcDbLine
 10
-21.94946205697985
 20
-49.19558238502077
 30
0.0
 11
-21.65746630945781
 21
-49.60017720543838
 31
0.0
  0
LINE
  5
1F0
330
70
100
AcDbEntity
  8
Livello 1
370
     9
100
AcDbLine
 10
-14.19321320200868
 20
-45.8708085139903
 30
0.0
 11
-14.18115384368964
 21
-44.38199008307964
 31
0.0
  0
LINE
  5
1F1
330
70
100
AcDbEntity
  8
Livello 1
370
     9
100
AcDbLine
 10
-14.35767677876767
 20
-47.82439689461678
 30
0.0
 11
-14.35692591819744
 21
-47.979078159234
 31
0.0
  0
LINE
  5
1F2
330
70
100
AcDbEntity
  8
Livello 1
370
     9
100
AcDbLine
 10
-14.34804846564991
 20
-49.79648563910099
 30
0.0
 11
-14.32710186900386
 21
-50.12506480618031
 31
0.0
  0
LINE
  5
1F3
330
70
100
AcDbEntity
  8
Livello 1
370
     9
100
AcDbLine
 10
-14.35182471445026
 20
-49.02311630100303
 30
0.0
 11
-14.35485010267864
 21
-48.40442822752053
 31
0.0
  0
LINE
  5
1F4
330
70
100
AcDbEntity
  8
Livello 1
370
     9
100
AcDbLine
 10
-14.42765139338599
 20
-49.33284190816998
 30
0.0
 11
-14.4263214975011
 21
-49.60351560473297
 31
0.0
  0
LINE
  5
1F5
330
70
100
AcDbEntity
  8
Livello 1
370
     9
100
AcDbLine
 10
-14.4350198094726
 20
-47.82478462920571
 30
0.0
 11
-14.43595959640096
 21
-47.6314367421284
 31
0.0
  0
LINE
  5
1F6
330
70
100
AcDbEntity
  8
Livello 1
370
     9
100
AcDbLine
 10
-14.56723560715284
 20
-48.46346480971098
 30
0.0
 11
-14.56439914528085
 21
-49.04348626073336
 31
0.0
  0
LINE
  5
1F7
330
70
100
AcDbEntity
  8
Livello 1
370
     9
100
AcDbLine
 10
-14.58968876978773
 20
-47.82553788817401
 30
0.0
 11
-14.61006611690296
 21
-47.61296103492534
 31
0.0
  0
LINE
  5
1F8
330
70
100
AcDbEntity
  8
Livello 1
370
     9
100
AcDbLine
 10
-15.37586583228284
 20
-49.16345866663271
 30
0.0
 11
-15.68313772317641
 21
-49.5903251347372
 31
0.0
  0
LINE
  5
1F9
330
70
100
AcDbEntity
  8
Livello 1
370
     9
100
AcDbLine
 10
-23.29812949506232
 20
-50.16889999254193
 30
0.0
 11
-21.71272424445332
 21
-50.1611487347592
 31
0.0
  0
LINE
  5
1FA
330
70
100
AcDbEntity
  8
Livello 1
370
     9
100
AcDbLine
 10
-18.96729077047357
 20
-50.14773937604756
 30
0.0
 11
-16.91787863892265
 21
-50.13772834135469
 31
0.0
  0
LINE
  5
1FB
330
70
100
AcDbEntity
  8
Livello 1
370
     9
100
AcDbLine
 10
-16.08660385433363
 20
-50.11433047488035
 30
0.0
 11
-14.03719172278271
 21
-50.10431944018749
 31
0.0
  0
LINE
  5
1FC
330
70
100
AcDbEntity
  8
Livello 1
370
     9
100
AcDbLine
 10
-16.93824620025578
 20
-49.9251416062264
 30
0.0
 11
-16.08754364126025
 21
-49.9209825878048
 31
0.0
  0
LINE
  5
1FD
330
70
100
AcDbEntity
  8
Livello 1
370
     9
100
AcDbLine
 10
-20.9791625223727
 20
-49.92554942129518
 30
0.0
 11
-20.47647676271736
 21
-49.92309328259936
 31
0.0
  0
LINE
  5
1FE
330
70
100
AcDbEntity
  8
Livello 1
370
     9
100
AcDbLine
 10
-20.20580546455069
 20
-49.92177569101393
 30
0.0
 11
-19.7031197048971
 21
-49.91931955231809
 31
0.0
  0
LINE
  5
1FF
330
70
100
AcDbEntity
  8
Livello 1
370
     9
100
AcDbLine
 10
-23.00971612904792
 20
-49.83879699021187
 30
0.0
 11
-22.00434460973725
 21
-49.83388471282196
 31
0.0
  0
LINE
  5
200
330
70
100
AcDbEntity
  8
Livello 1
370
     9
100
AcDbLine
 10
-15.33418360737819
 20
-49.78196769564015
 30
0.0
 11
-14.34804846564991
 21
-49.79648563910099
 31
0.0
  0
LINE
  5
201
330
70
100
AcDbEntity
  8
Livello 1
370
     9
100
AcDbLine
 10
-15.09332410215091
 20
-47.63465602167214
 30
0.0
 11
-15.09237699991253
 21
-47.82799158042475
 31
0.0
  0
LINE
  5
202
330
70
100
AcDbEntity
  8
Livello 1
370
     9
100
AcDbLine
 10
-15.14443040611058
 20
-49.04632768757128
 30
0.0
 11
-15.1472570821996
 21
-48.46629635467103
 31
0.0
  0
LINE
  5
203
330
70
100
AcDbEntity
  8
Livello 1
370
     9
100
AcDbLine
 10
-15.26742330734115
 20
-47.61616798614436
 30
0.0
 11
-15.26628480827952
 21
-47.84817261380217
 31
0.0
  0
LINE
  5
204
330
70
100
AcDbEntity
  8
Livello 1
370
     9
100
AcDbLine
 10
-15.25759628208839
 20
-49.62691347120905
 30
0.0
 11
-15.25891392172258
 21
-49.35623233921327
 31
0.0
  0
LINE
  5
205
330
70
100
AcDbEntity
  8
Livello 1
370
     9
100
AcDbLine
 10
-17.49997592948734
 20
-49.71520981802471
 30
0.0
 11
-17.32662758486994
 21
-49.57901658894225
 31
0.0
  0
LINE
  5
206
330
70
100
AcDbEntity
  8
Livello 1
370
     9
100
AcDbLine
 10
-14.4263214975011
 20
-49.60351560473297
 30
0.0
 11
-15.25759628208839
 21
-49.62691347120905
 31
0.0
  0
LINE
  5
207
330
70
100
AcDbEntity
  8
Livello 1
370
     9
100
AcDbLine
 10
-22.10186627542067
 20
-49.66035233473747
 30
0.0
 11
-22.91390221195522
 21
-49.66432242680618
 31
0.0
  0
LINE
  5
208
330
70
100
AcDbEntity
  8
Livello 1
370
     9
100
AcDbLine
 10
-19.72386511893693
 20
-49.62939957226783
 30
0.0
 11
-20.18788425613041
 21
-49.63166678460901
 31
0.0
  0
LINE
  5
209
330
70
100
AcDbEntity
  8
Livello 1
370
     9
100
AcDbLine
 10
-20.49723443301137
 20
-49.63318073798188
 30
0.0
 11
-20.96125357020398
 21
-49.63544795032305
 31
0.0
  0
LINE
  5
20A
330
70
100
AcDbEntity
  8
Livello 1
370
     9
100
AcDbLine
 10
-19.00860492845362
 20
-49.60657347383818
 30
0.0
 11
-18.85336424813821
 21
-49.72182497514388
 31
0.0
  0
LINE
  5
20B
330
70
100
AcDbEntity
  8
Livello 1
370
     9
100
AcDbLine
 10
-15.36022162198757
 20
-48.40934050491044
 30
0.0
 11
-15.33776845935442
 21
-49.04726742644741
 31
0.0
  0
LINE
  5
20C
330
70
100
AcDbEntity
  8
Livello 1
370
     9
100
AcDbLine
 10
-15.33247585878487
 20
-50.12997463712862
 30
0.0
 11
-15.33418360737819
 21
-49.78196769564015
 31
0.0
  0
LINE
  5
20D
330
70
100
AcDbEntity
  8
Livello 1
370
     9
100
AcDbLine
 10
-15.3622999079767
 20
-47.9839879901788
 30
0.0
 11
-15.3630580838613
 21
-47.82931905388805
 31
0.0
  0
LINE
  5
20E
330
70
100
AcDbEntity
  8
Livello 1
370
     9
100
AcDbLine
 10
-15.47471492338428
 20
-48.71925503843204
 30
0.0
 11
-15.4526420839273
 21
-49.27984626860197
 31
0.0
  0
LINE
  5
20F
330
70
100
AcDbEntity
  8
Livello 1
370
     9
100
AcDbLine
 10
-15.47018296916879
 20
-49.64729086637391
 30
0.0
 11
-15.46790597104552
 21
-50.11130012168778
 31
0.0
  0
LINE
  5
210
330
70
100
AcDbEntity
  8
Livello 1
370
     9
100
AcDbLine
 10
-15.5573432393444
 20
-47.63692323401506
 30
0.0
 11
-15.55601581392723
 21
-47.90759448413298
 31
0.0
  0
LINE
  5
211
330
70
100
AcDbEntity
  8
Livello 1
370
     9
100
AcDbLine
 10
-20.20957924287984
 20
-49.14840879936106
 30
0.0
 11
-20.48026279729981
 21
-49.14973382637927
 31
0.0
  0
LINE
  5
212
330
70
100
AcDbEntity
  8
Livello 1
370
     9
100
AcDbLine
 10
-16.92297005688599
 20
-49.09368031770778
 30
0.0
 11
-16.11094637660387
 21
-49.08971766107013
 31
0.0
  0
LINE
  5
213
330
70
100
AcDbEntity
  8
Livello 1
370
     9
100
AcDbLine
 10
-12.65155562505136
 20
-48.78279608294536
 30
0.0
 11
-13.46359156158765
 21
-48.7867661750158
 31
0.0
  0
LINE
  5
214
330
70
100
AcDbEntity
  8
Livello 1
370
     9
100
AcDbLine
 10
-23.86533096543423
 20
-48.8375844893263
 30
0.0
 11
-24.71603352442977
 21
-48.8417435077479
 31
0.0
  0
LINE
  5
215
330
70
100
AcDbEntity
  8
Livello 1
370
     9
100
AcDbLine
 10
-12.65193594822926
 20
-48.70546039158005
 30
0.0
 11
-14.35333128043911
 21
-48.71376854654364
 31
0.0
  0
LINE
  5
216
330
70
100
AcDbEntity
  8
Livello 1
370
     9
100
AcDbLine
 10
-14.54667911946592
 20
-48.71471816730114
 30
0.0
 11
-15.14612836891919
 21
-48.69831086420671
 31
0.0
  0
LINE
  5
217
330
70
100
AcDbEntity
  8
Livello 1
370
     9
100
AcDbLine
 10
-15.33946642216564
 20
-48.69925060308283
 30
0.0
 11
-15.47471492338428
 21
-48.71925503843204
 31
0.0
  0
LINE
  5
218
330
70
100
AcDbEntity
  8
Livello 1
370
     9
100
AcDbLine
 10
-21.89363487245353
 20
-48.7506131695271
 30
0.0
 11
-22.00963721030593
 21
-48.75117750214424
 31
0.0
  0
LINE
  5
219
330
70
100
AcDbEntity
  8
Livello 1
370
     9
100
AcDbLine
 10
-22.22241035327066
 20
-48.73289072129234
 30
0.0
 11
-22.80243182831655
 21
-48.7357222662489
 31
0.0
  0
LINE
  5
21A
330
70
100
AcDbEntity
  8
Livello 1
370
     9
100
AcDbLine
 10
-23.01500872961661
 20
-48.75608977953241
 30
0.0
 11
-24.71641384760855
 21
-48.76440781638084
 31
0.0
  0
LINE
  5
21B
330
70
100
AcDbEntity
  8
Livello 1
370
     9
100
AcDbLine
 10
-16.10300624051436
 20
-50.71377970031011
 30
0.0
 11
-16.09906615885565
 21
-47.56222272581974
 31
0.0
  0
LINE
  5
21C
330
70
100
AcDbEntity
  8
Livello 1
370
     9
100
AcDbLine
 10
-21.0840550746148
 20
-48.24395731780134
 30
0.0
 11
-19.59542557005792
 21
-48.21735005366288
 31
0.0
  0
LINE
  5
21D
330
70
100
AcDbEntity
  8
Livello 1
370
     9
100
AcDbLine
 10
-16.91504217704892
 20
-50.71774979237882
 30
0.0
 11
-16.93052986979758
 21
-47.54695396983397
 31
0.0
  0
LINE
  5
21E
330
70
100
AcDbEntity
  8
Livello 1
370
     9
100
AcDbLine
 10
-17.64220767877413
 20
-48.30447789100693
 30
0.0
 11
-17.54620236485991
 21
-48.16867239650816
 31
0.0
  0
LINE
  5
21F
330
70
100
AcDbEntity
  8
Livello 1
370
     9
100
AcDbLine
 10
-17.72049049640569
 20
-48.11151773851679
 30
0.0
 11
-17.81649581031815
 21
-48.24732323301556
 31
0.0
  0
LINE
  5
220
330
70
100
AcDbEntity
  8
Livello 1
370
     9
100
AcDbLine
 10
-18.85336424813821
 20
-49.72182497514388
 30
0.0
 11
-18.54609235724811
 21
-49.29495850704112
 31
0.0
  0
LINE
  5
221
330
70
100
AcDbEntity
  8
Livello 1
370
     9
100
AcDbLine
 10
-14.35767677876767
 20
-47.82439689461678
 30
0.0
 11
-15.3630580838613
 21
-47.82931905388805
 31
0.0
  0
LINE
  5
222
330
70
100
AcDbEntity
  8
Livello 1
370
     9
100
AcDbLine
 10
-17.68314151357889
 20
-47.8406476801681
 30
0.0
 11
-18.68851303288782
 21
-47.845559957558
 31
0.0
  0
LINE
  5
223
330
70
100
AcDbEntity
  8
Livello 1
370
     9
100
AcDbLine
 10
-22.01398023816764
 20
-47.86180829666248
 30
0.0
 11
-23.01935175747656
 21
-47.86672057405412
 31
0.0
  0
LINE
  5
224
330
70
100
AcDbEntity
  8
Livello 1
370
     9
100
AcDbLine
 10
-19.73274257148184
 20
-47.81199209239562
 30
0.0
 11
-20.97013102275064
 21
-47.81804047045431
 31
0.0
  0
LINE
  5
225
330
70
100
AcDbEntity
  8
Livello 1
370
     9
100
AcDbLine
 10
-24.72169666239513
 20
-47.68169072382351
 30
0.0
 11
-16.9301520170909
 21
-47.62428721475679
 31
0.0
  0
LINE
  5
226
330
70
100
AcDbEntity
  8
Livello 1
370
     9
100
AcDbLine
 10
-16.09869809193017
 20
-47.63956585262046
 30
0.0
 11
-12.65722854879882
 21
-47.62275318090059
 31
0.0
  0
LINE
  5
227
330
70
100
AcDbEntity
  8
Livello 1
370
     9
100
AcDbLine
 10
-24.72207698557129
 20
-47.60435503245473
 30
0.0
 11
-16.93052986979758
 21
-47.54695396983397
 31
0.0
  0
LINE
  5
228
330
70
100
AcDbEntity
  8
Livello 1
370
     9
100
AcDbLine
 10
-16.09906615885565
 20
-47.56222272581974
 30
0.0
 11
-12.63836023814016
 21
-47.52597983324828
 31
0.0
  0
LINE
  5
229
330
70
100
AcDbEntity
  8
Livello 1
370
     9
100
AcDbLine
 10
-18.8222476528076
 20
-48.17489981904016
 30
0.0
 11
-18.72491491347709
 21
-48.30976557466104
 31
0.0
  0
LINE
  5
22A
330
70
100
AcDbEntity
  8
Livello 1
370
     9
100
AcDbLine
 10
-17.46999783321749
 20
-47.93628003426491
 30
0.0
 11
-17.47150439920721
 21
-47.62693227980727
 31
0.0
  0
LINE
  5
22B
330
70
100
AcDbEntity
  8
Livello 1
370
     9
100
AcDbLine
 10
-18.70133303756179
 20
-49.1797070057337
 30
0.0
 11
-19.00860492845362
 21
-49.60657347383818
 31
0.0
  0
LINE
  5
22C
330
70
100
AcDbEntity
  8
Livello 1
370
     9
100
AcDbLine
 10
-15.68313772317641
 20
-49.5903251347372
 30
0.0
 11
-15.52789951333046
 21
-49.70557418959607
 31
0.0
  0
LINE
  5
22D
330
70
100
AcDbEntity
  8
Livello 1
370
     9
100
AcDbLine
 10
-17.81140192188709
 20
-49.29137370310929
 30
0.0
 11
-17.49997592948734
 21
-49.71520981802471
 31
0.0
  0
LINE
  5
22E
330
70
100
AcDbEntity
  8
Livello 1
370
     9
100
AcDbLine
 10
-17.32662758486994
 20
-49.57901658894225
 30
0.0
 11
-17.63805357726795
 21
-49.15518047402684
 31
0.0
  0
LINE
  5
22F
330
70
100
AcDbEntity
  8
Livello 1
370
     9
100
AcDbLine
 10
-18.55119603146389
 20
-48.25091791882353
 30
0.0
 11
-18.64852877079351
 21
-48.11605216320262
 31
0.0
  0
LINE
  5
230
330
70
100
AcDbEntity
  8
Livello 1
370
     9
100
AcDbLine
 10
-17.63597529127881
 20
-49.58053298875847
 30
0.0
 11
-17.63464786586339
 21
-49.85120423887813
 31
0.0
  0
LINE
  5
231
330
70
100
AcDbEntity
  8
Livello 1
370
     9
100
AcDbLine
 10
-17.68314151357889
 20
-47.8406476801681
 30
0.0
 11
-17.68239312347726
 21
-47.99532649833673
 31
0.0
  0
LINE
  5
232
330
70
100
AcDbEntity
  8
Livello 1
370
     9
100
AcDbLine
 10
-17.67728944925974
 20
-49.03936708655084
 30
0.0
 11
-17.68031483748725
 21
-48.42067901306836
 31
0.0
  0
LINE
  5
233
330
70
100
AcDbEntity
  8
Livello 1
370
     9
100
AcDbLine
 10
-17.76047722896944
 20
-47.84102308642882
 30
0.0
 11
-17.7614243312087
 21
-47.64768752767796
 31
0.0
  0
LINE
  5
234
330
70
100
AcDbEntity
  8
Livello 1
370
     9
100
AcDbLine
 10
-17.89270281243179
 20
-48.47971314881545
 30
0.0
 11
-17.88986635055806
 21
-49.05973459983608
 31
0.0
  0
LINE
  5
235
330
70
100
AcDbEntity
  8
Livello 1
370
     9
100
AcDbLine
 10
-17.93439482312115
 20
-47.86121400168587
 30
0.0
 11
-17.93552353639982
 21
-47.62919949214845
 31
0.0
  0
LINE
  5
236
330
70
100
AcDbEntity
  8
Livello 1
370
     9
100
AcDbLine
 10
-21.65746630945781
 20
-49.60017720543838
 30
0.0
 11
-21.83081465407695
 21
-49.73637043452084
 31
0.0
  0
LINE
  5
237
330
70
100
AcDbEntity
  8
Livello 1
370
     9
100
AcDbLine
 10
-12.40393183254582
 20
-44.06395632094736
 30
0.0
 11
-12.65460610677342
 21
-44.2005150744153
 31
0.0
  0
LINE
  5
238
330
70
100
AcDbEntity
  8
Livello 1
370
     9
100
AcDbLine
 10
-18.43820929605341
 20
-47.63165563084426
 30
0.0
 11
-18.43708058277474
 21
-47.86367014038169
 31
0.0
  0
LINE
  5
239
330
70
100
AcDbEntity
  8
Livello 1
370
     9
100
AcDbLine
 10
-18.46988782560482
 20
-49.06256614479264
 30
0.0
 11
-18.47272181700908
 21
-48.4825471402171
 31
0.0
  0
LINE
  5
23A
330
70
100
AcDbEntity
  8
Livello 1
370
     9
100
AcDbLine
 10
-18.59288804215063
 20
-47.63241877169394
 30
0.0
 11
-18.591749543089
 21
-47.86442339934999
 31
0.0
  0
LINE
  5
23B
330
70
100
AcDbEntity
  8
Livello 1
370
     9
100
AcDbLine
 10
-18.68568882726652
 20
-48.42558884401491
 30
0.0
 11
-18.68266096856954
 21
-49.0442793639425
 31
0.0
  0
LINE
  5
23C
330
70
100
AcDbEntity
  8
Livello 1
370
     9
100
AcDbLine
 10
-18.68776464278532
 20
-48.00023877572662
 30
0.0
 11
-18.68851303288782
 21
-47.845559957558
 31
0.0
  0
LINE
  5
23D
330
70
100
AcDbEntity
  8
Livello 1
370
     9
100
AcDbLine
 10
-12.56915358519201
 20
-45.86287576528658
 30
0.0
 11
-14.19321320200868
 21
-45.8708085139903
 31
0.0
  0
LINE
  5
23E
330
70
100
AcDbEntity
  8
Livello 1
370
     9
100
AcDbLine
 10
-23.20290745052551
 20
-45.91483262670572
 30
0.0
 11
-24.80753929293741
 21
-45.94200422346393
 31
0.0
  0
LINE
  5
23F
330
70
100
AcDbEntity
  8
Livello 1
370
     9
100
AcDbLine
 10
-18.88280065884125
 20
-47.6531616912399
 30
0.0
 11
-18.88148054873846
 21
-47.92384526968427
 31
0.0
  0
LINE
  5
240
330
70
100
AcDbEntity
  8
Livello 1
370
     9
100
AcDbLine
 10
-19.16799723980662
 20
-48.64062183596116
 30
0.0
 11
-19.18100370036404
 21
-49.93610470812184
 31
0.0
  0
LINE
  5
241
330
70
100
AcDbEntity
  8
Livello 1
370
     9
100
AcDbLine
 10
-19.7031197048971
 20
-49.91931955231809
 30
0.0
 11
-19.72386511893693
 21
-49.62939957226783
 31
0.0
  0
LINE
  5
242
330
70
100
AcDbEntity
  8
Livello 1
370
     9
100
AcDbLine
 10
-19.71199715744201
 20
-48.10191207244936
 30
0.0
 11
-19.73350321783678
 21
-47.65732070966327
 31
0.0
  0
LINE
  5
243
330
70
100
AcDbEntity
  8
Livello 1
370
     9
100
AcDbLine
 10
-14.48593718707761
 20
-49.27512291756322
 30
0.0
 11
-14.17451119468047
 21
-49.69895903248038
 31
0.0
  0
LINE
  5
244
330
70
100
AcDbEntity
  8
Livello 1
370
     9
100
AcDbLine
 10
-15.47754159947591
 20
-48.13922370553179
 30
0.0
 11
-15.39945749397937
 21
-48.29352711743794
 31
0.0
  0
LINE
  5
245
330
70
100
AcDbEntity
  8
Livello 1
370
     9
100
AcDbLine
 10
-15.22572882618319
 20
-48.23466957971905
 30
0.0
 11
-15.32306156551456
 21
-48.09980382409989
 31
0.0
  0
LINE
  5
246
330
70
100
AcDbEntity
  8
Livello 1
370
     9
100
AcDbLine
 10
-20.18411047780127
 20
-50.40503367626187
 30
0.0
 11
-20.20580546455069
 21
-49.92177569101393
 31
0.0
  0
LINE
  5
247
330
70
100
AcDbEntity
  8
Livello 1
370
     9
100
AcDbLine
 10
-20.18788425613041
 20
-49.63166678460901
 30
0.0
 11
-20.20957924287984
 21
-49.14840879936106
 31
0.0
  0
LINE
  5
248
330
70
100
AcDbEntity
  8
Livello 1
370
     9
100
AcDbLine
 10
-21.88796194870694
 20
-49.91065607157189
 30
0.0
 11
-22.00283557327894
 21
-50.14323491372294
 31
0.0
  0
LINE
  5
249
330
70
100
AcDbEntity
  8
Livello 1
370
     9
100
AcDbLine
 10
-21.87704108944779
 20
-48.18983301300253
 30
0.0
 11
-21.97304640336374
 21
-48.3256385075013
 31
0.0
  0
LINE
  5
24A
330
70
100
AcDbEntity
  8
Livello 1
370
     9
100
AcDbLine
 10
-22.14733453490865
 20
-48.26848384950994
 30
0.0
 11
-22.05132922099355
 21
-48.13267835501117
 31
0.0
  0
LINE
  5
24B
330
70
100
AcDbEntity
  8
Livello 1
370
     9
100
AcDbLine
 10
-22.87693108183774
 20
-49.31611912353551
 30
0.0
 11
-23.18420297272782
 21
-49.74298559164001
 31
0.0
  0
LINE
  5
24C
330
70
100
AcDbEntity
  8
Livello 1
370
     9
100
AcDbLine
 10
-11.82409196853846
 20
-44.0224458252025
 30
0.0
 11
-12.38469298449134
 21
-44.04452854653824
 31
0.0
  0
LINE
  5
24D
330
70
100
AcDbEntity
  8
Livello 1
370
     9
100
AcDbLine
 10
-13.98173260518187
 20
-49.58200709789225
 30
0.0
 11
-14.29315859758161
 21
-49.15817098297683
 31
0.0
  0
LINE
  5
24E
330
70
100
AcDbEntity
  8
Livello 1
370
     9
100
AcDbLine
 10
-20.48026279729981
 20
-49.14973382637927
 30
0.0
 11
-20.49723443301137
 21
-49.63318073798188
 31
0.0
  0
LINE
  5
24F
330
70
100
AcDbEntity
  8
Livello 1
370
     9
100
AcDbLine
 10
-20.47647676271736
 20
-49.92309328259936
 30
0.0
 11
-20.49344839842893
 21
-50.40654019420021
 31
0.0
  0
LINE
  5
250
330
70
100
AcDbEntity
  8
Livello 1
370
     9
100
AcDbLine
 10
-20.97088919863525
 20
-47.6633715341653
 30
0.0
 11
-20.96862198629321
 21
-48.12739067135704
 31
0.0
  0
LINE
  5
251
330
70
100
AcDbEntity
  8
Livello 1
370
     9
100
AcDbLine
 10
-20.96125357020398
 20
-49.63544795032305
 30
0.0
 11
-20.9791625223727
 21
-49.92554942129518
 31
0.0
  0
LINE
  5
252
330
70
100
AcDbEntity
  8
Livello 1
370
     9
100
AcDbLine
 10
-23.3394411825729
 20
-49.62773653678115
 30
0.0
 11
-23.03216929168195
 21
-49.20087006867491
 31
0.0
  0
LINE
  5
253
330
70
100
AcDbEntity
  8
Livello 1
370
     9
100
AcDbLine
 10
-21.50109691586286
 20
-49.94744321627799
 30
0.0
 11
-21.50732930335817
 21
-48.67138811852298
 31
0.0
  0
LINE
  5
254
330
70
100
AcDbEntity
  8
Livello 1
370
     9
100
AcDbLine
 10
-21.80234312379509
 20
-47.64809289630167
 30
0.0
 11
-21.80083408733851
 21
-47.95744309720439
 31
0.0
  0
LINE
  5
255
330
70
100
AcDbEntity
  8
Livello 1
370
     9
100
AcDbLine
 10
-21.86740546101914
 20
-50.16190942916203
 30
0.0
 11
-21.8698615997141
 21
-49.65922366950669
 31
0.0
  0
LINE
  5
256
330
70
100
AcDbEntity
  8
Livello 1
370
     9
100
AcDbLine
 10
-21.8715595625262
 20
-49.3112068461421
 30
0.0
 11
-21.89363487245353
 21
-48.7506131695271
 31
0.0
  0
LINE
  5
257
330
70
100
AcDbEntity
  8
Livello 1
370
     9
100
AcDbLine
 10
-22.01114377629391
 20
-48.44182974768311
 30
0.0
 11
-22.00812817384762
 21
-49.06052770304523
 31
0.0
  0
LINE
  5
258
330
70
100
AcDbEntity
  8
Livello 1
370
     9
100
AcDbLine
 10
-22.00434460973725
 20
-49.83388471282196
 30
0.0
 11
-22.00283557327894
 21
-50.14323491372294
 31
0.0
  0
LINE
  5
259
330
70
100
AcDbEntity
  8
Livello 1
370
     9
100
AcDbLine
 10
-22.01323184806339
 20
-48.0164871148311
 30
0.0
 11
-22.01398023816764
 21
-47.86180829666248
 31
0.0
  0
LINE
  5
25A
330
70
100
AcDbEntity
  8
Livello 1
370
     9
100
AcDbLine
 10
-22.08395485278248
 20
-49.37025331021217
 30
0.0
 11
-22.10186627542067
 21
-49.66035233473747
 31
0.0
  0
LINE
  5
25B
330
70
100
AcDbEntity
  8
Livello 1
370
     9
100
AcDbLine
 10
-22.0913159535582
 20
-47.86218370292321
 30
0.0
 11
-22.09226305579745
 21
-47.66884814417408
 31
0.0
  0
LINE
  5
25C
330
70
100
AcDbEntity
  8
Livello 1
370
     9
100
AcDbLine
 10
-22.2207050751468
 20
-49.08089521633048
 30
0.0
 11
-22.22353906655194
 21
-48.50087621175667
 31
0.0
  0
LINE
  5
25D
330
70
100
AcDbEntity
  8
Livello 1
370
     9
100
AcDbLine
 10
-22.2652335477099
 20
-47.88237461818026
 30
0.0
 11
-22.26636226098944
 21
-47.65036010864457
 31
0.0
  0
LINE
  5
25E
330
70
100
AcDbEntity
  8
Livello 1
370
     9
100
AcDbLine
 10
-22.7690480206439
 20
-47.65281624733865
 30
0.0
 11
-22.76791930736437
 21
-47.88483075687607
 31
0.0
  0
LINE
  5
25F
330
70
100
AcDbEntity
  8
Livello 1
370
     9
100
AcDbLine
 10
-22.80356054159783
 20
-48.50370775671148
 30
0.0
 11
-22.80072407972323
 21
-49.08372920773561
 31
0.0
  0
LINE
  5
260
330
70
100
AcDbEntity
  8
Livello 1
370
     9
100
AcDbLine
 10
-22.92372676673938
 20
-47.65357938818831
 30
0.0
 11
-22.92258826767514
 21
-47.88558401584437
 31
0.0
  0
LINE
  5
261
330
70
100
AcDbEntity
  8
Livello 1
370
     9
100
AcDbLine
 10
-22.91390221195522
 20
-49.66432242680618
 30
0.0
 11
-22.91521985158941
 21
-49.39364129481038
 31
0.0
  0
LINE
  5
262
330
70
100
AcDbEntity
  8
Livello 1
370
     9
100
AcDbLine
 10
-23.01935175747656
 20
-47.86672057405412
 30
0.0
 11
-23.01860336737406
 21
-48.02139939222275
 31
0.0
  0
LINE
  5
263
330
70
100
AcDbEntity
  8
Livello 1
370
     9
100
AcDbLine
 10
-22.98877931818223
 20
-50.16738603916906
 30
0.0
 11
-23.00971612904792
 21
-49.83879699021187
 31
0.0
  0
LINE
  5
264
330
70
100
AcDbEntity
  8
Livello 1
370
     9
100
AcDbLine
 10
-22.99407191875178
 20
-49.08467882849134
 30
0.0
 11
-23.01652508138581
 21
-48.44675190695438
 31
0.0
  0
LINE
  5
265
330
70
100
AcDbEntity
  8
Livello 1
370
     9
100
AcDbLine
 10
-23.21008694026094
 20
-44.44544197020158
 30
0.0
 11
-23.20290745052551
 21
-45.91483262670572
 31
0.0
  0
LINE
  5
266
330
70
100
AcDbEntity
  8
Livello 1
370
     9
100
AcDbLine
 10
-23.21231927332547
 20
-47.9450058861769
 30
0.0
 11
-23.21363691295966
 21
-47.67432475418112
 31
0.0
  0
LINE
  5
267
330
70
100
AcDbEntity
  8
Livello 1
370
     9
100
AcDbLine
 10
-12.99959751788698
 20
-44.82090602762443
 30
0.0
 11
-12.68874077501978
 21
-45.1287398287092
 31
0.0
  0
LINE
  5
268
330
70
100
AcDbEntity
  8
Livello 1
370
     9
100
AcDbLine
 10
-12.96093089542599
 20
-44.82071710126978
 30
0.0
 11
-12.57254951081359
 21
-45.16684211855392
 31
0.0
  0
LINE
  5
269
330
70
100
AcDbEntity
  8
Livello 1
370
     9
100
AcDbLine
 10
-23.37262627811055
 20
-50.74929929627189
 30
0.0
 11
-23.37546273998428
 21
-50.16927784525125
 31
0.0
  0
LINE
  5
26A
330
70
100
AcDbEntity
  8
Livello 1
370
     9
100
AcDbLine
 10
-23.88098496151335
 20
-49.59171253292293
 30
0.0
 11
-23.88513906301778
 21
-48.74100994990302
 31
0.0
  0
LINE
  5
26B
330
70
100
AcDbEntity
  8
Livello 1
370
     9
100
AcDbLine
 10
-24.71454958146688
 20
-45.18750077360305
 30
0.0
 11
-24.36805160436534
 21
-44.8764575748498
 31
0.0
  0
LINE
  5
26C
330
70
100
AcDbEntity
  8
Livello 1
370
     9
100
AcDbLine
 10
-24.81094500434196
 20
-45.24598045861089
 30
0.0
 11
-24.42614847170405
 21
-44.85740520670577
 31
0.0
  0
LINE
  5
26D
330
70
100
AcDbEntity
  8
Livello 1
370
     9
100
AcDbLine
 10
-24.58645547648825
 20
-47.66169861680074
 30
0.0
 11
-24.58683579966442
 21
-47.58436292543107
 31
0.0
  0
LINE
  5
26E
330
70
100
AcDbEntity
  8
Livello 1
370
     9
100
AcDbLine
 10
-24.68303003993328
 20
-47.68150179746885
 30
0.0
 11
-24.66416904458725
 21
-47.58474077813951
 31
0.0
  0
LINE
  5
26F
330
70
100
AcDbEntity
  8
Livello 1
370
     9
100
AcDbLine
 10
-24.72207698557129
 20
-47.60435503245473
 30
0.0
 11
-24.70262411767024
 21
-51.58718681555676
 31
0.0
  0
LINE
  5
270
330
70
100
AcDbEntity
  8
Livello 1
370
     9
100
AcDbLine
 10
-24.80753929293741
 20
-45.94200422346393
 30
0.0
 11
-24.81094500434196
 21
-45.24598045861089
 31
0.0
  0
SPLINE
  5
271
330
70
100
AcDbEntity
  8
Livello 1
370
     9
100
AcDbSpline
210
0.0
220
0.0
230
1.0
 70
     8
 71
     3
 72
    41
 73
    37
 74
     0
 42
0.000000001
 43
0.0000000001
 40
0.0
 40
0.0
 40
0.0
 40
0.0
 40
1.0
 40
1.0
 40
1.0
 40
2.0
 40
2.0
 40
2.0
 40
3.0
 40
3.0
 40
3.0
 40
4.0
 40
4.0
 40
4.0
 40
5.0
 40
5.0
 40
5.0
 40
6.0
 40
6.0
 40
6.0
 40
7.0
 40
7.0
 40
7.0
 40
8.0
 40
8.0
 40
8.0
 40
9.0
 40
9.0
 40
9.0
 40
10.0
 40
10.0
 40
10.0
 40
11.0
 40
11.0
 40
11.0
 40
12.0
 40
12.0
 40
12.0
 40
12.0
 10
-12.70385793037263
 20
-42.03528957941364
 30
0.0
 10
-12.70385793037263
 20
-42.03528957941364
 30
0.0
 10
-14.02027758937287
 20
-41.69369898681271
 30
0.0
 10
-14.02027758937287
 20
-41.69369898681271
 30
0.0
 10
-14.02027758937287
 20
-41.69369898681271
 30
0.0
 10
-15.35574717007468
 20
-41.41020279108188
 30
0.0
 10
-15.35574717007468
 20
-41.41020279108188
 30
0.0
 10
-15.35574717007468
 20
-41.41020279108188
 30
0.0
 10
-16.69065481655568
 20
-41.24272123750205
 30
0.0
 10
-16.69065481655568
 20
-41.24272123750205
 30
0.0
 10
-16.69065481655568
 20
-41.24272123750205
 30
0.0
 10
-18.02517482454875
 20
-41.15256304696543
 30
0.0
 10
-18.02517482454875
 20
-41.15256304696543
 30
0.0
 10
-18.02517482454875
 20
-41.15256304696543
 30
0.0
 10
-19.37856314319875
 20
-41.15917820408634
 30
0.0
 10
-19.37856314319875
 20
-41.15917820408634
 30
0.0
 10
-19.37856314319875
 20
-41.15917820408634
 30
0.0
 10
-20.75081245719566
 20
-41.26255438053399
 30
0.0
 10
-20.75081245719566
 20
-41.26255438053399
 30
0.0
 10
-20.75081245719566
 20
-41.26255438053399
 30
0.0
 10
-22.08401235508333
 20
-41.44307976843999
 30
0.0
 10
-22.08401235508333
 20
-41.44307976843999
 30
0.0
 10
-22.08401235508333
 20
-41.44307976843999
 30
0.0
 10
-23.39740662585693
 20
-41.7201772493233
 30
0.0
 10
-23.39740662585693
 20
-41.7201772493233
 30
0.0
 10
-23.39740662585693
 20
-41.7201772493233
 30
0.0
 10
-24.69100258482822
 20
-42.09385915150512
 30
0.0
 10
-24.69100258482822
 20
-42.09385915150512
 30
0.0
 10
-24.69100258482822
 20
-42.09385915150512
 30
0.0
 10
-25.5784750913385
 20
-42.48488066022733
 30
0.0
 10
-25.57450991618611
 20
-43.296916620788
 30
0.0
 10
-25.57450991618611
 20
-43.296916620788
 30
0.0
 10
-25.57054474103284
 20
-44.10895258134868
 30
0.0
 10
-25.57054474103284
 20
-44.10895258134868
 30
0.0
 10
-25.57054474103284
 20
-44.10895258134868
 30
0.0
 10
-25.53483621871555
 20
-51.41723924140411
 30
0.0
 10
-25.53483621871555
 20
-51.41723924140411
 30
0.0
  0
LWPOLYLINE
  5
272
330
70
100
AcDbEntity
  8
Livello 1
370
     9
100
AcDbPolyline
 90
       15
 70
     0
 43
0.0
 10
-12.71894267692006
 20
-42.90541993684007
 10
-14.01612348786582
 20
-42.54440156983262
 10
-15.35159306856676
 20
-42.26090537410179
 10
-16.68649092926653
 20
-42.09341393864234
 10
-18.04044849744735
 20
-41.98402678193262
 10
-19.39383681609821
 20
-41.99064193905092
 10
-20.72741950763414
 20
-42.09382918914478
 10
-22.07985825357716
 20
-42.29378235145991
 10
-23.3930635979961
 20
-42.6095464548042
 10
-24.68665708649792
 20
-42.98323080343285
 10
-24.82020030959532
 20
-43.35123973382108
 10
-24.43275871190692
 20
-43.50401686403139
 10
-24.0836131992863
 20
-43.73432849384129
 10
-23.79199530447184
 20
-44.06159006933519
 10
-23.59676057627915
 20
-44.44732389440151
  0
LWPOLYLINE
  5
273
330
70
100
AcDbEntity
  8
Livello 1
370
     9
100
AcDbPolyline
 90
        8
 70
     0
 43
0.0
 10
-23.00487113973748
 20
-42.9170048496291
 10
-21.78805143241065
 20
-42.65971054941479
 10
-20.55142362749592
 20
-42.49899078862198
 10
-19.3144154994059
 20
-42.4156067191971
 10
-18.0770393043904
 20
-42.40956577657294
 10
-16.85852163425322
 20
-42.50028829972407
 10
-15.63980525197667
 20
-42.62966756345831
 10
-14.42052940595141
 20
-42.87505902289846
  0
LWPOLYLINE
  5
274
330
70
100
AcDbEntity
  8
Livello 1
370
     9
100
AcDbPolyline
 90
        3
 70
     0
 43
0.0
 10
-14.48593718707761
 20
-49.27512291756322
 10
-14.5251730590694
 20
-49.15930953008722
 10
-14.56439914528085
 20
-49.04348626073336
  0
LWPOLYLINE
  5
275
330
70
100
AcDbEntity
  8
Livello 1
370
     9
100
AcDbPolyline
 90
        3
 70
     0
 43
0.0
 10
-14.56723560715284
 20
-48.46346480971098
 10
-14.5291382342218
 20
-48.34727356952917
 10
-14.49103839082304
 20
-48.23108477579244
  0
LWPOLYLINE
  5
276
330
70
100
AcDbEntity
  8
Livello 1
370
     9
100
AcDbPolyline
 90
        3
 70
     0
 43
0.0
 10
-14.14453062794115
 20
-47.92003169516219
 10
-14.1633891528151
 20
-48.01679516093663
 10
-14.22073763005043
 20
-48.15242161096208
  0
LWPOLYLINE
  5
277
330
70
100
AcDbEntity
  8
Livello 1
370
     9
100
AcDbPolyline
 90
        3
 70
     0
 43
0.0
 10
-15.47754159947591
 20
-48.13922370553179
 10
-15.53601878998991
 20
-48.04283564601635
 10
-15.55601581392723
 20
-47.90759448413298
  0
LINE
  5
278
330
70
100
AcDbEntity
  8
Livello 1
370
     9
100
AcDbLine
 10
-14.29315859758161
 20
-49.15817098297683
 30
0.0
 11
-14.35182471445026
 21
-49.02311630100303
 31
0.0
  0
LINE
  5
279
330
70
100
AcDbEntity
  8
Livello 1
370
     9
100
AcDbLine
 10
-14.35485010267864
 20
-48.40442822752053
 30
0.0
 11
-14.31674047349518
 21
-48.28822955190418
 31
0.0
  0
LINE
  5
27A
330
70
100
AcDbEntity
  8
Livello 1
370
     9
100
AcDbLine
 10
-15.32306156551456
 20
-48.09980382409989
 30
0.0
 11
-15.3622999079767
 21
-47.9839879901788
 31
0.0
  0
LINE
  5
27B
330
70
100
AcDbEntity
  8
Livello 1
370
     9
100
AcDbLine
 10
-14.35692591819744
 20
-47.979078159234
 30
0.0
 11
-14.3950257615962
 21
-48.09526695297073
 31
0.0
  0
LWPOLYLINE
  5
27C
330
70
100
AcDbEntity
  8
Livello 1
370
     9
100
AcDbPolyline
 90
        3
 70
     0
 43
0.0
 10
-13.47923577188205
 20
-49.54088433673457
 10
-13.47885544870589
 20
-49.61822002810336
 10
-13.51734293059519
 20
-49.65708545879601
  0
LWPOLYLINE
  5
27D
330
70
100
AcDbEntity
  8
Livello 1
370
     9
100
AcDbPolyline
 90
        3
 70
     0
 43
0.0
 10
-13.92136852550285
 20
-50.06507860323064
 10
-13.95984622161005
 20
-50.10393415204539
 10
-14.03719172278271
 20
-50.10431944018749
  0
LWPOLYLINE
  5
27E
330
70
100
AcDbEntity
  8
Livello 1
370
     9
100
AcDbPolyline
 90
        3
 70
     0
 43
0.0
 10
-17.55599451083778
 20
-50.12150996461492
 10
-17.61466062770817
 20
-49.98645528263938
 10
-17.63464786586339
 20
-49.85120423887813
  0
LWPOLYLINE
  5
27F
330
70
100
AcDbEntity
  8
Livello 1
370
     9
100
AcDbPolyline
 90
        3
 70
     0
 43
0.0
 10
-17.81140192188709
 20
-49.29137370310929
 10
-17.85062800809679
 20
-49.17555043375892
 10
-17.88986635055806
 20
-49.05973459983608
  0
LWPOLYLINE
  5
280
330
70
100
AcDbEntity
  8
Livello 1
370
     9
100
AcDbPolyline
 90
        3
 70
     0
 43
0.0
 10
-17.89270281243179
 20
-48.47971314881545
 10
-17.85460296903128
 20
-48.36352435508048
 10
-17.81649581031815
 20
-48.24732323301556
  0
LWPOLYLINE
  5
281
330
70
100
AcDbEntity
  8
Livello 1
370
     9
100
AcDbPolyline
 90
        3
 70
     0
 43
0.0
 10
-17.46999783321749
 20
-47.93628003426491
 10
-17.50809520614853
 20
-48.05247127444673
 10
-17.54620236485991
 20
-48.16867239650816
  0
LWPOLYLINE
  5
282
330
70
100
AcDbEntity
  8
Livello 1
370
     9
100
AcDbPolyline
 90
        3
 70
     0
 43
0.0
 10
-18.8222476528076
 20
-48.17489981904016
 10
-18.86148352479939
 20
-48.05908643156764
 10
-18.88148054873846
 20
-47.92384526968427
  0
LWPOLYLINE
  5
283
330
70
100
AcDbEntity
  8
Livello 1
370
     9
100
AcDbPolyline
 90
        3
 70
     0
 43
0.0
 10
-15.22572882618319
 20
-48.23466957971905
 10
-15.14782633173041
 20
-48.35029404084037
 10
-15.1472570821996
 20
-48.46629635467103
  0
LWPOLYLINE
  5
284
330
70
100
AcDbEntity
  8
Livello 1
370
     9
100
AcDbPolyline
 90
        3
 70
     0
 43
0.0
 10
-15.14443040611058
 20
-49.04632768757128
 10
-15.14386115657802
 20
-49.16233000140193
 10
-15.22062762243776
 20
-49.27870772148983
  0
LWPOLYLINE
  5
285
330
70
100
AcDbEntity
  8
Livello 1
370
     9
100
AcDbPolyline
 90
        7
 70
     0
 43
0.0
 10
-17.58468006096886
 20
-48.20752794532292
 10
-17.56430271385187
 20
-48.42010479857336
 10
-17.62145979426482
 20
-48.59440031750402
 10
-17.56260475104065
 20
-48.76812162193793
 10
-17.56184657515605
 20
-48.92279055822868
 10
-17.61900365556726
 20
-49.0970860771576
 10
-17.56014861234483
 20
-49.27080738159326
  0
LINE
  5
286
330
70
100
AcDbEntity
  8
Livello 1
370
     9
100
AcDbLine
 10
-17.61673644322609
 20
-49.56110521435283
 30
0.0
 11
-17.63597529127881
 21
-49.58053298875847
 31
0.0
  0
LINE
  5
287
330
70
100
AcDbEntity
  8
Livello 1
370
     9
100
AcDbLine
 10
-17.63805357726795
 20
-49.15518047402684
 30
0.0
 11
-17.67728944925974
 21
-49.03936708655084
 31
0.0
  0
LINE
  5
288
330
70
100
AcDbEntity
  8
Livello 1
370
     9
100
AcDbLine
 10
-17.68031483748725
 20
-48.42067901306836
 30
0.0
 11
-17.64220767877413
 21
-48.30447789100693
 31
0.0
  0
LINE
  5
289
330
70
100
AcDbEntity
  8
Livello 1
370
     9
100
AcDbLine
 10
-18.64852877079351
 20
-48.11605216320262
 30
0.0
 11
-18.68776464278532
 21
-48.00023877572662
 31
0.0
  0
LINE
  5
28A
330
70
100
AcDbEntity
  8
Livello 1
370
     9
100
AcDbLine
 10
-17.68239312347726
 20
-47.99532649833673
 30
0.0
 11
-17.72049049640569
 21
-48.11151773851679
 31
0.0
  0
LINE
  5
28B
330
70
100
AcDbEntity
  8
Livello 1
370
     9
100
AcDbLine
 10
-15.33776845935442
 20
-49.04726742644741
 30
0.0
 11
-15.37586583228284
 21
-49.16345866663271
 31
0.0
  0
LINE
  5
28C
330
70
100
AcDbEntity
  8
Livello 1
370
     9
100
AcDbLine
 10
-15.39945749397937
 20
-48.29352711743794
 30
0.0
 11
-15.36022162198757
 21
-48.40934050491044
 31
0.0
  0
LINE
  5
28D
330
70
100
AcDbEntity
  8
Livello 1
370
     9
100
AcDbLine
 10
-14.12437708645373
 20
-44.13035887278106
 30
0.0
 11
-13.99026461382814
 21
-43.87835225622262
 31
0.0
  0
LWPOLYLINE
  5
28E
330
70
100
AcDbEntity
  8
Livello 1
370
     9
100
AcDbPolyline
 90
        5
 70
     0
 43
0.0
 10
-13.77504264747934
 20
-44.3993371250528
 10
-13.60283280192357
 20
-44.03113926830993
 10
-13.31442922168867
 20
-43.70104614785861
 10
-12.98697869581922
 20
-43.44809979242231
 10
-12.58180481606607
 20
-43.2721013937641
  0
LWPOLYLINE
  5
28F
330
70
100
AcDbEntity
  8
Livello 1
370
     9
100
AcDbPolyline
 90
        6
 70
     0
 43
0.0
 10
-12.70385793037263
 20
-42.03528957941364
 10
-12.41318960826864
 20
-42.16921314971071
 10
-12.18023535985247
 20
-42.36142248967501
 10
-11.98557235166269
 20
-42.63115155447084
 10
-11.88747896597812
 20
-42.92068869282671
 10
-11.84730577752829
 20
-43.2298475209297
  0
LWPOLYLINE
  5
290
330
70
100
AcDbEntity
  8
Livello 1
370
     9
100
AcDbPolyline
 90
        4
 70
     0
 43
0.0
 10
-13.05883288428731
 20
-44.56984903182173
 10
-12.94376786289032
 20
-44.37593925857586
 10
-12.77061823040966
 20
-44.20108928890855
 10
-12.55860326332867
 20
-44.06470713347145
  0
LWPOLYLINE
  5
291
330
70
100
AcDbEntity
  8
Livello 1
370
     9
100
AcDbPolyline
 90
        7
 70
     0
 43
0.0
 10
-12.87963000488043
 20
-45.63237765556624
 10
-13.15049269987122
 20
-45.59502617824647
 10
-13.40250418529808
 20
-45.46092356347437
 10
-13.61621958565802
 20
-45.24928644910356
 10
-13.77220618560561
 20
-44.97935857607433
 10
-13.8316304783606
 20
-44.68963495781063
 10
-13.77504264747934
 20
-44.3993371250528
  0
LWPOLYLINE
  5
292
330
70
100
AcDbEntity
  8
Livello 1
370
     9
100
AcDbPolyline
 90
        3
 70
     0
 43
0.0
 10
-13.00111634012826
 20
-44.51156570859958
 10
-12.86662354432214
 20
-44.33689478340819
 10
-12.65460610677342
 20
-44.2005150744153
  0
LWPOLYLINE
  5
293
330
70
100
AcDbEntity
  8
Livello 1
370
     9
100
AcDbPolyline
 90
        3
 70
     0
 43
0.0
 10
-14.18115384368964
 20
-44.38199008307964
 10
-14.16248424516512
 20
-44.24655999484249
 10
-14.12437708645373
 20
-44.13035887278106
  0
LWPOLYLINE
  5
294
330
70
100
AcDbEntity
  8
Livello 1
370
     9
100
AcDbPolyline
 90
        6
 70
     0
 43
0.0
 10
-14.42052940595141
 20
-42.87505902289846
 10
-14.18795548071577
 20
-42.98993267149746
 10
-14.01309809963918
 20
-43.16308964331685
 10
-13.91538750760112
 20
-43.37528864385971
 10
-13.91406739749921
 20
-43.64597222230233
 10
-13.99026461382814
 20
-43.87835225622262
  0
LINE
  5
295
330
70
100
AcDbEntity
  8
Livello 1
370
     9
100
AcDbLine
 10
-12.64648683011223
 20
-45.86325361799327
 30
0.0
 11
-12.56990197529364
 21
-45.70819694711794
 31
0.0
  0
LINE
  5
296
330
70
100
AcDbEntity
  8
Livello 1
370
     9
100
AcDbLine
 10
-12.55860326332867
 20
-44.06470713347145
 30
0.0
 11
-12.38469298449134
 21
-44.04452854653824
 31
0.0
  0
LWPOLYLINE
  5
297
330
70
100
AcDbEntity
  8
Livello 1
370
     9
100
AcDbPolyline
 90
        4
 70
     0
 43
0.0
 10
-12.96093089542599
 20
-44.82071710126978
 10
-13.01940561547226
 20
-44.72433148820292
 10
-13.03921371305668
 20
-44.62775694878227
 10
-13.00111634012826
 20
-44.51156570859958
  0
LWPOLYLINE
  5
298
330
70
100
AcDbEntity
  8
Livello 1
370
     9
100
AcDbPolyline
 90
        3
 70
     0
 43
0.0
 10
-12.99959751788698
 20
-44.82090602762443
 10
-13.07750248281009
 20
-44.70527912005713
 10
-13.05883288428731
 20
-44.56984903182173
  0
LWPOLYLINE
  5
299
330
70
100
AcDbEntity
  8
Livello 1
370
     9
100
AcDbPolyline
 90
        3
 70
     0
 43
0.0
 10
-12.71894267692006
 20
-42.90541993684007
 10
-12.62180133441281
 20
-43.00161662355488
 10
-12.58256546242101
 20
-43.11743001102914
  0
LWPOLYLINE
  5
29A
330
70
100
AcDbEntity
  8
Livello 1
370
     9
100
AcDbPolyline
 90
        3
 70
     0
 43
0.0
 10
-12.68874077501978
 20
-45.1287398287092
 10
-12.63026605497526
 20
-45.22512544177869
 10
-12.62989551757945
 20
-45.30247101502449
  0
LWPOLYLINE
  5
29B
330
70
100
AcDbEntity
  8
Livello 1
370
     9
100
AcDbPolyline
 90
        3
 70
     0
 43
0.0
 10
-12.70609273390924
 20
-45.53485104894302
 10
-12.78305791190574
 20
-45.61257202845303
 10
-12.87963000488043
 20
-45.63237765556624
  0
LINE
  5
29C
330
70
100
AcDbEntity
  8
Livello 1
370
     9
100
AcDbLine
 10
-12.40393183254582
 20
-44.06395632094736
 30
0.0
 11
-12.32677772819554
 21
-44.02490196390007
 31
0.0
  0
LWPOLYLINE
  5
29D
330
70
100
AcDbEntity
  8
Livello 1
370
     9
100
AcDbPolyline
 90
        6
 70
     0
 43
0.0
 10
-19.50542883800946
 20
-50.80773913704064
 10
-19.81382944217822
 20
-51.00259109561122
 10
-20.14203814393661
 20
-51.10086851475851
 10
-20.50948271768507
 20
-51.08333254643156
 10
-20.85786758394986
 20
-51.00769229935576
 10
-21.1487370886627
 20
-50.835109542034
  0
LWPOLYLINE
  5
29E
330
70
100
AcDbEntity
  8
Livello 1
370
     9
100
AcDbPolyline
 90
       25
 70
     0
 43
0.0
 10
-19.51449521690816
 20
-48.9516650347118
 10
-19.74744946532083
 20
-48.75945569474662
 10
-20.03793864685489
 20
-48.66420862878841
 10
-20.3282291162522
 20
-48.60761830341591
 10
-20.6373878963099
 20
-48.64780132569571
 10
-20.92673857878146
 20
-48.78455888739531
 10
-21.17723371243737
 20
-48.9597941452021
 10
-21.3500128075257
 20
-49.21198968811694
 10
-21.46469750574392
 20
-49.48323515272987
 10
-21.5018477764357
 20
-49.79276195166428
 10
-21.46167211751728
 20
-50.10192322621236
 10
-21.34434235424771
 20
-50.37203014371488
 10
-21.14986580194136
 20
-50.60309503249658
 10
-20.91691402399729
 20
-50.79530192601491
 10
-20.64567100582858
 20
-50.90998909470346
 10
-20.33613437306505
 20
-50.94713931734737
 10
-20.02698290832084
 20
-50.90696862339225
 10
-19.75687107390288
 20
-50.78963883610004
 10
-19.52580618512382
 20
-50.59516228379197
 10
-19.33359684515952
 20
-50.36220803537842
 10
-19.19967329888683
 20
-50.07153479635638
 10
-19.16251571288242
 20
-49.76199566909725
 10
-19.22193753516619
 20
-49.47227449728125
 10
-19.32002113506954
 20
-49.18272747704665
 10
-19.51449521690816
 20
-48.9516650347118
  0
LWPOLYLINE
  5
29F
330
70
100
AcDbEntity
  8
Livello 1
370
     9
100
AcDbPolyline
 90
       21
 70
     0
 43
0.0
 10
-19.57222154685018
 20
-49.00995823981181
 10
-19.84384241772557
 20
-48.81793782620304
 10
-20.17299090640712
 20
-48.72286735827477
 10
-20.50176638722511
 20
-48.70514491004001
 10
-20.82997508898265
 20
-48.80342232918731
 10
-21.11894791874664
 20
-49.01751313580886
 10
-21.31096586188681
 20
-49.28913645312935
 10
-21.40603138887527
 20
-49.61828983470367
 10
-21.40432611075142
 20
-49.96629432974529
 10
-21.28681473643982
 20
-50.27508019803264
 10
-21.09214925777882
 20
-50.54481170927092
 10
-20.82052838690517
 20
-50.73683212288319
 10
-20.5106114309646
 20
-50.85131803689588
 10
-20.16260441740563
 20
-50.84962503904798
 10
-19.85382349005636
 20
-50.73210877184795
 10
-19.58409197881543
 20
-50.53744329318694
 10
-19.37283271715219
 20
-50.24639464790418
 10
-19.25833941575548
 20
-49.93648011438256
 10
-19.2792762266203
 20
-49.60789106542537
 10
-19.37755606818918
 20
-49.27968975105535
 10
-19.57222154685018
 20
-49.00995823981181
  0
LWPOLYLINE
  5
2A0
330
70
100
AcDbEntity
  8
Livello 1
370
     9
100
AcDbPolyline
 90
        3
 70
     0
 43
0.0
 10
-18.55119603146389
 20
-48.25091791882353
 10
-18.49272131141588
 20
-48.34730353188863
 10
-18.47272181700908
 20
-48.4825471402171
  0
LWPOLYLINE
  5
2A1
330
70
100
AcDbEntity
  8
Livello 1
370
     9
100
AcDbPolyline
 90
        3
 70
     0
 43
0.0
 10
-18.46988782560482
 20
-49.06256614479264
 10
-18.48856720991056
 20
-49.1980061149103
 10
-18.54609235724811
 20
-49.29495850704112
  0
LWPOLYLINE
  5
2A2
330
70
100
AcDbEntity
  8
Livello 1
370
     9
100
AcDbPolyline
 90
        3
 70
     0
 43
0.0
 10
-22.14224064647584
 20
-49.31253431960542
 10
-22.18146673268554
 20
-49.19671105025329
 10
-22.2207050751468
 20
-49.08089521633048
  0
LWPOLYLINE
  5
2A3
330
70
100
AcDbEntity
  8
Livello 1
370
     9
100
AcDbPolyline
 90
        3
 70
     0
 43
0.0
 10
-22.22353906655194
 20
-48.50087621175667
 10
-22.1854416936209
 20
-48.38468497157137
 10
-22.14733453490865
 20
-48.26848384950994
  0
LINE
  5
2A4
330
70
100
AcDbEntity
  8
Livello 1
370
     9
100
AcDbLine
 10
-20.96862198629321
 20
-48.12739067135704
 30
0.0
 11
-20.91014726624694
 21
-48.2237762844274
 31
0.0
  0
LINE
  5
2A5
330
70
100
AcDbEntity
  8
Livello 1
370
     9
100
AcDbLine
 10
-19.78876115283228
 20
-48.21829223898583
 30
0.0
 11
-19.71199715744201
 21
-48.10191207244936
 31
0.0
  0
LWPOLYLINE
  5
2A6
330
70
100
AcDbEntity
  8
Livello 1
370
     9
100
AcDbPolyline
 90
        5
 70
     0
 43
0.0
 10
-19.59542557005792
 20
-48.21735005366288
 10
-19.4405652129204
 20
-48.25526586359978
 10
-19.30475477748183
 20
-48.35127607040416
 10
-19.2074220381522
 20
-48.4861418260268
 10
-19.16799723980662
 20
-48.64062183596116
  0
LWPOLYLINE
  5
2A7
330
70
100
AcDbEntity
  8
Livello 1
370
     9
100
AcDbPolyline
 90
        5
 70
     0
 43
0.0
 10
-21.50732930335817
 20
-48.67138811852298
 10
-21.48884863118917
 20
-48.49729140782659
 10
-21.3928360019632
 20
-48.36147358500485
 10
-21.25797266876388
 20
-48.26414823305839
 10
-21.0840550746148
 20
-48.24395731780134
  0
LWPOLYLINE
  5
2A8
330
70
100
AcDbEntity
  8
Livello 1
370
     9
100
AcDbPolyline
 90
        3
 70
     0
 43
0.0
 10
-21.40054986195106
 20
-50.73966366784151
 10
-21.26511974969215
 20
-50.75833818327884
 10
-21.1487370886627
 20
-50.835109542034
  0
LWPOLYLINE
  5
2A9
330
70
100
AcDbEntity
  8
Livello 1
370
     9
100
AcDbPolyline
 90
        3
 70
     0
 43
0.0
 10
-19.50542883800946
 20
-50.80773913704064
 10
-19.37037657845461
 20
-50.7490804075595
 10
-19.23513539254947
 20
-50.72908830053324
  0
LINE
  5
2AA
330
70
100
AcDbEntity
  8
Livello 1
370
     9
100
AcDbLine
 10
-18.68266096856954
 20
-49.0442793639425
 30
0.0
 11
-18.70133303756179
 21
-49.1797070057337
 31
0.0
  0
LINE
  5
2AB
330
70
100
AcDbEntity
  8
Livello 1
370
     9
100
AcDbLine
 10
-18.72491491347709
 20
-48.30976557466104
 30
0.0
 11
-18.68568882726652
 21
-48.42558884401491
 31
0.0
  0
LINE
  5
2AC
330
70
100
AcDbEntity
  8
Livello 1
370
     9
100
AcDbLine
 10
-22.01114377629391
 20
-48.44182974768311
 30
0.0
 11
-21.97304640336374
 21
-48.3256385075013
 31
0.0
  0
LINE
  5
2AD
330
70
100
AcDbEntity
  8
Livello 1
370
     9
100
AcDbLine
 10
-21.94946205697985
 20
-49.19558238502077
 30
0.0
 11
-22.00812817384762
 21
-49.06052770304523
 31
0.0
  0
LWPOLYLINE
  5
2AE
330
70
100
AcDbEntity
  8
Livello 1
370
     9
100
AcDbPolyline
 90
        4
 70
     0
 43
0.0
 10
-18.96729077047357
 20
-50.14773937604756
 10
-19.0640542602715
 20
-50.12887593425556
 10
-19.14176782837137
 20
-50.05191809559608
 10
-19.18100370036404
 20
-49.93610470812184
  0
LWPOLYLINE
  5
2AF
330
70
100
AcDbEntity
  8
Livello 1
370
     9
100
AcDbPolyline
 90
        4
 70
     0
 43
0.0
 10
-21.50109691586286
 20
-49.94744321627799
 10
-21.51995791120977
 20
-50.04420423560561
 10
-21.59691330342329
 20
-50.12191533323512
 10
-21.71272424445332
 20
-50.1611487347592
  0
LWPOLYLINE
  5
2B0
330
70
100
AcDbEntity
  8
Livello 1
370
     9
100
AcDbPolyline
 90
        3
 70
     0
 43
0.0
 10
-23.15308637739547
 20
-48.19606043553454
 10
-23.19232224938902
 20
-48.08024704806204
 10
-23.21231927332547
 20
-47.9450058861769
  0
LWPOLYLINE
  5
2B1
330
70
100
AcDbEntity
  8
Livello 1
370
     9
100
AcDbPolyline
 90
        3
 70
     0
 43
0.0
 10
-22.88203475605177
 20
-48.27207853531789
 10
-22.80412979112778
 20
-48.38770544288432
 10
-22.80356054159783
 20
-48.50370775671148
  0
LWPOLYLINE
  5
2B2
330
70
100
AcDbEntity
  8
Livello 1
370
     9
100
AcDbPolyline
 90
        3
 70
     0
 43
0.0
 10
-22.80072407972323
 20
-49.08372920773561
 10
-22.8194034640281
 20
-49.2191691778515
 10
-22.87693108183774
 20
-49.31611912353551
  0
LWPOLYLINE
  5
2B3
330
70
100
AcDbEntity
  8
Livello 1
370
     9
100
AcDbPolyline
 90
        3
 70
     0
 43
0.0
 10
-21.80083408733851
 20
-47.95744309720439
 10
-21.81969508268455
 20
-48.05420411653373
 10
-21.87704108944779
 20
-48.18983301300253
  0
LINE
  5
2B4
330
70
100
AcDbEntity
  8
Livello 1
370
     9
100
AcDbLine
 10
-22.97936749538314
 20
-48.13721277969875
 30
0.0
 11
-23.01860336737406
 21
-48.02139939222275
 31
0.0
  0
LINE
  5
2B5
330
70
100
AcDbEntity
  8
Livello 1
370
     9
100
AcDbLine
 10
-22.01323184806339
 20
-48.0164871148311
 30
0.0
 11
-22.05132922099355
 21
-48.13267835501117
 31
0.0
  0
LINE
  5
2B6
330
70
100
AcDbEntity
  8
Livello 1
370
     9
100
AcDbLine
 10
-23.05575363806585
 20
-48.33092619115718
 30
0.0
 11
-23.01652508138581
 21
-48.44675190695438
 31
0.0
  0
LINE
  5
2B7
330
70
100
AcDbEntity
  8
Livello 1
370
     9
100
AcDbLine
 10
-22.99407191875178
 20
-49.08467882849134
 30
0.0
 11
-23.03216929168195
 21
-49.20087006867491
 31
0.0
  0
LWPOLYLINE
  5
2B8
330
70
100
AcDbEntity
  8
Livello 1
370
     9
100
AcDbPolyline
 90
        3
 70
     0
 43
0.0
 10
-23.29812949506232
 20
-50.16889999254193
 10
-23.35622389192981
 20
-50.14985007084213
 10
-23.4337485336759
 20
-50.11155885464274
  0
LWPOLYLINE
  5
2B9
330
70
100
AcDbEntity
  8
Livello 1
370
     9
100
AcDbPolyline
 90
        3
 70
     0
 43
0.0
 10
-23.82232131511329
 20
-49.72676476845166
 10
-23.86136826075044
 20
-49.64961800343751
 10
-23.88098496151335
 20
-49.59171253292293
  0
LWPOLYLINE
  5
2BA
330
70
100
AcDbEntity
  8
Livello 1
370
     9
100
AcDbPolyline
 90
        4
 70
     0
 43
0.0
 10
-25.35997883763983
 20
-51.59039621322262
 10
-25.45674232743865
 20
-51.57153277143063
 10
-25.51502812113026
 20
-51.51381378082387
 10
-25.53483621871555
 20
-51.41723924140411
  0
LWPOLYLINE
  5
2BB
330
70
100
AcDbEntity
  8
Livello 1
370
     9
100
AcDbPolyline
 90
        3
 70
     0
 43
0.0
 10
-24.05867880446191
 20
-48.83853411008203
 10
-23.92304750959503
 20
-48.89586781254669
 10
-23.8838214233862
 20
-49.01169108190231
  0
LINE
  5
2BC
330
70
100
AcDbEntity
  8
Livello 1
370
     9
100
AcDbLine
 10
-23.40607005855701
 20
-43.90502932696485
 30
0.0
 11
-23.26950144723297
 21
-44.15570847005913
 31
0.0
  0
LWPOLYLINE
  5
2BD
330
70
100
AcDbEntity
  8
Livello 1
370
     9
100
AcDbPolyline
 90
        4
 70
     0
 43
0.0
 10
-24.83565559353506
 20
-44.1440245180017
 10
-24.64174829075866
 20
-44.25908709295274
 10
-24.46689338015329
 20
-44.43224161832793
 10
-24.3305136951839
 20
-44.64425413896034
  0
LWPOLYLINE
  5
2BE
330
70
100
AcDbEntity
  8
Livello 1
370
     9
100
AcDbPolyline
 90
        3
 70
     0
 43
0.0
 10
-23.9589125494598
 20
-45.51249513675403
 10
-24.22902685434634
 20
-45.62982247760028
 10
-24.49932761511721
 20
-45.70848564243325
  0
LWPOLYLINE
  5
2BF
330
70
100
AcDbEntity
  8
Livello 1
370
     9
100
AcDbPolyline
 90
        5
 70
     0
 43
0.0
 10
-23.59676057627915
 20
-44.44732389440151
 10
-23.5760151622402
 20
-44.73724387445439
 10
-23.61317274824199
 20
-45.04678300171264
 10
-23.74728522086934
 20
-45.29878961827196
 10
-23.9589125494598
 20
-45.51249513675403
  0
LWPOLYLINE
  5
2C0
330
70
100
AcDbEntity
  8
Livello 1
370
     9
100
AcDbPolyline
 90
        4
 70
     0
 43
0.0
 10
-24.38879948887638
 20
-44.58653514835446
 10
-24.5444180218985
 20
-44.39395040212679
 10
-24.71908400615096
 20
-44.25946249921522
 10
-25.57054474103284
 20
-44.10895258134868
  0
LWPOLYLINE
  5
2C1
330
70
100
AcDbEntity
  8
Livello 1
370
     9
100
AcDbPolyline
 90
        3
 70
     0
 43
0.0
 10
-23.26950144723297
 20
-44.15570847005913
 10
-23.2108353303617
 20
-44.29076315203294
 10
-23.21008694026094
 20
-44.44544197020158
  0
LWPOLYLINE
  5
2C2
330
70
100
AcDbEntity
  8
Livello 1
370
     9
100
AcDbPolyline
 90
        6
 70
     0
 43
0.0
 10
-23.40607005855701
 20
-43.90502932696485
 10
-23.48454427300833
 20
-43.67340010556779
 10
-23.48567298628873
 20
-43.44138559603211
 10
-23.39022713612324
 20
-43.1895679058257
 10
-23.21707750364172
 20
-43.01471793616101
 10
-23.00487113973748
 20
-42.9170048496291
  0
LINE
  5
2C3
330
70
100
AcDbEntity
  8
Livello 1
370
     9
100
AcDbLine
 10
-24.80829746882114
 20
-45.78733528717317
 30
0.0
 11
-24.74963382242196
 21
-45.92238752270102
 31
0.0
  0
LINE
  5
2C4
330
70
100
AcDbEntity
  8
Livello 1
370
     9
100
AcDbLine
 10
-24.34919307948965
 20
-44.77969410907451
 30
0.0
 11
-24.42614847170405
 21
-44.85740520670577
 31
0.0
  0
LWPOLYLINE
  5
2C5
330
70
100
AcDbEntity
  8
Livello 1
370
     9
100
AcDbPolyline
 90
        3
 70
     0
 43
0.0
 10
-24.38879948887638
 20
-44.58653514835446
 10
-24.36900117707406
 20
-44.6831195696556
 10
-24.34919307948965
 20
-44.77969410907451
  0
LWPOLYLINE
  5
2C6
330
70
100
AcDbEntity
  8
Livello 1
370
     9
100
AcDbPolyline
 90
        3
 70
     0
 43
0.0
 10
-24.3305136951839
 20
-44.64425413896034
 10
-24.32995423143692
 20
-44.76026633466974
 10
-24.36805160436534
 20
-44.8764575748498
  0
LWPOLYLINE
  5
2C7
330
70
100
AcDbEntity
  8
Livello 1
370
     9
100
AcDbPolyline
 90
        3
 70
     0
 43
0.0
 10
-24.49932761511721
 20
-45.70848564243325
 10
-24.61552134979462
 20
-45.67038090614256
 10
-24.67399606984176
 20
-45.5739952930757
  0
LWPOLYLINE
  5
2C8
330
70
100
AcDbEntity
  8
Livello 1
370
     9
100
AcDbPolyline
 90
        3
 70
     0
 43
0.0
 10
-24.75227888747157
 20
-45.38103514058557
 10
-24.75284813700239
 20
-45.26503282675753
 10
-24.71454958146688
 20
-45.18750077360305
  0
LINE
  5
2D0
330
70
100
AcDbEntity
  8
0
100
AcDbLine
 10
-25.51502812113026
 20
-60.11524287010566
 30
0.0
 11
-11.90013803137859
 21
-60.11524287010566
 31
0.0
  0
LINE
  5
2D1
330
70
100
AcDbEntity
  8
0
100
AcDbLine
 10
-8.079254574289151
 20
-60.11524287010566
 30
0.0
 11
80.18696650762398
 21
-60.11524287010566
 31
0.0
  0
LINE
  5
2D2
330
70
100
AcDbEntity
  8
0
100
AcDbLine
 10
87.2466294900029
 20
-41.9066043841433
 30
0.0
 11
87.2466294900029
 21
-51.4342115495384
 31
0.0
  0
MTEXT
  5
2DC
330
70
100
AcDbEntity
  8
Livello 2
100
AcDbMText
 10
26.29659004394299
 20
-69.06291150186473
 30
0.0
 40
6.4
 41
2124.285538349534
 46
0.0
 71
     1
 72
     5
  1
500
 73
     1
 44
1.0
101
Embedded Object
 70
     1
 10
1.0
 20
0.0
 30
0.0
 11
26.29659004394299
 21
-69.06291150186473
 31
0.0
 40
2124.285538349534
 41
0.0
 42
14.93333333333333
 43
6.4
 71
     2
 72
     1
 44
2124.285538349534
 45
32.0
 73
     0
 74
     0
 46
0.0
  0
MTEXT
  5
2E5
330
70
100
AcDbEntity
  8
Livello 2
100
AcDbMText
 10
-25.07106694057142
 20
-69.0629113633305
 30
0.0
 40
6.4
 41
2124.285538349534
 46
0.0
 71
     1
 72
     5
  1
17
 73
     1
 44
1.0
101
Embedded Object
 70
     1
 10
1.0
 20
0.0
 30
0.0
 11
-25.07106694057142
 21
-69.0629113633305
 31
0.0
 40
2124.285538349534
 41
0.0
 42
8.533333333333333
 43
6.400000000000001
 71
     2
 72
     1
 44
2124.285538349534
 45
32.0
 73
     0
 74
     0
 46
0.0
  0
MTEXT
  5
2ED
330
70
100
AcDbEntity
  8
Livello 2
100
AcDbMText
 10
92.00716434550292
 20
-45.03421154953839
 30
0.0
 40
6.4
 41
2124.285538349534
 46
0.0
 71
     1
 72
     5
  1
13
 73
     1
 44
1.0
101
Embedded Object
 70
     1
 10
1.0
 20
0.0
 30
0.0
 11
92.00716434550292
 21
-45.03421154953839
 31
0.0
 40
2124.285538349534
 41
0.0
 42
8.533333333333333
 43
6.400000000000001
 71
     2
 72
     1
 44
2124.285538349534
 45
32.0
 73
     0
 74
     0
 46
0.0
  0
ENDSEC
  0
SECTION
  2
OBJECTS
  0
DICTIONARY
  5
C
330
0
100
AcDbDictionary
281
     1
  3
ACAD_CIP_PREVIOUS_PRODUCT_INFO
350
1BE
  3
ACAD_COLOR
350
63
  3
ACAD_DETAILVIEWSTYLE
350
6A
  3
ACAD_GROUP
350
D
  3
ACAD_LAYOUT
350
62
  3
ACAD_MATERIAL
350
10
  3
ACAD_MLEADERSTYLE
350
66
  3
ACAD_MLINESTYLE
350
5F
  3
ACAD_PLOTSETTINGS
350
61
  3
ACAD_PLOTSTYLENAME
350
E
  3
ACAD_SCALELIST
350
42
  3
ACAD_SECTIONVIEWSTYLE
350
68
  3
ACAD_TABLESTYLE
350
64
  3
ACAD_VISUALSTYLE
350
29
  3
ACDB_RECOMPOSE_DATA
350
310
  3
AcDbVariableDictionary
350
1B4
  0
DICTIONARY
  5
2F1
330
2
100
AcDbDictionary
280
     1
281
     1
  3
ACAD_LAYERSTATES
360
2F2
  0
DICTIONARY
  5
1C1
330
70
100
AcDbDictionary
280
     1
281
     1
  3
ACAD_SORTENTS
360
1C2
  0
XRECORD
  5
1BE
102
{ACAD_REACTORS
330
C
102
}
330
C
100
AcDbXrecord
280
     1
300
ACD
300
2022
300

  0
DICTIONARY
  5
63
102
{ACAD_REACTORS
330
C
102
}
330
C
100
AcDbDictionary
281
     1
  0
DICTIONARY
  5
6A
102
{ACAD_REACTORS
330
C
102
}
330
C
100
AcDbDictionary
281
     1
  3
Imperial24
350
6B
  0
DICTIONARY
  5
D
102
{ACAD_REACTORS
330
C
102
}
330
C
100
AcDbDictionary
281
     1
  0
DICTIONARY
  5
62
102
{ACAD_REACTORS
330
C
102
}
330
C
100
AcDbDictionary
281
     1
  3
Layout1
350
6F
  3
Layout2
350
77
  3
Model
350
73
  0
DICTIONARY
  5
10
102
{ACAD_REACTORS
330
C
102
}
330
C
100
AcDbDictionary
281
     1
  3
ByBlock
350
19
  3
ByLayer
350
11
  3
Global
350
21
  0
DICTIONARY
  5
66
102
{ACAD_REACTORS
330
C
102
}
330
C
100
AcDbDictionary
281
     1
  3
Standard
350
67
  0
DICTIONARY
  5
5F
102
{ACAD_REACTORS
330
C
102
}
330
C
100
AcDbDictionary
281
     1
  3
Standard
350
60
  0
DICTIONARY
  5
61
102
{ACAD_REACTORS
330
C
102
}
330
C
100
AcDbDictionary
281
     1
  0
ACDBDICTIONARYWDFLT
  5
E
102
{ACAD_REACTORS
330
C
102
}
330
C
100
AcDbDictionary
281
     1
  3
Normal
350
F
100
AcDbDictionaryWithDefault
340
F
  0
DICTIONARY
  5
42
102
{ACAD_REACTORS
330
C
102
}
330
C
100
AcDbDictionary
281
     1
  3
A0
350
43
  3
A1
350
44
  3
A2
350
45
  3
A3
350
46
  3
A4
350
47
  3
A5
350
48
  3
A6
350
49
  3
A7
350
4A
  3
A8
350
4B
  3
A9
350
4C
  3
B0
350
4D
  3
B1
350
4E
  3
B2
350
4F
  3
B3
350
50
  3
B4
350
51
  3
B5
350
52
  3
B6
350
53
  0
DICTIONARY
  5
68
102
{ACAD_REACTORS
330
C
102
}
330
C
100
AcDbDictionary
281
     1
  3
Imperial24
350
69
  0
DICTIONARY
  5
64
102
{ACAD_REACTORS
330
C
102
}
330
C
100
AcDbDictionary
281
     1
  3
Standard
350
65
  0
DICTIONARY
  5
29
102
{ACAD_REACTORS
330
C
102
}
330
C
100
AcDbDictionary
281
     1
  3
2dWireframe
350
2F
  3
Basic
350
2E
  3
Brighten
350
35
  3
ColorChange
350
39
  3
Conceptual
350
32
  3
Dim
350
34
  3
EdgeColorOff
350
41
  3
Facepattern
350
38
  3
Flat
350
2A
  3
FlatWithEdges
350
2B
  3
Gouraud
350
2C
  3
GouraudWithEdges
350
2D
  3
Hidden
350
31
  3
JitterOff
350
3F
  3
Linepattern
350
37
  3
OverhangOff
350
40
  3
Realistic
350
33
  3
Shaded
350
3E
  3
Shaded with edges
350
3D
  3
Shades of Gray
350
3A
  3
Sketchy
350
3B
  3
Thicken
350
36
  3
Wireframe
350
30
  3
X-Ray
350
3C
  0
XRECORD
  5
310
102
{ACAD_REACTORS
330
C
102
}
330
C
100
AcDbXrecord
280
     1
 90
        1
330
65
  0
DICTIONARY
  5
1B4
102
{ACAD_REACTORS
330
C
102
}
330
C
100
AcDbDictionary
281
     1
  3
CANNOSCALE
350
1B9
  3
CMLEADERSTYLE
350
1B6
  3
CTABLESTYLE
350
1B5
  3
CVIEWDETAILSTYLE
350
1B7
  3
CVIEWSECTIONSTYLE
350
1B8
  0
DICTIONARY
  5
2F2
102
{ACAD_REACTORS
330
2F1
102
}
330
2F1
100
AcDbDictionary
281
     1
  0
SORTENTSTABLE
  5
1C2
102
{ACAD_REACTORS
330
1C1
102
}
330
1C1
100
AcDbSortentsTable
330
70
331
7B
  5
1C5
331
7C
  5
1C6
331
7D
  5
1C7
331
7E
  5
1C8
331
7F
  5
1C9
331
82
  5
1D1
331
1C3
  5
7B
331
1C4
  5
7C
331
1C5
  5
7D
331
1C6
  5
7E
331
1C7
  5
7F
331
1C8
  5
82
331
1C9
  5
1C3
331
1CA
  5
1C4
331
1CB
  5
1CA
331
1CC
  5
1CB
331
1CD
  5
1CC
331
1CE
  5
1CD
331
1CF
  5
1CE
331
1D0
  5
1CF
331
1D1
  5
1D0
  0
ACDBDETAILVIEWSTYLE
  5
6B
102
{ACAD_REACTORS
330
6A
102
}
330
6A
100
AcDbModelDocViewStyle
 70
     0
  3
Imperial24
290
     0
300
Imperial24
 90
        0
100
AcDbDetailViewStyle
 70
     0
 71
     0
 90
        3
 71
     1
340
55
 62
   256
 40
0.24
340
0
 62
   256
 40
0.24
300

 40
0.36
280
     3
 71
     2
340
5D
 90
       25
 62
   256
 71
     3
340
55
 62
   256
 40
0.24
 90
        1
 40
0.75
 90
        1
300
%<\AcVar ViewType \f "%tc1">% %<\AcVar ViewDetailId>%\PSCALE %<\AcVar ViewScale \f "%sn">%
 71
     4
340
5D
 90
       25
 62
   256
340
5D
 90
       25
 62
   256
280
     0
  0
LAYOUT
  5
6F
102
{ACAD_REACTORS
330
62
102
}
330
62
100
AcDbPlotSettings
  1

  2

  4

  6

 40
0.0
 41
0.0
 42
0.0
 43
0.0
 44
0.0
 45
0.0
 46
0.0
 47
0.0
 48
0.0
 49
0.0
140
0.0
141
0.0
142
1.0
143
1.0
 70
   688
 72
     0
 73
     0
 74
     5
  7

 75
    16
147
1.0
 76
     0
 77
     2
 78
   300
148
0.0
149
0.0
100
AcDbLayout
  1
Layout1
 70
     1
 71
     1
 10
0.0
 20
0.0
 11
12.0
 21
9.0
 12
0.0
 22
0.0
 32
0.0
 14
1.000000000000000E+20
 24
1.000000000000000E+20
 34
1.000000000000000E+20
 15
-1.000000000000000E+20
 25
-1.000000000000000E+20
 35
-1.000000000000000E+20
146
0.0
 13
0.0
 23
0.0
 33
0.0
 16
1.0
 26
0.0
 36
0.0
 17
0.0
 27
1.0
 37
0.0
 76
     0
330
6C
  0
LAYOUT
  5
77
102
{ACAD_REACTORS
330
62
102
}
330
62
100
AcDbPlotSettings
  1

  2

  4

  6

 40
0.0
 41
0.0
 42
0.0
 43
0.0
 44
0.0
 45
0.0
 46
0.0
 47
0.0
 48
0.0
 49
0.0
140
0.0
141
0.0
142
1.0
143
1.0
 70
   688
 72
     0
 73
     0
 74
     5
  7

 75
    16
147
1.0
 76
     0
 77
     2
 78
   300
148
0.0
149
0.0
100
AcDbLayout
  1
Layout2
 70
     1
 71
     2
 10
0.0
 20
0.0
 11
12.0
 21
9.0
 12
0.0
 22
0.0
 32
0.0
 14
0.0
 24
0.0
 34
0.0
 15
0.0
 25
0.0
 35
0.0
146
0.0
 13
0.0
 23
0.0
 33
0.0
 16
1.0
 26
0.0
 36
0.0
 17
0.0
 27
1.0
 37
0.0
 76
     0
330
74
  0
LAYOUT
  5
73
102
{ACAD_REACTORS
330
62
102
}
330
62
100
AcDbPlotSettings
  1

  2

  4

  6

 40
0.0
 41
0.0
 42
0.0
 43
0.0
 44
0.0
 45
0.0
 46
0.0
 47
0.0
 48
0.0
 49
0.0
140
0.0
141
0.0
142
1.0
143
1.0
 70
  1712
 72
     0
 73
     0
 74
     0
  7

 75
     0
147
1.0
 76
     0
 77
     2
 78
   300
148
0.0
149
0.0
100
AcDbLayout
  1
Model
 70
     1
 71
     0
 10
0.0
 20
0.0
 11
12.0
 21
9.0
 12
0.0
 22
0.0
 32
0.0
 14
0.0
 24
0.0
 34
0.0
 15
0.0
 25
0.0
 35
0.0
146
0.0
 13
0.0
 23
0.0
 33
0.0
 16
1.0
 26
0.0
 36
0.0
 17
0.0
 27
1.0
 37
0.0
 76
     0
330
70
331
57
  0
MATERIAL
  5
19
102
{ACAD_XDICTIONARY
360
1A
102
}
102
{ACAD_REACTORS
330
10
102
}
330
10
100
AcDbMaterial
  1
ByBlock
 72
     0
 43
0.0208333333333333
 43
0.0
 43
0.0
 43
0.0
 43
0.0
 43
0.0208333333333333
 43
0.0
 43
0.0
 43
0.0
 43
0.0
 43
1.0
 43
0.0
 43
0.0
 43
0.0
 43
0.0
 43
1.0
 77
     0
 47
0.0208333333333333
 47
0.0
 47
0.0
 47
0.0
 47
0.0
 47
0.0208333333333333
 47
0.0
 47
0.0
 47
0.0
 47
0.0
 47
1.0
 47
0.0
 47
0.0
 47
0.0
 47
0.0
 47
1.0
171
     0
 49
0.0208333333333333
 49
0.0
 49
0.0
 49
0.0
 49
0.0
 49
0.0208333333333333
 49
0.0
 49
0.0
 49
0.0
 49
0.0
 49
1.0
 49
0.0
 49
0.0
 49
0.0
 49
0.0
 49
1.0
175
     0
142
0.0208333333333333
142
0.0
142
0.0
142
0.0
142
0.0
142
0.0208333333333333
142
0.0
142
0.0
142
0.0
142
0.0
142
1.0
142
0.0
142
0.0
142
0.0
142
0.0
142
1.0
179
     0
144
0.0208333333333333
144
0.0
144
0.0
144
0.0
144
0.0
144
0.0208333333333333
144
0.0
144
0.0
144
0.0
144
0.0
144
1.0
144
0.0
144
0.0
144
0.0
144
0.0
144
1.0
147
0.0208333333333333
147
0.0
147
0.0
147
0.0
147
0.0
147
0.0208333333333333
147
0.0
147
0.0
147
0.0
147
0.0
147
1.0
147
0.0
147
0.0
147
0.0
147
0.0
147
1.0
  0
MATERIAL
  5
11
102
{ACAD_XDICTIONARY
360
12
102
}
102
{ACAD_REACTORS
330
10
102
}
330
10
100
AcDbMaterial
  1
ByLayer
 72
     0
 43
0.0208333333333333
 43
0.0
 43
0.0
 43
0.0
 43
0.0
 43
0.0208333333333333
 43
0.0
 43
0.0
 43
0.0
 43
0.0
 43
1.0
 43
0.0
 43
0.0
 43
0.0
 43
0.0
 43
1.0
 77
     0
 47
0.0208333333333333
 47
0.0
 47
0.0
 47
0.0
 47
0.0
 47
0.0208333333333333
 47
0.0
 47
0.0
 47
0.0
 47
0.0
 47
1.0
 47
0.0
 47
0.0
 47
0.0
 47
0.0
 47
1.0
171
     0
 49
0.0208333333333333
 49
0.0
 49
0.0
 49
0.0
 49
0.0
 49
0.0208333333333333
 49
0.0
 49
0.0
 49
0.0
 49
0.0
 49
1.0
 49
0.0
 49
0.0
 49
0.0
 49
0.0
 49
1.0
175
     0
142
0.0208333333333333
142
0.0
142
0.0
142
0.0
142
0.0
142
0.0208333333333333
142
0.0
142
0.0
142
0.0
142
0.0
142
1.0
142
0.0
142
0.0
142
0.0
142
0.0
142
1.0
179
     0
144
0.0208333333333333
144
0.0
144
0.0
144
0.0
144
0.0
144
0.0208333333333333
144
0.0
144
0.0
144
0.0
144
0.0
144
1.0
144
0.0
144
0.0
144
0.0
144
0.0
144
1.0
147
0.0208333333333333
147
0.0
147
0.0
147
0.0
147
0.0
147
0.0208333333333333
147
0.0
147
0.0
147
0.0
147
0.0
147
1.0
147
0.0
147
0.0
147
0.0
147
0.0
147
1.0
  0
MATERIAL
  5
21
102
{ACAD_XDICTIONARY
360
22
102
}
102
{ACAD_REACTORS
330
10
102
}
330
10
100
AcDbMaterial
  1
Global
 72
     0
 43
0.0208333333333333
 43
0.0
 43
0.0
 43
0.0
 43
0.0
 43
0.0208333333333333
 43
0.0
 43
0.0
 43
0.0
 43
0.0
 43
1.0
 43
0.0
 43
0.0
 43
0.0
 43
0.0
 43
1.0
 77
     0
 47
0.0208333333333333
 47
0.0
 47
0.0
 47
0.0
 47
0.0
 47
0.0208333333333333
 47
0.0
 47
0.0
 47
0.0
 47
0.0
 47
1.0
 47
0.0
 47
0.0
 47
0.0
 47
0.0
 47
1.0
171
     0
 49
0.0208333333333333
 49
0.0
 49
0.0
 49
0.0
 49
0.0
 49
0.0208333333333333
 49
0.0
 49
0.0
 49
0.0
 49
0.0
 49
1.0
 49
0.0
 49
0.0
 49
0.0
 49
0.0
 49
1.0
175
     0
142
0.0208333333333333
142
0.0
142
0.0
142
0.0
142
0.0
142
0.0208333333333333
142
0.0
142
0.0
142
0.0
142
0.0
142
1.0
142
0.0
142
0.0
142
0.0
142
0.0
142
1.0
179
     0
144
0.0208333333333333
144
0.0
144
0.0
144
0.0
144
0.0
144
0.0208333333333333
144
0.0
144
0.0
144
0.0
144
0.0
144
1.0
144
0.0
144
0.0
144
0.0
144
0.0
144
1.0
147
0.0208333333333333
147
0.0
147
0.0
147
0.0
147
0.0
147
0.0208333333333333
147
0.0
147
0.0
147
0.0
147
0.0
147
1.0
147
0.0
147
0.0
147
0.0
147
0.0
147
1.0
  0
MLEADERSTYLE
  5
67
102
{ACAD_REACTORS
330
66
102
}
330
66
100
AcDbMLeaderStyle
179
     2
170
     2
171
     1
172
     0
 90
        2
 40
0.0
 41
0.0
173
     1
 91
-1056964608
340
5B
 92
       -2
290
     1
 42
0.09
291
     1
 43
0.36
  3
Standard
 44
0.18
300

342
55
174
     1
178
     6
175
     1
176
     0
 93
-1056964608
 45
0.18
292
     0
297
     0
 46
0.18
 94
-1056964608
 47
1.0
 49
1.0
140
1.0
293
     1
141
0.0
294
     1
177
     0
142
1.0
295
     0
296
     0
143
0.125
271
     0
272
     9
273
     9
298
     1
  0
MLINESTYLE
  5
60
102
{ACAD_REACTORS
330
5F
102
}
330
5F
100
AcDbMlineStyle
  2
STANDARD
 70
     0
  3

 62
   256
 51
90.0
 52
90.0
 71
     2
 49
0.5
 62
   256
  6
BYLAYER
 49
-0.5
 62
   256
  6
BYLAYER
  0
ACDBPLACEHOLDER
  5
F
102
{ACAD_REACTORS
330
E
102
}
330
E
  0
SCALE
  5
43
102
{ACAD_REACTORS
330
42
102
}
330
42
100
AcDbScale
 70
     0
300
1:1
140
1.0
141
1.0
290
     1
  0
SCALE
  5
44
102
{ACAD_REACTORS
330
42
102
}
330
42
100
AcDbScale
 70
     0
300
1/128" = 1'-0"
140
0.0078125
141
12.0
290
     0
  0
SCALE
  5
45
102
{ACAD_REACTORS
330
42
102
}
330
42
100
AcDbScale
 70
     0
300
1/64" = 1'-0"
140
0.015625
141
12.0
290
     0
  0
SCALE
  5
46
102
{ACAD_REACTORS
330
42
102
}
330
42
100
AcDbScale
 70
     0
300
1/32" = 1'-0"
140
0.03125
141
12.0
290
     0
  0
SCALE
  5
47
102
{ACAD_REACTORS
330
42
102
}
330
42
100
AcDbScale
 70
     0
300
1/16" = 1'-0"
140
0.0625
141
12.0
290
     0
  0
SCALE
  5
48
102
{ACAD_REACTORS
330
42
102
}
330
42
100
AcDbScale
 70
     0
300
3/32" = 1'-0"
140
0.09375
141
12.0
290
     0
  0
SCALE
  5
49
102
{ACAD_REACTORS
330
42
102
}
330
42
100
AcDbScale
 70
     0
300
1/8" = 1'-0"
140
0.125
141
12.0
290
     0
  0
SCALE
  5
4A
102
{ACAD_REACTORS
330
42
102
}
330
42
100
AcDbScale
 70
     0
300
3/16" = 1'-0"
140
0.1875
141
12.0
290
     0
  0
SCALE
  5
4B
102
{ACAD_REACTORS
330
42
102
}
330
42
100
AcDbScale
 70
     0
300
1/4" = 1'-0"
140
0.25
141
12.0
290
     0
  0
SCALE
  5
4C
102
{ACAD_REACTORS
330
42
102
}
330
42
100
AcDbScale
 70
     0
300
3/8" = 1'-0"
140
0.375
141
12.0
290
     0
  0
SCALE
  5
4D
102
{ACAD_REACTORS
330
42
102
}
330
42
100
AcDbScale
 70
     0
300
1/2" = 1'-0"
140
0.5
141
12.0
290
     0
  0
SCALE
  5
4E
102
{ACAD_REACTORS
330
42
102
}
330
42
100
AcDbScale
 70
     0
300
3/4" = 1'-0"
140
0.75
141
12.0
290
     0
  0
SCALE
  5
4F
102
{ACAD_REACTORS
330
42
102
}
330
42
100
AcDbScale
 70
     0
300
1" = 1'-0"
140
1.0
141
12.0
290
     0
  0
SCALE
  5
50
102
{ACAD_REACTORS
330
42
102
}
330
42
100
AcDbScale
 70
     0
300
1-1/2" = 1'-0"
140
1.5
141
12.0
290
     0
  0
SCALE
  5
51
102
{ACAD_REACTORS
330
42
102
}
330
42
100
AcDbScale
 70
     0
300
3" = 1'-0"
140
3.0
141
12.0
290
     0
  0
SCALE
  5
52
102
{ACAD_REACTORS
330
42
102
}
330
42
100
AcDbScale
 70
     0
300
6" = 1'-0"
140
6.0
141
12.0
290
     0
  0
SCALE
  5
53
102
{ACAD_REACTORS
330
42
102
}
330
42
100
AcDbScale
 70
     0
300
1'-0" = 1'-0"
140
12.0
141
12.0
290
     0
  0
ACDBSECTIONVIEWSTYLE
  5
69
102
{ACAD_REACTORS
330
68
102
}
330
68
100
AcDbModelDocViewStyle
 70
     0
  3
Imperial24
290
     0
300
Imperial24
 90
        0
100
AcDbSectionViewStyle
 70
     0
 71
     0
 90
       78
 71
     1
340
55
 62
   256
 40
0.24
340
0
340
0
 62
   256
 40
0.24
300
I, O, Q, S, X, Z
 40
0.48
 90
        3
 40
0.18
 90
        1
 71
     2
340
5D
 90
       25
 62
   256
340
5D
 90
       50
 62
   256
 40
0.24
 40
0.0
 40
0.24
 71
     3
340
55
 62
   256
 40
0.24
 90
        1
 40
0.75
 90
        1
300
%<\AcVar ViewType \f "%tc1">% %<\AcVar ViewSectionStartId>%-%<\AcVar ViewSectionEndId>%\PSCALE %<\AcVar ViewScale \f "%sn">%
 71
     4
 62
   256
 62
   257
300
ANSI31
 40
1.0
 90
        0
290
     0
290
     0
 90
        6
 40
0.0
 40
1.570796326794896
 40
0.2617993877991494
 40
1.308996938995747
 40
-0.2617993877991494
 40
1.832595714594046
  0
TABLESTYLE
  5
65
102
{ACAD_XDICTIONARY
360
30E
102
}
102
{ACAD_REACTORS
330
64
102
}
330
64
100
AcDbTableStyle
280
     0
  3
Standard
 70
     0
 71
     0
 40
0.06
 41
0.06
280
     0
281
     0
  7
Standard
140
0.18
170
     2
 62
     0
 63
     7
283
     0
 90
      512
 91
        0
  1

274
    -2
284
     1
 64
     0
275
    -2
285
     1
 65
     0
276
    -2
286
     1
 66
     0
277
    -2
287
     1
 67
     0
278
    -2
288
     1
 68
     0
279
    -2
289
     1
 69
     0
  7
Standard
140
0.25
170
     5
 62
     0
 63
     7
283
     0
 90
      512
 91
        0
  1

274
    -2
284
     1
 64
     0
275
    -2
285
     1
 65
     0
276
    -2
286
     1
 66
     0
277
    -2
287
     1
 67
     0
278
    -2
288
     1
 68
     0
279
    -2
289
     1
 69
     0
  7
Standard
140
0.18
170
     5
 62
     0
 63
     7
283
     0
 90
      512
 91
        0
  1

274
    -2
284
     1
 64
     0
275
    -2
285
     1
 65
     0
276
    -2
286
     1
 66
     0
277
    -2
287
     1
 67
     0
278
    -2
288
     1
 68
     0
279
    -2
289
     1
 69
     0
  0
VISUALSTYLE
  5
2F
102
{ACAD_REACTORS
330
29
102
}
330
29
100
AcDbVisualStyle
  2
2dWireframe
 70
     4
177
     3
291
     0
 70
    58
 90
        0
176
     1
 90
        2
176
     1
 90
        0
176
     1
 90
        0
176
     1
 40
0.6
176
     1
 40
30.0
176
     1
 62
     7
420
 16777215
176
     1
 90
        1
176
     1
 90
        4
176
     1
 62
     7
176
     1
 62
   257
176
     1
 90
        1
176
     1
 90
        1
176
     1
 40
1.0
176
     1
 90
        0
176
     1
 62
   257
176
     1
 40
1.0
176
     1
 90
        1
176
     1
 90
        6
176
     1
 90
        2
176
     1
 62
     7
176
     1
 90
        5
176
     1
 90
        0
176
     1
 90
        0
176
     1
290
     0
176
     1
 90
        1
176
     1
 40
0.0
176
     1
 90
        0
176
     1
290
     1
176
     1
290
     1
176
     1
290
     0
176
     1
290
     0
176
     1
290
     0
176
     1
290
     0
176
     1
290
     0
176
     1
290
     0
176
     1
290
     0
176
     1
 90
       50
176
     1
 40
0.0
176
     1
 40
1.0
176
     1
 90
        0
176
     1
 62
    18
420
        0
176
     1
 90
       50
176
     1
 90
        3
176
     1
 62
     5
420
      255
176
     1
290
     0
176
     1
 90
       50
176
     1
 90
       50
176
     1
 90
       50
176
     1
290
     0
176
     1
 90
       50
176
     1
 62
   256
176
     0
 40
1.0
176
     0
 90
        2
176
     1
  1
strokes_ogs.tif
176
     1
290
     0
176
     1
 40
1.0
176
     1
 40
1.0
176
     1
  0
VISUALSTYLE
  5
2E
102
{ACAD_REACTORS
330
29
102
}
330
29
100
AcDbVisualStyle
  2
Basic
 70
     7
177
     3
291
     1
 70
    58
 90
        1
176
     1
 90
        0
176
     1
 90
        1
176
     1
 90
        0
176
     1
 40
0.6
176
     1
 40
30.0
176
     1
 62
     7
420
 16777215
176
     1
 90
        0
176
     1
 90
        4
176
     1
 62
     7
176
     1
 62
   257
176
     1
 90
        1
176
     1
 90
        1
176
     1
 40
1.0
176
     1
 90
        8
176
     1
 62
     7
176
     1
 40
1.0
176
     1
 90
        1
176
     1
 90
        6
176
     1
 90
        2
176
     1
 62
     7
176
     1
 90
        5
176
     1
 90
        0
176
     1
 90
        0
176
     1
290
     0
176
     1
 90
        1
176
     1
 40
0.0
176
     1
 90
        0
176
     1
290
     0
176
     1
290
     1
176
     1
290
     1
176
     1
290
     0
176
     1
290
     0
176
     1
290
     0
176
     1
290
     0
176
     1
290
     0
176
     1
290
     0
176
     1
 90
       50
176
     1
 40
0.0
176
     1
 40
1.0
176
     1
 90
        0
176
     1
 62
    18
420
        0
176
     1
 90
       50
176
     1
 90
        3
176
     1
 62
     5
420
      255
176
     1
290
     0
176
     1
 90
       50
176
     1
 90
       50
176
     1
 90
       50
176
     1
290
     0
176
     1
 90
       50
176
     1
 62
   256
176
     0
 40
1.0
176
     0
 90
        2
176
     1
  1
strokes_ogs.tif
176
     1
290
     0
176
     1
 40
1.0
176
     1
 40
1.0
176
     1
  0
VISUALSTYLE
  5
35
102
{ACAD_REACTORS
330
29
102
}
330
29
100
AcDbVisualStyle
  2
Brighten
 70
    12
177
     3
291
     1
 70
    58
 90
        2
176
     1
 90
        2
176
     1
 90
        0
176
     1
 90
        0
176
     1
 40
0.6
176
     1
 40
30.0
176
     1
 62
     7
420
 16777215
176
     1
 90
        1
176
     1
 90
        4
176
     1
 62
     7
176
     1
 62
   257
176
     1
 90
        1
176
     1
 90
        1
176
     1
 40
1.0
176
     1
 90
        8
176
     1
 62
     7
176
     1
 40
1.0
176
     1
 90
        1
176
     1
 90
        6
176
     1
 90
        2
176
     1
 62
     7
176
     1
 90
        5
176
     1
 90
        0
176
     1
 90
        0
176
     1
290
     0
176
     1
 90
        1
176
     1
 40
50.0
176
     1
 90
        0
176
     1
290
     0
176
     1
290
     1
176
     1
290
     1
176
     1
290
     0
176
     1
290
     0
176
     1
290
     0
176
     1
290
     0
176
     1
290
     0
176
     1
290
     0
176
     1
 90
       50
176
     1
 40
0.0
176
     1
 40
1.0
176
     1
 90
        0
176
     1
 62
    18
420
        0
176
     1
 90
       50
176
     1
 90
        3
176
     1
 62
     5
420
      255
176
     1
290
     0
176
     1
 90
       50
176
     1
 90
       50
176
     1
 90
       50
176
     1
290
     0
176
     1
 90
       50
176
     1
 62
   256
176
     0
 40
1.0
176
     0
 90
        2
176
     1
  1
strokes_ogs.tif
176
     1
290
     0
176
     1
 40
1.0
176
     1
 40
1.0
176
     1
  0
VISUALSTYLE
  5
39
102
{ACAD_REACTORS
330
29
102
}
330
29
100
AcDbVisualStyle
  2
ColorChange
 70
    16
177
     3
291
     1
 70
    58
 90
        2
176
     1
 90
        2
176
     1
 90
        3
176
     1
 90
        0
176
     1
 40
0.6
176
     1
 40
30.0
176
     1
 62
     8
420
  8421504
176
     1
 90
        1
176
     1
 90
        4
176
     1
 62
     7
176
     1
 62
   257
176
     1
 90
        1
176
     1
 90
        1
176
     1
 40
1.0
176
     1
 90
        8
176
     1
 62
     8
420
  8421504
176
     1
 40
1.0
176
     1
 90
        1
176
     1
 90
        6
176
     1
 90
        2
176
     1
 62
     7
176
     1
 90
        5
176
     1
 90
        0
176
     1
 90
        0
176
     1
290
     0
176
     1
 90
        1
176
     1
 40
0.0
176
     1
 90
        0
176
     1
290
     0
176
     1
290
     1
176
     1
290
     1
176
     1
290
     0
176
     1
290
     0
176
     1
290
     0
176
     1
290
     0
176
     1
290
     0
176
     1
290
     0
176
     1
 90
       50
176
     1
 40
0.0
176
     1
 40
1.0
176
     1
 90
        0
176
     1
 62
    18
420
        0
176
     1
 90
       50
176
     1
 90
        3
176
     1
 62
     5
420
      255
176
     1
290
     0
176
     1
 90
       50
176
     1
 90
       50
176
     1
 90
       50
176
     1
290
     0
176
     1
 90
       50
176
     1
 62
   256
176
     0
 40
1.0
176
     0
 90
        2
176
     1
  1
strokes_ogs.tif
176
     1
290
     0
176
     1
 40
1.0
176
     1
 40
1.0
176
     1
  0
VISUALSTYLE
  5
32
102
{ACAD_REACTORS
330
29
102
}
330
29
100
AcDbVisualStyle
  2
Conceptual
 70
     9
177
     3
291
     0
 70
    58
 90
        3
176
     1
 90
        2
176
     1
 90
        0
176
     1
 90
        0
176
     1
 40
0.6
176
     1
 40
30.0
176
     1
 62
     7
420
 16777215
176
     1
 90
        2
176
     1
 90
        2
176
     1
 62
     7
176
     1
 62
   257
176
     1
 90
        1
176
     1
 90
        1
176
     1
 40
179.0
176
     1
 90
        8
176
     1
 62
     7
176
     1
 40
1.0
176
     1
 90
        1
176
     1
 90
        6
176
     1
 90
        2
176
     1
 62
     7
176
     1
 90
        3
176
     1
 90
        0
176
     1
 90
        0
176
     1
290
     0
176
     1
 90
        1
176
     1
 40
0.0
176
     1
 90
        0
176
     1
290
     0
176
     1
290
     1
176
     1
290
     1
176
     1
290
     0
176
     1
290
     0
176
     1
290
     0
176
     1
290
     0
176
     1
290
     0
176
     1
290
     0
176
     1
 90
       50
176
     1
 40
0.0
176
     1
 40
1.0
176
     1
 90
        0
176
     1
 62
    18
420
        0
176
     1
 90
       50
176
     1
 90
        3
176
     1
 62
     5
420
      255
176
     1
290
     0
176
     1
 90
       50
176
     1
 90
       50
176
     1
 90
       50
176
     1
290
     0
176
     1
 90
       50
176
     1
 62
   256
176
     0
 40
1.0
176
     0
 90
        2
176
     1
  1
strokes_ogs.tif
176
     1
290
     0
176
     1
 40
1.0
176
     1
 40
1.0
176
     1
  0
VISUALSTYLE
  5
34
102
{ACAD_REACTORS
330
29
102
}
330
29
100
AcDbVisualStyle
  2
Dim
 70
    11
177
     3
291
     1
 70
    58
 90
        2
176
     1
 90
        2
176
     1
 90
        0
176
     1
 90
        0
176
     1
 40
0.6
176
     1
 40
30.0
176
     1
 62
     7
420
 16777215
176
     1
 90
        1
176
     1
 90
        4
176
     1
 62
     7
176
     1
 62
   257
176
     1
 90
        1
176
     1
 90
        1
176
     1
 40
1.0
176
     1
 90
        8
176
     1
 62
     7
176
     1
 40
1.0
176
     1
 90
        1
176
     1
 90
        6
176
     1
 90
        2
176
     1
 62
     7
176
     1
 90
        5
176
     1
 90
        0
176
     1
 90
        0
176
     1
290
     0
176
     1
 90
        1
176
     1
 40
-50.0
176
     1
 90
        0
176
     1
290
     0
176
     1
290
     1
176
     1
290
     1
176
     1
290
     0
176
     1
290
     0
176
     1
290
     0
176
     1
290
     0
176
     1
290
     0
176
     1
290
     0
176
     1
 90
       50
176
     1
 40
0.0
176
     1
 40
1.0
176
     1
 90
        0
176
     1
 62
    18
420
        0
176
     1
 90
       50
176
     1
 90
        3
176
     1
 62
     5
420
      255
176
     1
290
     0
176
     1
 90
       50
176
     1
 90
       50
176
     1
 90
       50
176
     1
290
     0
176
     1
 90
       50
176
     1
 62
   256
176
     0
 40
1.0
176
     0
 90
        2
176
     1
  1
strokes_ogs.tif
176
     1
290
     0
176
     1
 40
1.0
176
     1
 40
1.0
176
     1
  0
VISUALSTYLE
  5
41
102
{ACAD_REACTORS
330
29
102
}
330
29
100
AcDbVisualStyle
  2
EdgeColorOff
 70
    22
177
     3
291
     1
 70
    58
 90
        2
176
     0
 90
        2
176
     0
 90
        0
176
     0
 90
        0
176
     0
 40
0.6
176
     0
 40
30.0
176
     0
 62
     7
420
 16777215
176
     0
 90
        1
176
     0
 90
        4
176
     0
 62
     7
176
     0
 62
   257
176
     0
 90
        1
176
     0
 90
        1
176
     0
 40
1.0
176
     0
 90
        8
176
     2
 62
     7
176
     0
 40
1.0
176
     0
 90
        1
176
     0
 90
        6
176
     0
 90
        2
176
     0
 62
     7
176
     0
 90
        5
176
     0
 90
        0
176
     0
 90
        0
176
     0
290
     0
176
     0
 90
        1
176
     0
 40
0.0
176
     0
 90
        0
176
     0
290
     0
176
     0
290
     1
176
     0
290
     1
176
     0
290
     0
176
     0
290
     0
176
     0
290
     0
176
     0
290
     0
176
     0
290
     0
176
     0
290
     0
176
     0
 90
       50
176
     0
 40
0.0
176
     0
 40
1.0
176
     0
 90
        0
176
     0
 62
    18
420
        0
176
     0
 90
       50
176
     0
 90
        3
176
     0
 62
     5
420
      255
176
     0
290
     0
176
     0
 90
       50
176
     0
 90
       50
176
     0
 90
       50
176
     0
290
     0
176
     0
 90
       50
176
     0
 62
   256
176
     0
 40
1.0
176
     0
 90
        2
176
     0
  1
strokes_ogs.tif
176
     0
290
     0
176
     0
 40
1.0
176
     0
 40
1.0
176
     0
  0
VISUALSTYLE
  5
38
102
{ACAD_REACTORS
330
29
102
}
330
29
100
AcDbVisualStyle
  2
Facepattern
 70
    15
177
     3
291
     1
 70
    58
 90
        2
176
     1
 90
        2
176
     1
 90
        0
176
     1
 90
        0
176
     1
 40
0.6
176
     1
 40
30.0
176
     1
 62
     7
420
 16777215
176
     1
 90
        1
176
     1
 90
        4
176
     1
 62
     7
176
     1
 62
   257
176
     1
 90
        1
176
     1
 90
        1
176
     1
 40
1.0
176
     1
 90
        8
176
     1
 62
     7
176
     1
 40
1.0
176
     1
 90
        1
176
     1
 90
        6
176
     1
 90
        2
176
     1
 62
     7
176
     1
 90
        5
176
     1
 90
        0
176
     1
 90
        0
176
     1
290
     0
176
     1
 90
        1
176
     1
 40
0.0
176
     1
 90
        0
176
     1
290
     0
176
     1
290
     1
176
     1
290
     1
176
     1
290
     0
176
     1
290
     0
176
     1
290
     0
176
     1
290
     0
176
     1
290
     0
176
     1
290
     0
176
     1
 90
       50
176
     1
 40
0.0
176
     1
 40
1.0
176
     1
 90
        0
176
     1
 62
    18
420
        0
176
     1
 90
       50
176
     1
 90
        3
176
     1
 62
     5
420
      255
176
     1
290
     0
176
     1
 90
       50
176
     1
 90
       50
176
     1
 90
       50
176
     1
290
     0
176
     1
 90
       50
176
     1
 62
   256
176
     0
 40
1.0
176
     0
 90
        2
176
     1
  1
strokes_ogs.tif
176
     1
290
     0
176
     1
 40
1.0
176
     1
 40
1.0
176
     1
  0
VISUALSTYLE
  5
2A
102
{ACAD_REACTORS
330
29
102
}
330
29
100
AcDbVisualStyle
  2
Flat
 70
     0
177
     3
291
     1
 70
    58
 90
        2
176
     1
 90
        1
176
     1
 90
        1
176
     1
 90
        2
176
     1
 40
0.6
176
     1
 40
30.0
176
     1
 62
     7
420
 16777215
176
     1
 90
        0
176
     1
 90
        0
176
     1
 62
     7
176
     1
 62
   257
176
     1
 90
        1
176
     1
 90
        1
176
     1
 40
1.0
176
     1
 90
        8
176
     1
 62
     7
176
     1
 40
1.0
176
     1
 90
        1
176
     1
 90
        6
176
     1
 90
        2
176
     1
 62
     7
176
     1
 90
        5
176
     1
 90
        0
176
     1
 90
        0
176
     1
290
     0
176
     1
 90
       13
176
     1
 40
0.0
176
     1
 90
        0
176
     1
290
     0
176
     1
290
     1
176
     1
290
     1
176
     1
290
     0
176
     1
290
     0
176
     1
290
     0
176
     1
290
     0
176
     1
290
     0
176
     1
290
     0
176
     1
 90
       50
176
     1
 40
0.0
176
     1
 40
1.0
176
     1
 90
        0
176
     1
 62
    18
420
        0
176
     1
 90
       50
176
     1
 90
        3
176
     1
 62
     5
420
      255
176
     1
290
     0
176
     1
 90
       50
176
     1
 90
       50
176
     1
 90
       50
176
     1
290
     0
176
     1
 90
       50
176
     1
 62
   256
176
     0
 40
1.0
176
     0
 90
        2
176
     1
  1
strokes_ogs.tif
176
     1
290
     0
176
     1
 40
1.0
176
     1
 40
1.0
176
     1
  0
VISUALSTYLE
  5
2B
102
{ACAD_REACTORS
330
29
102
}
330
29
100
AcDbVisualStyle
  2
FlatWithEdges
 70
     1
177
     3
291
     1
 70
    58
 90
        2
176
     1
 90
        1
176
     1
 90
        1
176
     1
 90
        2
176
     1
 40
0.6
176
     1
 40
30.0
176
     1
 62
     7
420
 16777215
176
     1
 90
        1
176
     1
 90
        0
176
     1
 62
     7
176
     1
 62
   257
176
     1
 90
        1
176
     1
 90
        1
176
     1
 40
1.0
176
     1
 90
        0
176
     1
 62
   257
176
     1
 40
1.0
176
     1
 90
        1
176
     1
 90
        6
176
     1
 90
        2
176
     1
 62
     7
176
     1
 90
        5
176
     1
 90
        0
176
     1
 90
        0
176
     1
290
     0
176
     1
 90
       13
176
     1
 40
0.0
176
     1
 90
        0
176
     1
290
     0
176
     1
290
     1
176
     1
290
     1
176
     1
290
     0
176
     1
290
     0
176
     1
290
     0
176
     1
290
     0
176
     1
290
     0
176
     1
290
     0
176
     1
 90
       50
176
     1
 40
0.0
176
     1
 40
1.0
176
     1
 90
        0
176
     1
 62
    18
420
        0
176
     1
 90
       50
176
     1
 90
        3
176
     1
 62
     5
420
      255
176
     1
290
     0
176
     1
 90
       50
176
     1
 90
       50
176
     1
 90
       50
176
     1
290
     0
176
     1
 90
       50
176
     1
 62
   256
176
     0
 40
1.0
176
     0
 90
        2
176
     1
  1
strokes_ogs.tif
176
     1
290
     0
176
     1
 40
1.0
176
     1
 40
1.0
176
     1
  0
VISUALSTYLE
  5
2C
102
{ACAD_REACTORS
330
29
102
}
330
29
100
AcDbVisualStyle
  2
Gouraud
 70
     2
177
     3
291
     1
 70
    58
 90
        2
176
     1
 90
        2
176
     1
 90
        1
176
     1
 90
        2
176
     1
 40
0.6
176
     1
 40
30.0
176
     1
 62
     7
420
 16777215
176
     1
 90
        0
176
     1
 90
        0
176
     1
 62
     7
176
     1
 62
   257
176
     1
 90
        1
176
     1
 90
        1
176
     1
 40
1.0
176
     1
 90
        0
176
     1
 62
     7
176
     1
 40
1.0
176
     1
 90
        1
176
     1
 90
        6
176
     1
 90
        2
176
     1
 62
     7
176
     1
 90
        5
176
     1
 90
        0
176
     1
 90
        0
176
     1
290
     0
176
     1
 90
       13
176
     1
 40
0.0
176
     1
 90
        0
176
     1
290
     0
176
     1
290
     1
176
     1
290
     1
176
     1
290
     0
176
     1
290
     0
176
     1
290
     0
176
     1
290
     0
176
     1
290
     0
176
     1
290
     0
176
     1
 90
       50
176
     1
 40
0.0
176
     1
 40
1.0
176
     1
 90
        0
176
     1
 62
    18
420
        0
176
     1
 90
       50
176
     1
 90
        3
176
     1
 62
     5
420
      255
176
     1
290
     0
176
     1
 90
       50
176
     1
 90
       50
176
     1
 90
       50
176
     1
290
     0
176
     1
 90
       50
176
     1
 62
   256
176
     0
 40
1.0
176
     0
 90
        2
176
     1
  1
strokes_ogs.tif
176
     1
290
     0
176
     1
 40
1.0
176
     1
 40
1.0
176
     1
  0
VISUALSTYLE
  5
2D
102
{ACAD_REACTORS
330
29
102
}
330
29
100
AcDbVisualStyle
  2
GouraudWithEdges
 70
     3
177
     3
291
     1
 70
    58
 90
        2
176
     1
 90
        2
176
     1
 90
        1
176
     1
 90
        2
176
     1
 40
0.6
176
     1
 40
30.0
176
     1
 62
     7
420
 16777215
176
     1
 90
        1
176
     1
 90
        0
176
     1
 62
     7
176
     1
 62
   257
176
     1
 90
        1
176
     1
 90
        1
176
     1
 40
1.0
176
     1
 90
        0
176
     1
 62
   257
176
     1
 40
1.0
176
     1
 90
        1
176
     1
 90
        6
176
     1
 90
        2
176
     1
 62
     7
176
     1
 90
        5
176
     1
 90
        0
176
     1
 90
        0
176
     1
290
     0
176
     1
 90
       13
176
     1
 40
0.0
176
     1
 90
        0
176
     1
290
     0
176
     1
290
     1
176
     1
290
     1
176
     1
290
     0
176
     1
290
     0
176
     1
290
     0
176
     1
290
     0
176
     1
290
     0
176
     1
290
     0
176
     1
 90
       50
176
     1
 40
0.0
176
     1
 40
1.0
176
     1
 90
        0
176
     1
 62
    18
420
        0
176
     1
 90
       50
176
     1
 90
        3
176
     1
 62
     5
420
      255
176
     1
290
     0
176
     1
 90
       50
176
     1
 90
       50
176
     1
 90
       50
176
     1
290
     0
176
     1
 90
       50
176
     1
 62
   256
176
     0
 40
1.0
176
     0
 90
        2
176
     1
  1
strokes_ogs.tif
176
     1
290
     0
176
     1
 40
1.0
176
     1
 40
1.0
176
     1
  0
VISUALSTYLE
  5
31
102
{ACAD_REACTORS
330
29
102
}
330
29
100
AcDbVisualStyle
  2
Hidden
 70
     6
177
     3
291
     0
 70
    58
 90
        1
176
     1
 90
        2
176
     1
 90
        2
176
     1
 90
        0
176
     1
 40
0.6
176
     1
 40
30.0
176
     1
 62
     7
420
 16777215
176
     1
 90
        2
176
     1
 90
        2
176
     1
 62
     7
176
     1
 62
   257
176
     1
 90
        2
176
     1
 90
        1
176
     1
 40
40.0
176
     1
 90
        0
176
     1
 62
   257
176
     1
 40
1.0
176
     1
 90
        1
176
     1
 90
        6
176
     1
 90
        2
176
     1
 62
     7
176
     1
 90
        3
176
     1
 90
        0
176
     1
 90
        0
176
     1
290
     0
176
     1
 90
        1
176
     1
 40
0.0
176
     1
 90
        0
176
     1
290
     0
176
     1
290
     1
176
     1
290
     1
176
     1
290
     0
176
     1
290
     0
176
     1
290
     0
176
     1
290
     0
176
     1
290
     0
176
     1
290
     0
176
     1
 90
       50
176
     1
 40
0.0
176
     1
 40
1.0
176
     1
 90
        0
176
     1
 62
    18
420
        0
176
     1
 90
       50
176
     1
 90
        3
176
     1
 62
     5
420
      255
176
     1
290
     0
176
     1
 90
       50
176
     1
 90
       50
176
     1
 90
       50
176
     1
290
     0
176
     1
 90
       50
176
     1
 62
   256
176
     0
 40
1.0
176
     0
 90
        2
176
     1
  1
strokes_ogs.tif
176
     1
290
     0
176
     1
 40
1.0
176
     1
 40
1.0
176
     1
  0
VISUALSTYLE
  5
3F
102
{ACAD_REACTORS
330
29
102
}
330
29
100
AcDbVisualStyle
  2
JitterOff
 70
    20
177
     3
291
     1
 70
    58
 90
        2
176
     0
 90
        2
176
     0
 90
        0
176
     0
 90
        0
176
     0
 40
0.6
176
     0
 40
30.0
176
     0
 62
     7
420
 16777215
176
     0
 90
        1
176
     0
 90
        4
176
     0
 62
     7
176
     0
 62
   257
176
     0
 90
        1
176
     0
 90
        1
176
     0
 40
1.0
176
     0
 90
       10
176
     2
 62
     7
176
     0
 40
1.0
176
     0
 90
        1
176
     0
 90
        6
176
     0
 90
        2
176
     0
 62
     7
176
     0
 90
        5
176
     0
 90
        0
176
     0
 90
        0
176
     0
290
     0
176
     0
 90
        1
176
     0
 40
0.0
176
     0
 90
        0
176
     0
290
     0
176
     0
290
     1
176
     0
290
     1
176
     0
290
     0
176
     0
290
     0
176
     0
290
     0
176
     0
290
     0
176
     0
290
     0
176
     0
290
     0
176
     0
 90
       50
176
     0
 40
0.0
176
     0
 40
1.0
176
     0
 90
        0
176
     0
 62
    18
420
        0
176
     0
 90
       50
176
     0
 90
        3
176
     0
 62
     5
420
      255
176
     0
290
     0
176
     0
 90
       50
176
     0
 90
       50
176
     0
 90
       50
176
     0
290
     0
176
     0
 90
       50
176
     0
 62
   256
176
     0
 40
1.0
176
     0
 90
        2
176
     0
  1
strokes_ogs.tif
176
     0
290
     0
176
     0
 40
1.0
176
     0
 40
1.0
176
     0
  0
VISUALSTYLE
  5
37
102
{ACAD_REACTORS
330
29
102
}
330
29
100
AcDbVisualStyle
  2
Linepattern
 70
    14
177
     3
291
     1
 70
    58
 90
        2
176
     1
 90
        2
176
     1
 90
        0
176
     1
 90
        0
176
     1
 40
0.6
176
     1
 40
30.0
176
     1
 62
     7
420
 16777215
176
     1
 90
        1
176
     1
 90
        4
176
     1
 62
     7
176
     1
 62
   257
176
     1
 90
        7
176
     1
 90
        7
176
     1
 40
1.0
176
     1
 90
        8
176
     1
 62
     7
176
     1
 40
1.0
176
     1
 90
        1
176
     1
 90
        6
176
     1
 90
        2
176
     1
 62
     7
176
     1
 90
        5
176
     1
 90
        0
176
     1
 90
        0
176
     1
290
     0
176
     1
 90
        1
176
     1
 40
0.0
176
     1
 90
        0
176
     1
290
     0
176
     1
290
     1
176
     1
290
     1
176
     1
290
     0
176
     1
290
     0
176
     1
290
     0
176
     1
290
     0
176
     1
290
     0
176
     1
290
     0
176
     1
 90
       50
176
     1
 40
0.0
176
     1
 40
1.0
176
     1
 90
        0
176
     1
 62
    18
420
        0
176
     1
 90
       50
176
     1
 90
        3
176
     1
 62
     5
420
      255
176
     1
290
     0
176
     1
 90
       50
176
     1
 90
       50
176
     1
 90
       50
176
     1
290
     0
176
     1
 90
       50
176
     1
 62
   256
176
     0
 40
1.0
176
     0
 90
        2
176
     1
  1
strokes_ogs.tif
176
     1
290
     0
176
     1
 40
1.0
176
     1
 40
1.0
176
     1
  0
VISUALSTYLE
  5
40
102
{ACAD_REACTORS
330
29
102
}
330
29
100
AcDbVisualStyle
  2
OverhangOff
 70
    21
177
     3
291
     1
 70
    58
 90
        2
176
     0
 90
        2
176
     0
 90
        0
176
     0
 90
        0
176
     0
 40
0.6
176
     0
 40
30.0
176
     0
 62
     7
420
 16777215
176
     0
 90
        1
176
     0
 90
        4
176
     0
 62
     7
176
     0
 62
   257
176
     0
 90
        1
176
     0
 90
        1
176
     0
 40
1.0
176
     0
 90
        9
176
     2
 62
     7
176
     0
 40
1.0
176
     0
 90
        1
176
     0
 90
        6
176
     0
 90
        2
176
     0
 62
     7
176
     0
 90
        5
176
     0
 90
        0
176
     0
 90
        0
176
     0
290
     0
176
     0
 90
        1
176
     0
 40
0.0
176
     0
 90
        0
176
     0
290
     0
176
     0
290
     1
176
     0
290
     1
176
     0
290
     0
176
     0
290
     0
176
     0
290
     0
176
     0
290
     0
176
     0
290
     0
176
     0
290
     0
176
     0
 90
       50
176
     0
 40
0.0
176
     0
 40
1.0
176
     0
 90
        0
176
     0
 62
    18
420
        0
176
     0
 90
       50
176
     0
 90
        3
176
     0
 62
     5
420
      255
176
     0
290
     0
176
     0
 90
       50
176
     0
 90
       50
176
     0
 90
       50
176
     0
290
     0
176
     0
 90
       50
176
     0
 62
   256
176
     0
 40
1.0
176
     0
 90
        2
176
     0
  1
strokes_ogs.tif
176
     0
290
     0
176
     0
 40
1.0
176
     0
 40
1.0
176
     0
  0
VISUALSTYLE
  5
33
102
{ACAD_REACTORS
330
29
102
}
330
29
100
AcDbVisualStyle
  2
Realistic
 70
     8
177
     3
291
     0
 70
    58
 90
        2
176
     1
 90
        3
176
     1
 90
        0
176
     1
 90
        2
176
     1
 40
0.6
176
     1
 40
30.0
176
     1
 62
     7
420
 16777215
176
     1
 90
        0
176
     1
 90
        0
176
     1
 62
     7
176
     1
 62
   257
176
     1
 90
        1
176
     1
 90
        1
176
     1
 40
1.0
176
     1
 90
        8
176
     1
 62
   257
176
     1
 40
1.0
176
     1
 90
        1
176
     1
 90
        6
176
     1
 90
        2
176
     1
 62
     7
176
     1
 90
        3
176
     1
 90
        0
176
     1
 90
        0
176
     1
290
     0
176
     1
 90
       13
176
     1
 40
0.0
176
     1
 90
        0
176
     1
290
     0
176
     1
290
     1
176
     1
290
     1
176
     1
290
     0
176
     1
290
     0
176
     1
290
     0
176
     1
290
     0
176
     1
290
     0
176
     1
290
     0
176
     1
 90
       50
176
     1
 40
0.0
176
     1
 40
1.0
176
     1
 90
        0
176
     1
 62
    18
420
        0
176
     1
 90
       50
176
     1
 90
        3
176
     1
 62
     5
420
      255
176
     1
290
     0
176
     1
 90
       50
176
     1
 90
       50
176
     1
 90
       50
176
     1
290
     0
176
     1
 90
       50
176
     1
 62
   256
176
     0
 40
1.0
176
     0
 90
        2
176
     1
  1
strokes_ogs.tif
176
     1
290
     0
176
     1
 40
1.0
176
     1
 40
1.0
176
     1
  0
VISUALSTYLE
  5
3E
102
{ACAD_REACTORS
330
29
102
}
330
29
100
AcDbVisualStyle
  2
Shaded
 70
    27
177
     3
291
     0
 70
    58
 90
        2
176
     1
 90
        2
176
     1
 90
        1
176
     1
 90
        2
176
     1
 40
0.6
176
     1
 40
30.0
176
     1
 62
     7
420
 16777215
176
     1
 90
        0
176
     1
 90
        4
176
     1
 62
     7
176
     1
 62
   257
176
     1
 90
        1
176
     1
 90
        1
176
     1
 40
1.0
176
     1
 90
        8
176
     1
 62
   257
176
     1
 40
1.0
176
     1
 90
        1
176
     1
 90
        6
176
     1
 90
        2
176
     1
 62
     8
420
  7895160
176
     1
 90
        3
176
     1
 90
        0
176
     1
 90
        0
176
     1
290
     0
176
     1
 90
        5
176
     1
 40
0.0
176
     1
 90
        0
176
     1
290
     0
176
     1
290
     1
176
     1
290
     1
176
     1
290
     0
176
     1
290
     0
176
     1
290
     0
176
     1
290
     0
176
     1
290
     0
176
     1
290
     0
176
     1
 90
       50
176
     1
 40
0.0
176
     1
 40
1.0
176
     1
 90
        0
176
     1
 62
    18
420
        0
176
     1
 90
       50
176
     1
 90
        3
176
     1
 62
     5
420
      255
176
     1
290
     0
176
     1
 90
       50
176
     1
 90
       50
176
     1
 90
       50
176
     1
290
     0
176
     1
 90
       50
176
     1
 62
   256
176
     0
 40
1.0
176
     0
 90
        2
176
     1
  1
strokes_ogs.tif
176
     1
290
     0
176
     1
 40
1.0
176
     1
 40
1.0
176
     1
  0
VISUALSTYLE
  5
3D
102
{ACAD_REACTORS
330
29
102
}
330
29
100
AcDbVisualStyle
  2
Shaded with edges
 70
    26
177
     3
291
     0
 70
    58
 90
        2
176
     1
 90
        2
176
     1
 90
        1
176
     1
 90
        2
176
     1
 40
0.6
176
     1
 40
30.0
176
     1
 62
     7
420
 16777215
176
     1
 90
        1
176
     1
 90
        2
176
     1
 62
     7
176
     1
 62
   257
176
     1
 90
        2
176
     1
 90
        1
176
     1
 40
1.0
176
     1
 90
        8
176
     1
 62
   257
176
     1
 40
1.0
176
     1
 90
        1
176
     1
 90
        6
176
     1
 90
        2
176
     1
 62
     7
176
     1
 90
        3
176
     1
 90
        0
176
     1
 90
        0
176
     1
290
     0
176
     1
 90
        5
176
     1
 40
0.0
176
     1
 90
        0
176
     1
290
     0
176
     1
290
     1
176
     1
290
     1
176
     1
290
     0
176
     1
290
     0
176
     1
290
     0
176
     1
290
     0
176
     1
290
     0
176
     1
290
     0
176
     1
 90
       50
176
     1
 40
0.0
176
     1
 40
1.0
176
     1
 90
        0
176
     1
 62
    18
420
        0
176
     1
 90
       50
176
     1
 90
        3
176
     1
 62
     5
420
      255
176
     1
290
     0
176
     1
 90
       50
176
     1
 90
       50
176
     1
 90
       50
176
     1
290
     0
176
     1
 90
       50
176
     1
 62
   256
176
     0
 40
1.0
176
     0
 90
        2
176
     1
  1
strokes_ogs.tif
176
     1
290
     0
176
     1
 40
1.0
176
     1
 40
1.0
176
     1
  0
VISUALSTYLE
  5
3A
102
{ACAD_REACTORS
330
29
102
}
330
29
100
AcDbVisualStyle
  2
Shades of Gray
 70
    23
177
     3
291
     0
 70
    58
 90
        2
176
     1
 90
        2
176
     1
 90
        3
176
     1
 90
        0
176
     1
 40
0.6
176
     1
 40
30.0
176
     1
 62
     7
420
 16777215
176
     1
 90
        2
176
     1
 90
        2
176
     1
 62
     7
176
     1
 62
     7
176
     1
 90
        1
176
     1
 90
        1
176
     1
 40
40.0
176
     1
 90
        8
176
     1
 62
     7
176
     1
 40
1.0
176
     1
 90
        1
176
     1
 90
        6
176
     1
 90
        2
176
     1
 62
     7
176
     1
 90
        3
176
     1
 90
        0
176
     1
 90
        0
176
     1
290
     0
176
     1
 90
        1
176
     1
 40
0.0
176
     1
 90
        0
176
     1
290
     0
176
     1
290
     1
176
     1
290
     1
176
     1
290
     0
176
     1
290
     0
176
     1
290
     0
176
     1
290
     0
176
     1
290
     0
176
     1
290
     0
176
     1
 90
       50
176
     1
 40
0.0
176
     1
 40
1.0
176
     1
 90
        0
176
     1
 62
    18
420
        0
176
     1
 90
       50
176
     1
 90
        3
176
     1
 62
     5
420
      255
176
     1
290
     0
176
     1
 90
       50
176
     1
 90
       50
176
     1
 90
       50
176
     1
290
     0
176
     1
 90
       50
176
     1
 62
   256
176
     0
 40
1.0
176
     0
 90
        2
176
     1
  1
strokes_ogs.tif
176
     1
290
     0
176
     1
 40
1.0
176
     1
 40
1.0
176
     1
  0
VISUALSTYLE
  5
3B
102
{ACAD_REACTORS
330
29
102
}
330
29
100
AcDbVisualStyle
  2
Sketchy
 70
    24
177
     3
291
     0
 70
    58
 90
        1
176
     1
 90
        2
176
     1
 90
        2
176
     1
 90
        0
176
     1
 40
0.6
176
     1
 40
30.0
176
     1
 62
     7
420
 16777215
176
     1
 90
        2
176
     1
 90
        2
176
     1
 62
     7
176
     1
 62
     7
176
     1
 90
        1
176
     1
 90
        1
176
     1
 40
40.0
176
     1
 90
       11
176
     1
 62
     7
176
     1
 40
1.0
176
     1
 90
        1
176
     1
 90
        6
176
     1
 90
        2
176
     1
 62
     7
176
     1
 90
        6
176
     1
 90
        0
176
     1
 90
        0
176
     1
290
     0
176
     1
 90
        1
176
     1
 40
0.0
176
     1
 90
        0
176
     1
290
     0
176
     1
290
     1
176
     1
290
     1
176
     1
290
     0
176
     1
290
     0
176
     1
290
     0
176
     1
290
     0
176
     1
290
     0
176
     1
290
     0
176
     1
 90
       50
176
     1
 40
0.0
176
     1
 40
1.0
176
     1
 90
        0
176
     1
 62
    18
420
        0
176
     1
 90
       50
176
     1
 90
        3
176
     1
 62
     5
420
      255
176
     1
290
     0
176
     1
 90
       50
176
     1
 90
       50
176
     1
 90
       50
176
     1
290
     0
176
     1
 90
       50
176
     1
 62
   256
176
     0
 40
1.0
176
     0
 90
        2
176
     1
  1
strokes_ogs.tif
176
     1
290
     0
176
     1
 40
1.0
176
     1
 40
1.0
176
     1
  0
VISUALSTYLE
  5
36
102
{ACAD_REACTORS
330
29
102
}
330
29
100
AcDbVisualStyle
  2
Thicken
 70
    13
177
     3
291
     1
 70
    58
 90
        2
176
     1
 90
        2
176
     1
 90
        0
176
     1
 90
        0
176
     1
 40
0.6
176
     1
 40
30.0
176
     1
 62
     7
420
 16777215
176
     1
 90
        1
176
     1
 90
        4
176
     1
 62
     7
176
     1
 62
   257
176
     1
 90
        1
176
     1
 90
        1
176
     1
 40
1.0
176
     1
 90
       12
176
     1
 62
     7
176
     1
 40
1.0
176
     1
 90
        1
176
     1
 90
        6
176
     1
 90
        2
176
     1
 62
     7
176
     1
 90
        5
176
     1
 90
        0
176
     1
 90
        0
176
     1
290
     0
176
     1
 90
        1
176
     1
 40
0.0
176
     1
 90
        0
176
     1
290
     0
176
     1
290
     1
176
     1
290
     1
176
     1
290
     0
176
     1
290
     0
176
     1
290
     0
176
     1
290
     0
176
     1
290
     0
176
     1
290
     0
176
     1
 90
       50
176
     1
 40
0.0
176
     1
 40
1.0
176
     1
 90
        0
176
     1
 62
    18
420
        0
176
     1
 90
       50
176
     1
 90
        3
176
     1
 62
     5
420
      255
176
     1
290
     0
176
     1
 90
       50
176
     1
 90
       50
176
     1
 90
       50
176
     1
290
     0
176
     1
 90
       50
176
     1
 62
   256
176
     0
 40
1.0
176
     0
 90
        2
176
     1
  1
strokes_ogs.tif
176
     1
290
     0
176
     1
 40
1.0
176
     1
 40
1.0
176
     1
  0
VISUALSTYLE
  5
30
102
{ACAD_REACTORS
330
29
102
}
330
29
100
AcDbVisualStyle
  2
Wireframe
 70
     5
177
     3
291
     0
 70
    58
 90
        0
176
     1
 90
        2
176
     1
 90
        0
176
     1
 90
        0
176
     1
 40
0.6
176
     1
 40
30.0
176
     1
 62
     7
420
 16777215
176
     1
 90
        1
176
     1
 90
        4
176
     1
 62
     7
176
     1
 62
   257
176
     1
 90
        1
176
     1
 90
        1
176
     1
 40
1.0
176
     1
 90
        0
176
     1
 62
   257
176
     1
 40
1.0
176
     1
 90
        1
176
     1
 90
        6
176
     1
 90
        2
176
     1
 62
     7
176
     1
 90
        3
176
     1
 90
        0
176
     1
 90
        0
176
     1
290
     0
176
     1
 90
        1
176
     1
 40
0.0
176
     1
 90
        0
176
     1
290
     0
176
     1
290
     1
176
     1
290
     1
176
     1
290
     0
176
     1
290
     0
176
     1
290
     0
176
     1
290
     0
176
     1
290
     0
176
     1
290
     0
176
     1
 90
       50
176
     1
 40
0.0
176
     1
 40
1.0
176
     1
 90
        0
176
     1
 62
    18
420
        0
176
     1
 90
       50
176
     1
 90
        3
176
     1
 62
     5
420
      255
176
     1
290
     0
176
     1
 90
       50
176
     1
 90
       50
176
     1
 90
       50
176
     1
290
     0
176
     1
 90
       50
176
     1
 62
   256
176
     0
 40
1.0
176
     0
 90
        2
176
     1
  1
strokes_ogs.tif
176
     1
290
     0
176
     1
 40
1.0
176
     1
 40
1.0
176
     1
  0
VISUALSTYLE
  5
3C
102
{ACAD_REACTORS
330
29
102
}
330
29
100
AcDbVisualStyle
  2
X-Ray
 70
    25
177
     3
291
     0
 70
    58
 90
        2
176
     1
 90
        2
176
     1
 90
        1
176
     1
 90
        1
176
     1
 40
0.5
176
     1
 40
30.0
176
     1
 62
     7
420
 16777215
176
     1
 90
        1
176
     1
 90
        0
176
     1
 62
     7
176
     1
 62
   257
176
     1
 90
        1
176
     1
 90
        1
176
     1
 40
1.0
176
     1
 90
        8
176
     1
 62
     7
176
     1
 40
1.0
176
     1
 90
        1
176
     1
 90
        6
176
     1
 90
        2
176
     1
 62
     7
176
     1
 90
        3
176
     1
 90
        0
176
     1
 90
        0
176
     1
290
     0
176
     1
 90
       13
176
     1
 40
0.0
176
     1
 90
        0
176
     1
290
     0
176
     1
290
     1
176
     1
290
     1
176
     1
290
     0
176
     1
290
     0
176
     1
290
     0
176
     1
290
     0
176
     1
290
     0
176
     1
290
     0
176
     1
 90
       50
176
     1
 40
0.0
176
     1
 40
1.0
176
     1
 90
        0
176
     1
 62
    18
420
        0
176
     1
 90
       50
176
     1
 90
        3
176
     1
 62
     5
420
      255
176
     1
290
     0
176
     1
 90
       50
176
     1
 90
       50
176
     1
 90
       50
176
     1
290
     0
176
     1
 90
       50
176
     1
 62
   256
176
     0
 40
1.0
176
     0
 90
        2
176
     1
  1
strokes_ogs.tif
176
     1
290
     0
176
     1
 40
1.0
176
     1
 40
1.0
176
     1
  0
DICTIONARYVAR
  5
1B9
102
{ACAD_REACTORS
330
1B4
102
}
330
1B4
100
DictionaryVariables
280
     0
  1
1:1
  0
DICTIONARYVAR
  5
1B6
102
{ACAD_REACTORS
330
1B4
102
}
330
1B4
100
DictionaryVariables
280
     0
  1
STANDARD
  0
DICTIONARYVAR
  5
1B5
102
{ACAD_REACTORS
330
1B4
102
}
330
1B4
100
DictionaryVariables
280
     0
  1
STANDARD
  0
DICTIONARYVAR
  5
1B7
102
{ACAD_REACTORS
330
1B4
102
}
330
1B4
100
DictionaryVariables
280
     0
  1
Imperial24
  0
DICTIONARYVAR
  5
1B8
102
{ACAD_REACTORS
330
1B4
102
}
330
1B4
100
DictionaryVariables
280
     0
  1
Imperial24
  0
DICTIONARY
  5
1A
330
19
100
AcDbDictionary
280
     1
281
     1
  3
BUMPTILE
360
1C
  3
DIFFUSETILE
360
1B
  3
OPACITYTILE
360
1F
  3
REFLECTIONTILE
360
1E
  3
REFRACTIONTILE
360
20
  3
SPECULARTILE
360
1D
  0
DICTIONARY
  5
12
330
11
100
AcDbDictionary
280
     1
281
     1
  3
BUMPTILE
360
14
  3
DIFFUSETILE
360
13
  3
OPACITYTILE
360
17
  3
REFLECTIONTILE
360
16
  3
REFRACTIONTILE
360
18
  3
SPECULARTILE
360
15
  0
DICTIONARY
  5
22
330
21
100
AcDbDictionary
280
     1
281
     1
  3
BUMPTILE
360
24
  3
DIFFUSETILE
360
23
  3
OPACITYTILE
360
27
  3
REFLECTIONTILE
360
26
  3
REFRACTIONTILE
360
28
  3
SPECULARTILE
360
25
  0
DICTIONARY
  5
30E
330
65
100
AcDbDictionary
280
     1
281
     1
  3
ACAD_ROUNDTRIP_2008_TABLESTYLE_CELLSTYLEMAP
360
30F
  0
XRECORD
  5
1C
102
{ACAD_REACTORS
330
1A
102
}
330
1A
100
AcDbXrecord
280
     1
270
     1
271
     1
  0
XRECORD
  5
1B
102
{ACAD_REACTORS
330
1A
102
}
330
1A
100
AcDbXrecord
280
     1
270
     1
271
     1
  0
XRECORD
  5
1F
102
{ACAD_REACTORS
330
1A
102
}
330
1A
100
AcDbXrecord
280
     1
270
     1
271
     1
  0
XRECORD
  5
1E
102
{ACAD_REACTORS
330
1A
102
}
330
1A
100
AcDbXrecord
280
     1
270
     1
271
     1
  0
XRECORD
  5
20
102
{ACAD_REACTORS
330
1A
102
}
330
1A
100
AcDbXrecord
280
     1
270
     1
271
     1
  0
XRECORD
  5
1D
102
{ACAD_REACTORS
330
1A
102
}
330
1A
100
AcDbXrecord
280
     1
270
     1
271
     1
  0
XRECORD
  5
14
102
{ACAD_REACTORS
330
12
102
}
330
12
100
AcDbXrecord
280
     1
270
     1
271
     1
  0
XRECORD
  5
13
102
{ACAD_REACTORS
330
12
102
}
330
12
100
AcDbXrecord
280
     1
270
     1
271
     1
  0
XRECORD
  5
17
102
{ACAD_REACTORS
330
12
102
}
330
12
100
AcDbXrecord
280
     1
270
     1
271
     1
  0
XRECORD
  5
16
102
{ACAD_REACTORS
330
12
102
}
330
12
100
AcDbXrecord
280
     1
270
     1
271
     1
  0
XRECORD
  5
18
102
{ACAD_REACTORS
330
12
102
}
330
12
100
AcDbXrecord
280
     1
270
     1
271
     1
  0
XRECORD
  5
15
102
{ACAD_REACTORS
330
12
102
}
330
12
100
AcDbXrecord
280
     1
270
     1
271
     1
  0
XRECORD
  5
24
102
{ACAD_REACTORS
330
22
102
}
330
22
100
AcDbXrecord
280
     1
270
     1
271
     1
  0
XRECORD
  5
23
102
{ACAD_REACTORS
330
22
102
}
330
22
100
AcDbXrecord
280
     1
270
     1
271
     1
  0
XRECORD
  5
27
102
{ACAD_REACTORS
330
22
102
}
330
22
100
AcDbXrecord
280
     1
270
     1
271
     1
  0
XRECORD
  5
26
102
{ACAD_REACTORS
330
22
102
}
330
22
100
AcDbXrecord
280
     1
270
     1
271
     1
  0
XRECORD
  5
28
102
{ACAD_REACTORS
330
22
102
}
330
22
100
AcDbXrecord
280
     1
270
     1
271
     1
  0
XRECORD
  5
25
102
{ACAD_REACTORS
330
22
102
}
330
22
100
AcDbXrecord
280
     1
270
     1
271
     1
  0
CELLSTYLEMAP
  5
30F
102
{ACAD_REACTORS
330
30E
102
}
330
30E
100
AcDbCellStyleMap
 90
        3
300
CELLSTYLE
  1
TABLEFORMAT_BEGIN
 90
        5
170
     1
 91
        0
 92
    32768
 62
   257
 93
        1
300
CONTENTFORMAT
  1
CONTENTFORMAT_BEGIN
 90
        0
 91
        0
 92
      512
 93
        0
300

 40
0.0
140
1.0
 94
        5
 62
     0
340
55
144
0.25
309
CONTENTFORMAT_END
171
     0
 94
        0
309
TABLEFORMAT_END
  1
CELLSTYLE_BEGIN
 90
        1
 91
        1
300
_TITLE
309
CELLSTYLE_END
300
CELLSTYLE
  1
TABLEFORMAT_BEGIN
 90
        5
170
     1
 91
        0
 92
        0
 62
   257
 93
        1
300
CONTENTFORMAT
  1
CONTENTFORMAT_BEGIN
 90
        0
 91
        0
 92
      512
 93
        0
300

 40
0.0
140
1.0
 94
        5
 62
     0
340
55
144
0.18
309
CONTENTFORMAT_END
171
     0
 94
        0
309
TABLEFORMAT_END
  1
CELLSTYLE_BEGIN
 90
        2
 91
        1
300
_HEADER
309
CELLSTYLE_END
300
CELLSTYLE
  1
TABLEFORMAT_BEGIN
 90
        5
170
     1
 91
        0
 92
        0
 62
   257
 93
        1
300
CONTENTFORMAT
  1
CONTENTFORMAT_BEGIN
 90
        0
 91
        0
 92
      512
 93
        0
300

 40
0.0
140
1.0
 94
        2
 62
     0
340
55
144
0.18
309
CONTENTFORMAT_END
171
     0
 94
        0
309
TABLEFORMAT_END
  1
CELLSTYLE_BEGIN
 90
        3
 91
        2
300
_DATA
309
CELLSTYLE_END
  0
ENDSEC
  0
SECTION
  2
ACDSDATA
 70
     2
 71
     8
  0
ACDSSCHEMA
 90
        0
  1
AcDb_Thumbnail_Schema
  2
AcDbDs::ID
280
    10
 91
        8
  2
Thumbnail_Data
280
    15
 91
        0
101
ACDSRECORD
 95
        0
 90
        1
  2
AcDbDs::TreatedAsObjectData
280
     1
291
     1
101
ACDSRECORD
 95
        0
 90
        2
  2
AcDbDs::Legacy
280
     1
291
     1
101
ACDSRECORD
  1
AcDbDs::ID
 90
        3
  2
AcDs:Indexable
280
     1
291
     1
101
ACDSRECORD
  1
AcDbDs::ID
 90
        4
  2
AcDbDs::HandleAttribute
280
     7
282
     1
  0
ACDSSCHEMA
 90
        1
  1
AcDbDs::TreatedAsObjectDataSchema
  2
AcDbDs::TreatedAsObjectData
280
     1
 91
        0
  0
ACDSSCHEMA
 90
        2
  1
AcDbDs::LegacySchema
  2
AcDbDs::Legacy
280
     1
 91
        0
  0
ACDSSCHEMA
 90
        3
  1
AcDbDs::IndexedPropertySchema
  2
AcDs:Indexable
280
     1
 91
        0
  0
ACDSSCHEMA
 90
        4
  1
AcDbDs::HandleAttributeSchema
  2
AcDbDs::HandleAttribute
280
     7
 91
        1
284
     1
  0
ACDSRECORD
 90
        0
  2
AcDbDs::ID
280
    10
320
73
  2
Thumbnail_Data
280
    15
 94
      984
310
89504E470D0A1A0A0000000D49484452000001000000007208030000008B31FF2A00000300504C5445212830FFFFFF2128300000000000000000000000000000000000000000000000000000330000660000990000CC0000FF0033000033330033660033990033CC0033FF0066000066330066660066990066CC0066FF0099
310
000099330099660099990099CC0099FF00CC0000CC3300CC6600CC9900CCCC00CCFF00FF0000FF3300FF6600FF9900FFCC00FFFF3300003300333300663300993300CC3300FF3333003333333333663333993333CC3333FF3366003366333366663366993366CC3366FF3399003399333399663399993399CC3399FF33CC00
310
33CC3333CC6633CC9933CCCC33CCFF33FF0033FF3333FF6633FF9933FFCC33FFFF6600006600336600666600996600CC6600FF6633006633336633666633996633CC6633FF6666006666336666666666996666CC6666FF6699006699336699666699996699CC6699FF66CC0066CC3366CC6666CC9966CCCC66CCFF66FF0066
310
FF3366FF6666FF9966FFCC66FFFF9900009900339900669900999900CC9900FF9933009933339933669933999933CC9933FF9966009966339966669966999966CC9966FF9999009999339999669999999999CC9999FF99CC0099CC3399CC6699CC9999CCCC99CCFF99FF0099FF3399FF6699FF9999FFCC99FFFFCC0000CC00
310
33CC0066CC0099CC00CCCC00FFCC3300CC3333CC3366CC3399CC33CCCC33FFCC6600CC6633CC6666CC6699CC66CCCC66FFCC9900CC9933CC9966CC9999CC99CCCC99FFCCCC00CCCC33CCCC66CCCC99CCCCCCCCCCFFCCFF00CCFF33CCFF66CCFF99CCFFCCCCFFFFFF0000FF0033FF0066FF0099FF00CCFF00FFFF3300FF3333
310
FF3366FF3399FF33CCFF33FFFF6600FF6633FF6666FF6699FF66CCFF66FFFF9900FF9933FF9966FF9999FF99CCFF99FFFFCC00FFCC33FFCC66FFCC99FFCCCCFFCCFFFFFF00FFFF33FFFF66FFFF99FFFFCCFFFFFF0000000D0D0D1A1A1A2828283535354343435050505D5D5D6B6B6B787878868686939393A1A1A1AEAEAEBB
310
BBBBC9C9C9D6D6D6E4E4E4F1F1F1FFFFFF0000000000000000000000000000000000000000000000000000000000002E4550F1000000904944415478DAEDD7310E80200C0550EE7FDFEE46246C127431B6EFC5181686FE40B5AD01000000000000000000000000000000005B62988B6DE7E654013CDA75159F2380F17E1940
310
3F3A854F40DF583980FE540C6036C14427E0D557602E81823D00E0F74D7031CC8C1FC4481EC07D85D7A413B913588FF5512280585D8FFC012CEA8B68F97B000000000000007CEA005F60159ADC529CF00000000049454E44AE426082426082
  0
ENDSEC
  0
EOF
