  0
SECTION
  2
HEADER
  9
$ACADVER
  1
AC1027
  9
$ACADMAINTVER
 70
   125
  9
$DWGCODEPAGE
  3
ANSI_1252
  9
$LASTSAVEDBY
  1
ufficio.tecnico
  9
$REQUIREDVERSIONS
160
                 0
  9
$INSBASE
 10
0.0
 20
0.0
 30
0.0
  9
$EXTMIN
 10
8.770957128934391
 20
-1.224079449735143
 30
0.0
  9
$EXTMAX
 10
24.69998843201533
 20
15.99074238709386
 30
0.0
  9
$LIMMIN
 10
0.0
 20
0.0
  9
$LIMMAX
 10
12.0
 20
9.0
  9
$ORTHOMODE
 70
     0
  9
$REGENMODE
 70
     1
  9
$FILLMODE
 70
     1
  9
$QTEXTMODE
 70
     0
  9
$MIRRTEXT
 70
     0
  9
$LTSCALE
 40
1.0
  9
$ATTMODE
 70
     1
  9
$TEXTSIZE
 40
0.2
  9
$TRACEWID
 40
0.05
  9
$TEXTSTYLE
  7
Standard
  9
$CLAYER
  8
0
  9
$CELTYPE
  6
ByLayer
  9
$CECOLOR
 62
   256
  9
$CELTSCALE
 40
1.0
  9
$DISPSILH
 70
     0
  9
$DIMSCALE
 40
1.0
  9
$DIMASZ
 40
0.18
  9
$DIMEXO
 40
0.0625
  9
$DIMDLI
 40
0.38
  9
$DIMRND
 40
0.0
  9
$DIMDLE
 40
0.0
  9
$DIMEXE
 40
0.18
  9
$DIMTP
 40
0.0
  9
$DIMTM
 40
0.0
  9
$DIMTXT
 40
0.18
  9
$DIMCEN
 40
0.09
  9
$DIMTSZ
 40
0.0
  9
$DIMTOL
 70
     0
  9
$DIMLIM
 70
     0
  9
$DIMTIH
 70
     1
  9
$DIMTOH
 70
     1
  9
$DIMSE1
 70
     0
  9
$DIMSE2
 70
     0
  9
$DIMTAD
 70
     0
  9
$DIMZIN
 70
     0
  9
$DIMBLK
  1

  9
$DIMASO
 70
     1
  9
$DIMSHO
 70
     1
  9
$DIMPOST
  1

  9
$DIMAPOST
  1

  9
$DIMALT
 70
     0
  9
$DIMALTD
 70
     2
  9
$DIMALTF
 40
25.4
  9
$DIMLFAC
 40
1.0
  9
$DIMTOFL
 70
     0
  9
$DIMTVP
 40
0.0
  9
$DIMTIX
 70
     0
  9
$DIMSOXD
 70
     0
  9
$DIMSAH
 70
     0
  9
$DIMBLK1
  1

  9
$DIMBLK2
  1

  9
$DIMSTYLE
  2
Standard
  9
$DIMCLRD
 70
     0
  9
$DIMCLRE
 70
     0
  9
$DIMCLRT
 70
     0
  9
$DIMTFAC
 40
1.0
  9
$DIMGAP
 40
0.09
  9
$DIMJUST
 70
     0
  9
$DIMSD1
 70
     0
  9
$DIMSD2
 70
     0
  9
$DIMTOLJ
 70
     1
  9
$DIMTZIN
 70
     0
  9
$DIMALTZ
 70
     0
  9
$DIMALTTZ
 70
     0
  9
$DIMUPT
 70
     0
  9
$DIMDEC
 70
     4
  9
$DIMTDEC
 70
     4
  9
$DIMALTU
 70
     2
  9
$DIMALTTD
 70
     2
  9
$DIMTXSTY
  7
Standard
  9
$DIMAUNIT
 70
     0
  9
$DIMADEC
 70
     0
  9
$DIMALTRND
 40
0.0
  9
$DIMAZIN
 70
     0
  9
$DIMDSEP
 70
    46
  9
$DIMATFIT
 70
     3
  9
$DIMFRAC
 70
     0
  9
$DIMLDRBLK
  1

  9
$DIMLUNIT
 70
     2
  9
$DIMLWD
 70
    -2
  9
$DIMLWE
 70
    -2
  9
$DIMTMOVE
 70
     0
  9
$DIMFXL
 40
1.0
  9
$DIMFXLON
 70
     0
  9
$DIMJOGANG
 40
0.7853981633974483
  9
$DIMTFILL
 70
     0
  9
$DIMTFILLCLR
 70
     0
  9
$DIMARCSYM
 70
     0
  9
$DIMLTYPE
  6

  9
$DIMLTEX1
  6

  9
$DIMLTEX2
  6

  9
$DIMTXTDIRECTION
 70
     0
  9
$LUNITS
 70
     2
  9
$LUPREC
 70
     4
  9
$SKETCHINC
 40
0.1
  9
$FILLETRAD
 40
0.0
  9
$AUNITS
 70
     0
  9
$AUPREC
 70
     0
  9
$MENU
  1
.
  9
$ELEVATION
 40
0.0
  9
$PELEVATION
 40
0.0
  9
$THICKNESS
 40
0.0
  9
$LIMCHECK
 70
     0
  9
$CHAMFERA
 40
0.0
  9
$CHAMFERB
 40
0.0
  9
$CHAMFERC
 40
0.0
  9
$CHAMFERD
 40
0.0
  9
$SKPOLY
 70
     0
  9
$TDCREATE
 40
2459863.416331018
  9
$TDUCREATE
 40
2459863.332997685
  9
$TDUPDATE
 40
2459864.723993056
  9
$TDUUPDATE
 40
2459864.640659722
  9
$TDINDWG
 40
0.0024189815
  9
$TDUSRTIMER
 40
0.0024189815
  9
$USRTIMER
 70
     1
  9
$ANGBASE
 50
0.0
  9
$ANGDIR
 70
     0
  9
$PDMODE
 70
     0
  9
$PDSIZE
 40
0.0
  9
$PLINEWID
 40
0.0
  9
$SPLFRAME
 70
     0
  9
$SPLINETYPE
 70
     6
  9
$SPLINESEGS
 70
     8
  9
$HANDSEED
  5
1ED
  9
$SURFTAB1
 70
     6
  9
$SURFTAB2
 70
     6
  9
$SURFTYPE
 70
     6
  9
$SURFU
 70
     6
  9
$SURFV
 70
     6
  9
$UCSBASE
  2

  9
$UCSNAME
  2

  9
$UCSORG
 10
0.0
 20
0.0
 30
0.0
  9
$UCSXDIR
 10
1.0
 20
0.0
 30
0.0
  9
$UCSYDIR
 10
0.0
 20
1.0
 30
0.0
  9
$UCSORTHOREF
  2

  9
$UCSORTHOVIEW
 70
     0
  9
$UCSORGTOP
 10
0.0
 20
0.0
 30
0.0
  9
$UCSORGBOTTOM
 10
0.0
 20
0.0
 30
0.0
  9
$UCSORGLEFT
 10
0.0
 20
0.0
 30
0.0
  9
$UCSORGRIGHT
 10
0.0
 20
0.0
 30
0.0
  9
$UCSORGFRONT
 10
0.0
 20
0.0
 30
0.0
  9
$UCSORGBACK
 10
0.0
 20
0.0
 30
0.0
  9
$PUCSBASE
  2

  9
$PUCSNAME
  2

  9
$PUCSORG
 10
0.0
 20
0.0
 30
0.0
  9
$PUCSXDIR
 10
1.0
 20
0.0
 30
0.0
  9
$PUCSYDIR
 10
0.0
 20
1.0
 30
0.0
  9
$PUCSORTHOREF
  2

  9
$PUCSORTHOVIEW
 70
     0
  9
$PUCSORGTOP
 10
0.0
 20
0.0
 30
0.0
  9
$PUCSORGBOTTOM
 10
0.0
 20
0.0
 30
0.0
  9
$PUCSORGLEFT
 10
0.0
 20
0.0
 30
0.0
  9
$PUCSORGRIGHT
 10
0.0
 20
0.0
 30
0.0
  9
$PUCSORGFRONT
 10
0.0
 20
0.0
 30
0.0
  9
$PUCSORGBACK
 10
0.0
 20
0.0
 30
0.0
  9
$USERI1
 70
     0
  9
$USERI2
 70
     0
  9
$USERI3
 70
     0
  9
$USERI4
 70
     0
  9
$USERI5
 70
     0
  9
$USERR1
 40
0.0
  9
$USERR2
 40
0.0
  9
$USERR3
 40
0.0
  9
$USERR4
 40
0.0
  9
$USERR5
 40
0.0
  9
$WORLDVIEW
 70
     1
  9
$SHADEDGE
 70
     3
  9
$SHADEDIF
 70
    70
  9
$TILEMODE
 70
     1
  9
$MAXACTVP
 70
    64
  9
$PINSBASE
 10
0.0
 20
0.0
 30
0.0
  9
$PLIMCHECK
 70
     0
  9
$PEXTMIN
 10
1.000000000000000E+20
 20
1.000000000000000E+20
 30
1.000000000000000E+20
  9
$PEXTMAX
 10
-1.000000000000000E+20
 20
-1.000000000000000E+20
 30
-1.000000000000000E+20
  9
$PLIMMIN
 10
0.0
 20
0.0
  9
$PLIMMAX
 10
12.0
 20
9.0
  9
$UNITMODE
 70
     0
  9
$VISRETAIN
 70
     1
  9
$PLINEGEN
 70
     0
  9
$PSLTSCALE
 70
     1
  9
$TREEDEPTH
 70
  3020
  9
$CMLSTYLE
  2
Standard
  9
$CMLJUST
 70
     0
  9
$CMLSCALE
 40
1.0
  9
$PROXYGRAPHICS
 70
     1
  9
$MEASUREMENT
 70
     0
  9
$CELWEIGHT
370
    -1
  9
$ENDCAPS
280
     0
  9
$JOINSTYLE
280
     0
  9
$LWDISPLAY
290
     1
  9
$INSUNITS
 70
     5
  9
$HYPERLINKBASE
  1

  9
$STYLESHEET
  1

  9
$XEDIT
290
     1
  9
$CEPSNTYPE
380
     0
  9
$PSTYLEMODE
290
     1
  9
$FINGERPRINTGUID
  2
{1F1E2EB8-7F4A-AB44-BA31-7B4E3956F199}
  9
$VERSIONGUID
  2
{DB3704C2-F72B-0242-AE1B-6FA13F78B828}
  9
$EXTNAMES
290
     1
  9
$PSVPSCALE
 40
0.0
  9
$OLESTARTUP
290
     0
  9
$SORTENTS
280
   127
  9
$INDEXCTL
280
     0
  9
$HIDETEXT
280
     1
  9
$XCLIPFRAME
280
     2
  9
$HALOGAP
280
     0
  9
$OBSCOLOR
 70
   257
  9
$OBSLTYPE
280
     0
  9
$INTERSECTIONDISPLAY
280
     0
  9
$INTERSECTIONCOLOR
 70
   257
  9
$DIMASSOC
280
     2
  9
$PROJECTNAME
  1

  9
$CAMERADISPLAY
290
     0
  9
$LENSLENGTH
 40
50.0
  9
$CAMERAHEIGHT
 40
0.0
  9
$STEPSPERSEC
 40
2.0
  9
$STEPSIZE
 40
6.0
  9
$3DDWFPREC
 40
2.0
  9
$PSOLWIDTH
 40
0.25
  9
$PSOLHEIGHT
 40
4.0
  9
$LOFTANG1
 40
1.570796326794896
  9
$LOFTANG2
 40
1.570796326794896
  9
$LOFTMAG1
 40
0.0
  9
$LOFTMAG2
 40
0.0
  9
$LOFTPARAM
 70
     7
  9
$LOFTNORMALS
280
     1
  9
$LATITUDE
 40
37.795
  9
$LONGITUDE
 40
-122.394
  9
$NORTHDIRECTION
 40
0.0
  9
$TIMEZONE
 70
 -8000
  9
$LIGHTGLYPHDISPLAY
280
     1
  9
$TILEMODELIGHTSYNCH
280
     1
  9
$CMATERIAL
347
11
  9
$SOLIDHIST
280
     0
  9
$SHOWHIST
280
     1
  9
$DWFFRAME
280
     2
  9
$DGNFRAME
280
     0
  9
$REALWORLDSCALE
290
     1
  9
$INTERFERECOLOR
 62
     1
  9
$INTERFEREOBJVS
345
33
  9
$INTERFEREVPVS
346
30
  9
$CSHADOW
280
     0
  9
$SHADOWPLANELOCATION
 40
0.0
  0
ENDSEC
  0
SECTION
  2
CLASSES
  0
CLASS
  1
ACDBDICTIONARYWDFLT
  2
AcDbDictionaryWithDefault
  3
ObjectDBX Classes
 90
        0
 91
        1
280
     0
281
     0
  0
CLASS
  1
MATERIAL
  2
AcDbMaterial
  3
ObjectDBX Classes
 90
     1153
 91
        3
280
     0
281
     0
  0
CLASS
  1
VISUALSTYLE
  2
AcDbVisualStyle
  3
ObjectDBX Classes
 90
     4095
 91
       24
280
     0
281
     0
  0
CLASS
  1
SCALE
  2
AcDbScale
  3
ObjectDBX Classes
 90
     1153
 91
       17
280
     0
281
     0
  0
CLASS
  1
TABLESTYLE
  2
AcDbTableStyle
  3
ObjectDBX Classes
 90
     4095
 91
        1
280
     0
281
     0
  0
CLASS
  1
MLEADERSTYLE
  2
AcDbMLeaderStyle
  3
ACDB_MLEADERSTYLE_CLASS
 90
     4095
 91
        1
280
     0
281
     0
  0
CLASS
  1
ACDBSECTIONVIEWSTYLE
  2
AcDbSectionViewStyle
  3
ObjectDBX Classes
 90
     1025
 91
        1
280
     0
281
     0
  0
CLASS
  1
ACDBDETAILVIEWSTYLE
  2
AcDbDetailViewStyle
  3
ObjectDBX Classes
 90
     1025
 91
        1
280
     0
281
     0
  0
CLASS
  1
DICTIONARYVAR
  2
AcDbDictionaryVar
  3
ObjectDBX Classes
 90
        0
 91
        5
280
     0
281
     0
  0
CLASS
  1
SORTENTSTABLE
  2
AcDbSortentsTable
  3
ObjectDBX Classes
 90
        0
 91
        3
280
     0
281
     0
  0
CLASS
  1
CELLSTYLEMAP
  2
AcDbCellStyleMap
  3
ObjectDBX Classes
 90
     1152
 91
        1
280
     0
281
     0
  0
ENDSEC
  0
SECTION
  2
TABLES
  0
TABLE
  2
VPORT
  5
8
330
0
100
AcDbSymbolTable
 70
     1
1001
ACAD
1000
DbSaveVer
1071
      249
  0
VPORT
  5
57
330
8
100
AcDbSymbolTableRecord
100
AcDbViewportTableRecord
  2
*Active
 70
     0
 10
0.0
 20
0.0
 11
1.0
 21
1.0
 12
16.03412222235381
 22
0.0631231088033033
 13
0.0
 23
0.0
 14
1.0
 24
1.0
 15
0.0
 25
0.0
 16
0.0
 26
0.0
 36
1.0
 17
13.89944444096958
 27
5.00944444319208
 37
0.0
 40
64.32503266694933
 41
1.855329949238578
 42
50.0
 43
0.0
 44
0.0
 50
0.0
 51
0.0
 71
     0
 72
   100
 73
     1
 74
     1
 75
     0
 76
     0
 77
     0
 78
     0
281
     0
 65
     1
110
0.0
120
0.0
130
0.0
111
1.0
121
0.0
131
0.0
112
0.0
122
1.0
132
0.0
 79
     0
146
0.0
348
2F
 60
     3
 61
     5
292
     1
282
     1
141
0.0
142
0.0
 63
   250
421
  3355443
1001
ACAD_NAV_VCDISPLAY
1070
     3
  0
ENDTAB
  0
TABLE
  2
LTYPE
  5
5
330
0
100
AcDbSymbolTable
 70
     3
  0
LTYPE
  5
5B
330
5
100
AcDbSymbolTableRecord
100
AcDbLinetypeTableRecord
  2
ByBlock
 70
     0
  3

 72
    65
 73
     0
 40
0.0
  0
LTYPE
  5
5C
330
5
100
AcDbSymbolTableRecord
100
AcDbLinetypeTableRecord
  2
ByLayer
 70
     0
  3

 72
    65
 73
     0
 40
0.0
  0
LTYPE
  5
5D
330
5
100
AcDbSymbolTableRecord
100
AcDbLinetypeTableRecord
  2
Continuous
 70
     0
  3
Solid line
 72
    65
 73
     0
 40
0.0
  0
ENDTAB
  0
TABLE
  2
LAYER
  5
2
330
0
100
AcDbSymbolTable
 70
     2
  0
LAYER
  5
54
330
2
100
AcDbSymbolTableRecord
100
AcDbLayerTableRecord
  2
0
 70
     0
 62
     7
  6
Continuous
370
    -3
390
F
347
21
348
0
  0
LAYER
  5
78
330
2
100
AcDbSymbolTableRecord
100
AcDbLayerTableRecord
  2
Livello 2
 70
     0
 62
     7
  6
Continuous
370
     0
390
F
347
21
348
0
  0
ENDTAB
  0
TABLE
  2
STYLE
  5
3
330
0
100
AcDbSymbolTable
 70
     2
  0
STYLE
  5
55
330
3
100
AcDbSymbolTableRecord
100
AcDbTextStyleTableRecord
  2
Standard
 70
     0
 40
0.0
 41
1.0
 50
0.0
 71
     0
 42
0.2
  3
txt
  4

  0
STYLE
  5
5A
330
3
100
AcDbSymbolTableRecord
100
AcDbTextStyleTableRecord
  2
Annotative
 70
     0
 40
0.0
 41
1.0
 50
0.0
 71
     0
 42
0.2
  3
txt
  4

1001
AcadAnnotative
1000
AnnotativeData
1002
{
1070
     1
1070
     1
1002
}
  0
ENDTAB
  0
TABLE
  2
VIEW
  5
6
330
0
100
AcDbSymbolTable
 70
     0
  0
ENDTAB
  0
TABLE
  2
UCS
  5
7
330
0
100
AcDbSymbolTable
 70
     0
  0
ENDTAB
  0
TABLE
  2
APPID
  5
9
330
0
100
AcDbSymbolTable
 70
     4
  0
APPID
  5
56
330
9
100
AcDbSymbolTableRecord
100
AcDbRegAppTableRecord
  2
ACAD
 70
     0
  0
APPID
  5
5E
330
9
100
AcDbSymbolTableRecord
100
AcDbRegAppTableRecord
  2
AcadAnnotative
 70
     0
  0
APPID
  5
1C9
330
9
100
AcDbSymbolTableRecord
100
AcDbRegAppTableRecord
  2
ACAD_EXEMPT_FROM_CAD_STANDARDS
 70
     0
  0
APPID
  5
1D5
330
9
100
AcDbSymbolTableRecord
100
AcDbRegAppTableRecord
  2
ACAD_NAV_VCDISPLAY
 70
     0
  0
ENDTAB
  0
TABLE
  2
DIMSTYLE
  5
A
330
0
100
AcDbSymbolTable
 70
     3
100
AcDbDimStyleTable
 71
     1
340
58
  0
DIMSTYLE
105
58
330
A
100
AcDbSymbolTableRecord
100
AcDbDimStyleTableRecord
  2
Standard
 70
     0
340
55
  0
DIMSTYLE
105
59
330
A
100
AcDbSymbolTableRecord
100
AcDbDimStyleTableRecord
  2
Annotative
 70
     0
340
55
1001
AcadAnnotative
1000
AnnotativeData
1002
{
1070
     1
1070
     1
1002
}
  0
ENDTAB
  0
TABLE
  2
BLOCK_RECORD
  5
1
330
0
100
AcDbSymbolTable
 70
     5
  0
BLOCK_RECORD
  5
70
102
{ACAD_XDICTIONARY
360
13B
102
}
330
1
100
AcDbSymbolTableRecord
100
AcDbBlockTableRecord
  2
*Model_Space
340
73
 70
     0
280
     1
281
     0
  0
BLOCK_RECORD
  5
6C
330
1
100
AcDbSymbolTableRecord
100
AcDbBlockTableRecord
  2
*Paper_Space
340
6F
 70
     0
280
     1
281
     0
  0
BLOCK_RECORD
  5
74
330
1
100
AcDbSymbolTableRecord
100
AcDbBlockTableRecord
  2
*Paper_Space0
340
77
 70
     0
280
     1
281
     0
  0
BLOCK_RECORD
  5
7B
330
1
100
AcDbSymbolTableRecord
100
AcDbBlockTableRecord
  2
Block_0
340
0
 70
     0
280
     1
281
     0
  0
ENDTAB
  0
ENDSEC
  0
SECTION
  2
BLOCKS
  0
BLOCK
  5
71
330
70
100
AcDbEntity
  8
0
100
AcDbBlockBegin
  2
*Model_Space
 70
     0
 10
0.0
 20
0.0
 30
0.0
  3
*Model_Space
  1

  0
ENDBLK
  5
72
330
70
100
AcDbEntity
  8
0
100
AcDbBlockEnd
  0
BLOCK
  5
6D
330
6C
100
AcDbEntity
 67
     1
  8
0
100
AcDbBlockBegin
  2
*Paper_Space
 70
     0
 10
0.0
 20
0.0
 30
0.0
  3
*Paper_Space
  1

  0
ENDBLK
  5
6E
330
6C
100
AcDbEntity
 67
     1
  8
0
100
AcDbBlockEnd
  0
BLOCK
  5
75
330
74
100
AcDbEntity
 67
     1
  8
0
100
AcDbBlockBegin
  2
*Paper_Space0
 70
     0
 10
0.0
 20
0.0
 30
0.0
  3
*Paper_Space0
  1

  0
ENDBLK
  5
76
330
74
100
AcDbEntity
 67
     1
  8
0
100
AcDbBlockEnd
  0
BLOCK
  5
7D
330
7B
100
AcDbEntity
  8
0
100
AcDbBlockBegin
  2
Block_0
 70
     0
 10
0.0
 20
0.0
 30
0.0
  3
Block_0
  1

  0
SPLINE
  5
7F
330
7B
100
AcDbEntity
  8
Livello 2
100
AcDbSpline
210
0.0
220
0.0
230
1.0
 70
     9
 71
     3
 72
    11
 73
     7
 74
     0
 42
0.000000001
 43
0.0000000001
 40
0.0
 40
0.0
 40
0.0
 40
0.0
 40
1.0
 40
1.0
 40
1.0
 40
2.0
 40
2.0
 40
2.0
 40
2.0
 10
18.68657796376662
 20
3.492738984119242
 30
0.0
 10
18.6886874278987
 20
3.506358630857684
 30
0.0
 10
18.69057451113908
 20
3.520050038805801
 30
0.0
 10
18.69241901080449
 20
3.53375485269428
 30
0.0
 10
18.69057687689324
 20
3.520049250221146
 30
0.0
 10
18.68868506214454
 20
3.50635941944234
 30
0.0
 10
18.68657796376662
 20
3.492738984119242
 30
0.0
  0
SPLINE
  5
80
330
7B
100
AcDbEntity
  8
Livello 2
100
AcDbSpline
210
0.0
220
0.0
230
1.0
 70
     9
 71
     3
 72
    11
 73
     7
 74
     0
 42
0.000000001
 43
0.0000000001
 40
0.0
 40
0.0
 40
0.0
 40
0.0
 40
1.0
 40
1.0
 40
1.0
 40
2.0
 40
2.0
 40
2.0
 40
2.0
 10
14.71436158429199
 20
3.67296450230238
 30
0.0
 10
14.71389395355173
 20
3.679340209781992
 30
0.0
 10
14.71354776485861
 20
3.685748249235236
 30
0.0
 10
14.71314322089612
 20
3.692141305578744
 30
0.0
 10
14.71354697627389
 20
3.685747460650516
 30
0.0
 10
14.71389553072117
 20
3.679340998366712
 30
0.0
 10
14.71436158429199
 20
3.67296450230238
 30
0.0
  0
SPLINE
  5
81
330
7B
100
AcDbEntity
  8
Livello 2
100
AcDbSpline
210
0.0
220
0.0
230
1.0
 70
     9
 71
     3
 72
    11
 73
     7
 74
     0
 42
0.000000001
 43
0.0000000001
 40
0.0
 40
0.0
 40
0.0
 40
0.0
 40
1.0
 40
1.0
 40
1.0
 40
2.0
 40
2.0
 40
2.0
 40
2.0
 10
18.70325653064273
 20
3.632091367562101
 30
0.0
 10
18.70428169078166
 20
3.643930389997684
 30
0.0
 10
18.70523666688035
 20
3.655785972712314
 30
0.0
 10
18.70606389225402
 20
3.667679407493678
 30
0.0
 10
18.70523903263451
 20
3.655785184127595
 30
0.0
 10
18.70428011361222
 20
3.6439296014129
 30
0.0
 10
18.70325653064273
 20
3.632091367562101
 30
0.0
  0
SPLINE
  5
82
330
7B
100
AcDbEntity
  8
Livello 2
100
AcDbSpline
210
0.0
220
0.0
230
1.0
 70
     9
 71
     3
 72
    11
 73
     7
 74
     0
 42
0.000000001
 43
0.0000000001
 40
0.0
 40
0.0
 40
0.0
 40
0.0
 40
1.0
 40
1.0
 40
1.0
 40
2.0
 40
2.0
 40
2.0
 40
2.0
 10
18.6967491295145
 20
3.568309058054949
 30
0.0
 10
18.69825296057988
 20
3.581091227818302
 30
0.0
 10
18.6997268254258
 20
3.593882072013634
 30
0.0
 10
18.70099723541342
 20
3.606732060063129
 30
0.0
 10
18.69972840259524
 20
3.593881283428915
 30
0.0
 10
18.698249806241
 20
3.581091227818302
 30
0.0
 10
18.6967491295145
 20
3.568309058054949
 30
0.0
  0
SPLINE
  5
83
330
7B
100
AcDbEntity
  8
Livello 2
100
AcDbSpline
210
0.0
220
0.0
230
1.0
 70
     9
 71
     3
 72
    11
 73
     7
 74
     0
 42
0.000000001
 43
0.0000000001
 40
0.0
 40
0.0
 40
0.0
 40
0.0
 40
1.0
 40
1.0
 40
1.0
 40
2.0
 40
2.0
 40
2.0
 40
2.0
 10
18.66551250008042
 20
3.378537721808615
 30
0.0
 10
18.66735857691526
 20
3.38721451950781
 30
0.0
 10
18.66916759026816
 20
3.395903934562583
 30
0.0
 10
18.67090484241131
 20
3.404620161497951
 30
0.0
 10
18.66916916743759
 20
3.395903934562583
 30
0.0
 10
18.66735621116111
 20
3.38721451950781
 30
0.0
 10
18.66551250008042
 20
3.378537721808615
 30
0.0
  0
SPLINE
  5
84
330
7B
100
AcDbEntity
  8
Livello 2
100
AcDbSpline
210
0.0
220
0.0
230
1.0
 70
     9
 71
     3
 72
    11
 73
     7
 74
     0
 42
0.000000001
 43
0.0000000001
 40
0.0
 40
0.0
 40
0.0
 40
0.0
 40
1.0
 40
1.0
 40
1.0
 40
2.0
 40
2.0
 40
2.0
 40
2.0
 10
18.67678847302423
 20
3.435248003526385
 30
0.0
 10
18.67853203384521
 20
3.444736254904795
 30
0.0
 10
18.68015494120363
 20
3.454263935519377
 30
0.0
 10
18.68176917413015
 20
3.463796347642276
 30
0.0
 10
18.68015651837308
 20
3.454263935519377
 30
0.0
 10
18.67853045667577
 20
3.444736254904795
 30
0.0
 10
18.67678847302423
 20
3.435248003526385
 30
0.0
  0
SPLINE
  5
85
330
7B
100
AcDbEntity
  8
Livello 2
100
AcDbSpline
210
0.0
220
0.0
230
1.0
 70
     9
 71
     3
 72
    11
 73
     7
 74
     0
 42
0.000000001
 43
0.0000000001
 40
0.0
 40
0.0
 40
0.0
 40
0.0
 40
1.0
 40
1.0
 40
1.0
 40
2.0
 40
2.0
 40
2.0
 40
2.0
 10
14.71091783480981
 20
3.734616055889958
 30
0.0
 10
14.71065208175841
 20
3.741068256087627
 30
0.0
 10
14.71038002002925
 20
3.747518090531073
 30
0.0
 10
14.71017893092505
 20
3.753986851007982
 30
0.0
 10
14.71037844285975
 20
3.747518090531073
 30
0.0
 10
14.71065365892784
 20
3.741069044672347
 30
0.0
 10
14.71091783480981
 20
3.734616055889958
 30
0.0
  0
SPLINE
  5
86
330
7B
100
AcDbEntity
  8
Livello 2
100
AcDbSpline
210
0.0
220
0.0
230
1.0
 70
     9
 71
     3
 72
    11
 73
     7
 74
     0
 42
0.000000001
 43
0.0000000001
 40
0.0
 40
0.0
 40
0.0
 40
0.0
 40
1.0
 40
1.0
 40
1.0
 40
2.0
 40
2.0
 40
2.0
 40
2.0
 10
14.7296412018708
 20
3.534604158440098
 30
0.0
 10
14.72843230149157
 20
3.542813325399039
 30
0.0
 10
14.72728096779706
 20
3.55103905263709
 30
0.0
 10
14.72617773777057
 20
3.559281340154317
 30
0.0
 10
14.72727939062762
 20
3.551038264052435
 30
0.0
 10
14.72843387866101
 20
3.542814113983758
 30
0.0
 10
14.7296412018708
 20
3.534604158440098
 30
0.0
  0
SPLINE
  5
87
330
7B
100
AcDbEntity
  8
Livello 2
100
AcDbSpline
210
0.0
220
0.0
230
1.0
 70
     9
 71
     3
 72
    11
 73
     7
 74
     0
 42
0.000000001
 43
0.0000000001
 40
0.0
 40
0.0
 40
0.0
 40
0.0
 40
1.0
 40
1.0
 40
1.0
 40
2.0
 40
2.0
 40
2.0
 40
2.0
 10
14.53301154429487
 20
3.674743549435864
 30
0.0
 10
14.53365502942823
 20
3.665014779717146
 30
0.0
 10
14.53428826296024
 20
3.655285221413708
 30
0.0
 10
14.53506501891166
 20
3.645592726592156
 30
0.0
 10
14.53428905154496
 20
3.655285221413708
 30
0.0
 10
14.53365345225879
 20
3.665015568301801
 30
0.0
 10
14.53301154429487
 20
3.674743549435864
 30
0.0
  0
SPLINE
  5
88
330
7B
100
AcDbEntity
  8
Livello 2
100
AcDbSpline
210
0.0
220
0.0
230
1.0
 70
     9
 71
     3
 72
    11
 73
     7
 74
     0
 42
0.000000001
 43
0.0000000001
 40
0.0
 40
0.0
 40
0.0
 40
0.0
 40
1.0
 40
1.0
 40
1.0
 40
2.0
 40
2.0
 40
2.0
 40
2.0
 10
18.6530268381726
 20
3.32359465845347
 30
0.0
 10
18.65491234424355
 20
3.33140953305127
 30
0.0
 10
18.65684437681315
 20
3.339204693030951
 30
0.0
 10
18.65864156139518
 20
3.347052688187038
 30
0.0
 10
18.65684595398265
 20
3.339203904446232
 30
0.0
 10
18.65491155565883
 20
3.33140953305127
 30
0.0
 10
18.6530268381726
 20
3.32359465845347
 30
0.0
  0
SPLINE
  5
89
330
7B
100
AcDbEntity
  8
Livello 2
100
AcDbSpline
210
0.0
220
0.0
230
1.0
 70
     9
 71
     3
 72
    11
 73
     7
 74
     0
 42
0.000000001
 43
0.0000000001
 40
0.0
 40
0.0
 40
0.0
 40
0.0
 40
1.0
 40
1.0
 40
1.0
 40
2.0
 40
2.0
 40
2.0
 40
2.0
 10
14.72146752122444
 20
3.597713016594477
 30
0.0
 10
14.72073650318688
 20
3.604165216792147
 30
0.0
 10
14.71991479790631
 20
3.610590605109286
 30
0.0
 10
14.71924923240067
 20
3.617061731340225
 30
0.0
 10
14.71991400932159
 20
3.610589027939782
 30
0.0
 10
14.72073808035638
 20
3.604166793961586
 30
0.0
 10
14.72146752122444
 20
3.597713016594477
 30
0.0
  0
SPLINE
  5
8A
330
7B
100
AcDbEntity
  8
Livello 2
100
AcDbSpline
210
0.0
220
0.0
230
1.0
 70
     9
 71
     3
 72
    11
 73
     7
 74
     0
 42
0.000000001
 43
0.0000000001
 40
0.0
 40
0.0
 40
0.0
 40
0.0
 40
1.0
 40
1.0
 40
1.0
 40
2.0
 40
2.0
 40
2.0
 40
2.0
 10
14.73898041073676
 20
3.476675513326459
 30
0.0
 10
14.73760827332
 20
3.484341345411679
 30
0.0
 10
14.73642303048241
 20
3.492069475690003
 30
0.0
 10
14.73514394606282
 20
3.499766851164135
 30
0.0
 10
14.73642224189769
 20
3.492068687105283
 30
0.0
 10
14.73761063907416
 20
3.484342133996399
 30
0.0
 10
14.73898041073676
 20
3.476675513326459
 30
0.0
  0
SPLINE
  5
8B
330
7B
100
AcDbEntity
  8
Livello 2
100
AcDbSpline
210
0.0
220
0.0
230
1.0
 70
     9
 71
     3
 72
    11
 73
     7
 74
     0
 42
0.000000001
 43
0.0000000001
 40
0.0
 40
0.0
 40
0.0
 40
0.0
 40
1.0
 40
1.0
 40
1.0
 40
2.0
 40
2.0
 40
2.0
 40
2.0
 10
14.52993054378492
 20
3.734254884087103
 30
0.0
 10
14.53034533934883
 20
3.723278573337764
 30
0.0
 10
14.53073568878638
 20
3.712296742495324
 30
0.0
 10
14.53131924148086
 20
3.70136380390569
 30
0.0
 10
14.53073726595581
 20
3.712296742495324
 30
0.0
 10
14.53034297359467
 20
3.723278573337764
 30
0.0
 10
14.52993054378492
 20
3.734254884087103
 30
0.0
  0
SPLINE
  5
8C
330
7B
100
AcDbEntity
  8
Livello 2
100
AcDbSpline
210
0.0
220
0.0
230
1.0
 70
     9
 71
     3
 72
    11
 73
     7
 74
     0
 42
0.000000001
 43
0.0000000001
 40
0.0
 40
0.0
 40
0.0
 40
0.0
 40
1.0
 40
1.0
 40
1.0
 40
2.0
 40
2.0
 40
2.0
 40
2.0
 10
18.7076591991472
 20
3.692782424957886
 30
0.0
 10
18.70839652586252
 20
3.70560560112685
 30
0.0
 10
18.70897850138756
 20
3.718466629362482
 30
0.0
 10
18.70948319560977
 20
3.731349737970264
 30
0.0
 10
18.70898165572644
 20
3.718466629362482
 30
0.0
 10
18.70839337152364
 20
3.70560560112685
 30
0.0
 10
18.7076591991472
 20
3.692782424957886
 30
0.0
  0
SPLINE
  5
8D
330
7B
100
AcDbEntity
  8
Livello 2
100
AcDbSpline
210
0.0
220
0.0
230
1.0
 70
     9
 71
     3
 72
    11
 73
     7
 74
     0
 42
0.000000001
 43
0.0000000001
 40
0.0
 40
0.0
 40
0.0
 40
0.0
 40
1.0
 40
1.0
 40
1.0
 40
2.0
 40
2.0
 40
2.0
 40
2.0
 10
14.5283163108584
 20
3.809321840970045
 30
0.0
 10
14.52835495150986
 20
3.791979285757792
 30
0.0
 10
14.52858521824875
 20
3.774680102705181
 30
0.0
 10
14.52904654031131
 20
3.757437697752637
 30
0.0
 10
14.52858916117234
 20
3.774680891289901
 30
0.0
 10
14.52835179717092
 20
3.791978497173008
 30
0.0
 10
14.5283163108584
 20
3.809321840970045
 30
0.0
  0
SPLINE
  5
8E
330
7B
100
AcDbEntity
  8
Livello 2
100
AcDbSpline
210
0.0
220
0.0
230
1.0
 70
     9
 71
     3
 72
    11
 73
     7
 74
     0
 42
0.000000001
 43
0.0000000001
 40
0.0
 40
0.0
 40
0.0
 40
0.0
 40
1.0
 40
1.0
 40
1.0
 40
2.0
 40
2.0
 40
2.0
 40
2.0
 10
18.71031751824597
 20
3.753231386843987
 30
0.0
 10
18.71087662481402
 20
3.772663691570331
 30
0.0
 10
18.7112157162446
 20
3.792149620057736
 30
0.0
 10
18.71123779661688
 20
3.811709675509039
 30
0.0
 10
18.71121965916826
 20
3.792148831473017
 30
0.0
 10
18.71087189330571
 20
3.772665268739706
 30
0.0
 10
18.71031751824597
 20
3.753231386843987
 30
0.0
  0
SPLINE
  5
8F
330
7B
100
AcDbEntity
  8
Livello 2
100
AcDbSpline
210
0.0
220
0.0
230
1.0
 70
     9
 71
     3
 72
    11
 73
     7
 74
     0
 42
0.000000001
 43
0.0000000001
 40
0.0
 40
0.0
 40
0.0
 40
0.0
 40
1.0
 40
1.0
 40
1.0
 40
2.0
 40
2.0
 40
2.0
 40
2.0
 10
18.02515489371154
 20
2.266459774760333
 30
0.0
 10
18.02524242661581
 20
2.266539421817268
 30
0.0
 10
18.02533074810465
 20
2.266618280289484
 30
0.0
 10
18.02541828100879
 20
2.266697927346419
 30
0.0
 10
18.02533074810465
 20
2.266618280289484
 30
0.0
 10
18.02524242661581
 20
2.266539421817268
 30
0.0
 10
18.02515489371154
 20
2.266459774760333
 30
0.0
  0
SPLINE
  5
90
330
7B
100
AcDbEntity
  8
Livello 2
100
AcDbSpline
210
0.0
220
0.0
230
1.0
 70
     9
 71
     3
 72
    11
 73
     7
 74
     0
 42
0.000000001
 43
0.0000000001
 40
0.0
 40
0.0
 40
0.0
 40
0.0
 40
1.0
 40
1.0
 40
1.0
 40
2.0
 40
2.0
 40
2.0
 40
2.0
 10
18.47884818763991
 20
2.856590054413173
 30
0.0
 10
18.4803330926719
 20
2.859461291386942
 30
0.0
 10
18.48184717533864
 20
2.862315179496945
 30
0.0
 10
18.48331946301518
 20
2.865194302317974
 30
0.0
 10
18.48184796392336
 20
2.862315179496945
 30
0.0
 10
18.4803330926719
 20
2.859462079971726
 30
0.0
 10
18.47884818763991
 20
2.856590054413173
 30
0.0
  0
SPLINE
  5
91
330
7B
100
AcDbEntity
  8
Livello 2
100
AcDbSpline
210
0.0
220
0.0
230
1.0
 70
     9
 71
     3
 72
    14
 73
    10
 74
     0
 42
0.000000001
 43
0.0000000001
 40
0.0
 40
0.0
 40
0.0
 40
0.0
 40
1.0
 40
1.0
 40
1.0
 40
2.0
 40
2.0
 40
2.0
 40
3.0
 40
3.0
 40
3.0
 40
3.0
 10
14.70913799909167
 20
3.813659056942595
 30
0.0
 10
14.70913799909167
 20
3.813241107039802
 30
0.0
 10
14.70916007946388
 20
3.812827100060608
 30
0.0
 10
14.70916007946388
 20
3.812409150157815
 30
0.0
 10
14.70915929087916
 20
3.812905169948103
 30
0.0
 10
14.70914115343054
 20
3.813396458230074
 30
0.0
 10
14.70914115343054
 20
3.813892478020363
 30
0.0
 10
14.70914115343054
 20
3.813814408132867
 30
0.0
 10
14.70913799909167
 20
3.813737126830091
 30
0.0
 10
14.70913799909167
 20
3.813659056942595
 30
0.0
  0
SPLINE
  5
92
330
7B
100
AcDbEntity
  8
Livello 2
100
AcDbSpline
210
0.0
220
0.0
230
1.0
 70
     9
 71
     3
 72
    11
 73
     7
 74
     0
 42
0.000000001
 43
0.0000000001
 40
0.0
 40
0.0
 40
0.0
 40
0.0
 40
1.0
 40
1.0
 40
1.0
 40
2.0
 40
2.0
 40
2.0
 40
2.0
 10
18.50170531581504
 20
2.902139496556644
 30
0.0
 10
18.50374538449154
 20
2.906332401524933
 30
0.0
 10
18.50576731571949
 20
2.91053476950992
 30
0.0
 10
18.50778057251546
 20
2.914743446172729
 30
0.0
 10
18.50576810430421
 20
2.91053476950992
 30
0.0
 10
18.50374459590682
 20
2.906332401524933
 30
0.0
 10
18.50170531581504
 20
2.902139496556644
 30
0.0
  0
SPLINE
  5
93
330
7B
100
AcDbEntity
  8
Livello 2
100
AcDbSpline
210
0.0
220
0.0
230
1.0
 70
     9
 71
     3
 72
    11
 73
     7
 74
     0
 42
0.000000001
 43
0.0000000001
 40
0.0
 40
0.0
 40
0.0
 40
0.0
 40
1.0
 40
1.0
 40
1.0
 40
2.0
 40
2.0
 40
2.0
 40
2.0
 10
14.53754590644796
 20
3.617743068540258
 30
0.0
 10
14.53840388662582
 20
3.608571039635494
 30
0.0
 10
14.53928000425229
 20
3.599405319408486
 30
0.0
 10
14.5402570607232
 20
3.590267199646728
 30
0.0
 10
14.53928079283695
 20
3.599404530823766
 30
0.0
 10
14.53840309804103
 20
3.608571039635494
 30
0.0
 10
14.53754590644796
 20
3.617743068540258
 30
0.0
  0
SPLINE
  5
94
330
7B
100
AcDbEntity
  8
Livello 2
100
AcDbSpline
210
0.0
220
0.0
230
1.0
 70
     9
 71
     3
 72
    11
 73
     7
 74
     0
 42
0.000000001
 43
0.0000000001
 40
0.0
 40
0.0
 40
0.0
 40
0.0
 40
1.0
 40
1.0
 40
1.0
 40
2.0
 40
2.0
 40
2.0
 40
2.0
 10
18.4078014356711
 20
2.730032458089246
 30
0.0
 10
18.40819888237112
 20
2.73068461765459
 30
0.0
 10
18.40858134596146
 20
2.731346240236569
 30
0.0
 10
18.40897800407676
 20
2.731999188386633
 30
0.0
 10
18.40858134596146
 20
2.731346240236569
 30
0.0
 10
18.40819888237112
 20
2.730685406239309
 30
0.0
 10
18.4078014356711
 20
2.730032458089246
 30
0.0
  0
SPLINE
  5
95
330
7B
100
AcDbEntity
  8
Livello 2
100
AcDbSpline
210
0.0
220
0.0
230
1.0
 70
     9
 71
     3
 72
    11
 73
     7
 74
     0
 42
0.000000001
 43
0.0000000001
 40
0.0
 40
0.0
 40
0.0
 40
0.0
 40
1.0
 40
1.0
 40
1.0
 40
2.0
 40
2.0
 40
2.0
 40
2.0
 10
18.35119997864501
 20
2.64211551315681
 30
0.0
 10
18.35235131233952
 20
2.643810970309761
 30
0.0
 10
18.35351920631321
 20
2.645494598691854
 30
0.0
 10
18.35466580849947
 20
2.647193998768339
 30
0.0
 10
18.35351920631321
 20
2.645495387276509
 30
0.0
 10
18.35235131233952
 20
2.64381175889448
 30
0.0
 10
18.35119997864501
 20
2.64211551315681
 30
0.0
  0
SPLINE
  5
96
330
7B
100
AcDbEntity
  8
Livello 2
100
AcDbSpline
210
0.0
220
0.0
230
1.0
 70
     9
 71
     3
 72
    11
 73
     7
 74
     0
 42
0.000000001
 43
0.0000000001
 40
0.0
 40
0.0
 40
0.0
 40
0.0
 40
1.0
 40
1.0
 40
1.0
 40
2.0
 40
2.0
 40
2.0
 40
2.0
 10
18.19924285700128
 20
2.444578194565548
 30
0.0
 10
18.19995652617495
 20
2.445399899846181
 30
0.0
 10
18.20067650402637
 20
2.446215296448993
 30
0.0
 10
18.20138938461532
 20
2.447038578899065
 30
0.0
 10
18.20067729261109
 20
2.446215296448993
 30
0.0
 10
18.19995652617495
 20
2.445399899846181
 30
0.0
 10
18.19924285700128
 20
2.444578194565548
 30
0.0
  0
SPLINE
  5
97
330
7B
100
AcDbEntity
  8
Livello 2
100
AcDbSpline
210
0.0
220
0.0
230
1.0
 70
     9
 71
     3
 72
    11
 73
     7
 74
     0
 42
0.000000001
 43
0.0000000001
 40
0.0
 40
0.0
 40
0.0
 40
0.0
 40
1.0
 40
1.0
 40
1.0
 40
2.0
 40
2.0
 40
2.0
 40
2.0
 10
18.37903071066358
 20
2.684176256488893
 30
0.0
 10
18.38072616781646
 20
2.686807763707138
 30
0.0
 10
18.38240664185968
 20
2.689447945357362
 30
0.0
 10
18.38409105882649
 20
2.692087338422803
 30
0.0
 10
18.3824074304444
 20
2.689447945357362
 30
0.0
 10
18.38072616781646
 20
2.686807763707138
 30
0.0
 10
18.37903071066358
 20
2.684176256488893
 30
0.0
  0
SPLINE
  5
98
330
7B
100
AcDbEntity
  8
Livello 2
100
AcDbSpline
210
0.0
220
0.0
230
1.0
 70
     9
 71
     3
 72
    11
 73
     7
 74
     0
 42
0.000000001
 43
0.0000000001
 40
0.0
 40
0.0
 40
0.0
 40
0.0
 40
1.0
 40
1.0
 40
1.0
 40
2.0
 40
2.0
 40
2.0
 40
2.0
 10
18.06200624636833
 20
2.300763998764059
 30
0.0
 10
18.06206065871411
 20
2.300816045355744
 30
0.0
 10
18.06211585964467
 20
2.300868091947366
 30
0.0
 10
18.06217027199052
 20
2.30092092712377
 30
0.0
 10
18.06211585964467
 20
2.300868880532149
 30
0.0
 10
18.06206144729883
 20
2.300816045355744
 30
0.0
 10
18.06200624636833
 20
2.300763998764059
 30
0.0
  0
SPLINE
  5
99
330
7B
100
AcDbEntity
  8
Livello 2
100
AcDbSpline
210
0.0
220
0.0
230
1.0
 70
     9
 71
     3
 72
    14
 73
    10
 74
     0
 42
0.000000001
 43
0.0000000001
 40
0.0
 40
0.0
 40
0.0
 40
0.0
 40
1.0
 40
1.0
 40
1.0
 40
2.0
 40
2.0
 40
2.0
 40
3.0
 40
3.0
 40
3.0
 40
3.0
 10
15.03617275785155
 20
2.746207119327876
 30
0.0
 10
15.20776248474104
 20
2.492477619181344
 30
0.0
 10
15.4384534822263
 20
2.281833233921104
 30
0.0
 10
15.70859816195171
 20
2.134643106923514
 30
0.0
 10
15.70678836001403
 20
2.135773937415252
 30
0.0
 10
15.70503139325289
 20
2.136978106286167
 30
0.0
 10
15.70322711140831
 20
2.138116034040446
 30
0.0
 10
15.43551521555111
 20
2.285101917594893
 30
0.0
 10
15.20659380218263
 20
2.49430634715229
 30
0.0
 10
15.03617275785155
 20
2.746207119327876
 30
0.0
  0
SPLINE
  5
9A
330
7B
100
AcDbEntity
  8
Livello 2
100
AcDbSpline
210
0.0
220
0.0
230
1.0
 70
     9
 71
     3
 72
    17
 73
    13
 74
     0
 42
0.000000001
 43
0.0000000001
 40
0.0
 40
0.0
 40
0.0
 40
0.0
 40
1.0
 40
1.0
 40
1.0
 40
2.0
 40
2.0
 40
2.0
 40
3.0
 40
3.0
 40
3.0
 40
4.0
 40
4.0
 40
4.0
 40
4.0
 10
16.67083002865778
 20
1.904193416363346
 30
0.0
 10
16.6729678818399
 20
1.904139792602157
 30
0.0
 10
16.67509075191227
 20
1.904018350554956
 30
0.0
 10
16.67723018226383
 20
1.903971035471588
 30
0.0
 10
17.7042703072007
 20
1.934471915359848
 30
0.0
 10
18.53038614216421
 20
2.779363952560688
 30
0.0
 10
18.53038614216421
 20
3.813659056942595
 30
0.0
 10
18.53038614216421
 20
3.813737126830091
 30
0.0
 10
18.53038298782533
 20
3.813814408132867
 30
0.0
 10
18.53038298782533
 20
3.813892478020363
 30
0.0
 10
18.53025760285453
 20
2.777550207699414
 30
0.0
 10
17.70076583669492
 20
1.93135385136795
 30
0.0
 10
16.67083002865778
 20
1.904193416363346
 30
0.0
  0
SPLINE
  5
9B
330
7B
100
AcDbEntity
  8
Livello 2
100
AcDbSpline
210
0.0
220
0.0
230
1.0
 70
     9
 71
     3
 72
    11
 73
     7
 74
     0
 42
0.000000001
 43
0.0000000001
 40
0.0
 40
0.0
 40
0.0
 40
0.0
 40
1.0
 40
1.0
 40
1.0
 40
2.0
 40
2.0
 40
2.0
 40
2.0
 10
18.61533012269366
 20
3.187481781049711
 30
0.0
 10
18.61733785939659
 20
3.193863008622361
 30
0.0
 10
18.61925490885646
 20
3.200282876846399
 30
0.0
 10
18.62120350170516
 20
3.206690127714923
 30
0.0
 10
18.61925569744117
 20
3.200282088261743
 30
0.0
 10
18.61733785939659
 20
3.193863008622361
 30
0.0
 10
18.61533012269366
 20
3.187481781049711
 30
0.0
  0
SPLINE
  5
9C
330
7B
100
AcDbEntity
  8
Livello 2
100
AcDbSpline
210
0.0
220
0.0
230
1.0
 70
     9
 71
     3
 72
    11
 73
     7
 74
     0
 42
0.000000001
 43
0.0000000001
 40
0.0
 40
0.0
 40
0.0
 40
0.0
 40
1.0
 40
1.0
 40
1.0
 40
2.0
 40
2.0
 40
2.0
 40
2.0
 10
18.63170666162115
 20
3.241920150182652
 30
0.0
 10
18.63236434127953
 20
3.244229126249431
 30
0.0
 10
18.63295104831295
 20
3.246565702781524
 30
0.0
 10
18.63360084212407
 20
3.248877833187245
 30
0.0
 10
18.63295183689761
 20
3.246566491366243
 30
0.0
 10
18.63236355269481
 20
3.244228337664711
 30
0.0
 10
18.63170666162115
 20
3.241920150182652
 30
0.0
  0
SPLINE
  5
9D
330
7B
100
AcDbEntity
  8
Livello 2
100
AcDbSpline
210
0.0
220
0.0
230
1.0
 70
     9
 71
     3
 72
    11
 73
     7
 74
     0
 42
0.000000001
 43
0.0000000001
 40
0.0
 40
0.0
 40
0.0
 40
0.0
 40
1.0
 40
1.0
 40
1.0
 40
2.0
 40
2.0
 40
2.0
 40
2.0
 10
18.23175935943968
 20
2.482943629889006
 30
0.0
 10
18.23284129767854
 20
2.484251891943228
 30
0.0
 10
18.2339137729009
 20
2.485567251260055
 30
0.0
 10
18.23499255680095
 20
2.486877879068436
 30
0.0
 10
18.2339137729009
 20
2.485567251260055
 30
0.0
 10
18.23284129767854
 20
2.484251891943228
 30
0.0
 10
18.23175935943968
 20
2.482943629889006
 30
0.0
  0
SPLINE
  5
9E
330
7B
100
AcDbEntity
  8
Livello 2
100
AcDbSpline
210
0.0
220
0.0
230
1.0
 70
     9
 71
     3
 72
    11
 73
     7
 74
     0
 42
0.000000001
 43
0.0000000001
 40
0.0
 40
0.0
 40
0.0
 40
0.0
 40
1.0
 40
1.0
 40
1.0
 40
2.0
 40
2.0
 40
2.0
 40
2.0
 10
18.52504584642494
 20
2.951665771454402
 30
0.0
 10
18.52663563322508
 20
2.955163144697705
 30
0.0
 10
18.52816548758628
 20
2.958693638499359
 30
0.0
 10
18.52973634835309
 20
2.962201263344017
 30
0.0
 10
18.528166276171
 20
2.958693638499359
 30
0.0
 10
18.52663563322508
 20
2.955163933282425
 30
0.0
 10
18.52504584642494
 20
2.951665771454402
 30
0.0
  0
SPLINE
  5
9F
330
7B
100
AcDbEntity
  8
Livello 2
100
AcDbSpline
210
0.0
220
0.0
230
1.0
 70
     9
 71
     3
 72
   122
 73
   118
 74
     0
 42
0.000000001
 43
0.0000000001
 40
0.0
 40
0.0
 40
0.0
 40
0.0
 40
1.0
 40
1.0
 40
1.0
 40
2.0
 40
2.0
 40
2.0
 40
3.0
 40
3.0
 40
3.0
 40
4.0
 40
4.0
 40
4.0
 40
5.0
 40
5.0
 40
5.0
 40
6.0
 40
6.0
 40
6.0
 40
7.0
 40
7.0
 40
7.0
 40
8.0
 40
8.0
 40
8.0
 40
9.0
 40
9.0
 40
9.0
 40
10.0
 40
10.0
 40
10.0
 40
11.0
 40
11.0
 40
11.0
 40
12.0
 40
12.0
 40
12.0
 40
13.0
 40
13.0
 40
13.0
 40
14.0
 40
14.0
 40
14.0
 40
15.0
 40
15.0
 40
15.0
 40
16.0
 40
16.0
 40
16.0
 40
17.0
 40
17.0
 40
17.0
 40
18.0
 40
18.0
 40
18.0
 40
19.0
 40
19.0
 40
19.0
 40
20.0
 40
20.0
 40
20.0
 40
21.0
 40
21.0
 40
21.0
 40
22.0
 40
22.0
 40
22.0
 40
23.0
 40
23.0
 40
23.0
 40
24.0
 40
24.0
 40
24.0
 40
25.0
 40
25.0
 40
25.0
 40
26.0
 40
26.0
 40
26.0
 40
27.0
 40
27.0
 40
27.0
 40
28.0
 40
28.0
 40
28.0
 40
29.0
 40
29.0
 40
29.0
 40
30.0
 40
30.0
 40
30.0
 40
31.0
 40
31.0
 40
31.0
 40
32.0
 40
32.0
 40
32.0
 40
33.0
 40
33.0
 40
33.0
 40
34.0
 40
34.0
 40
34.0
 40
35.0
 40
35.0
 40
35.0
 40
36.0
 40
36.0
 40
36.0
 40
37.0
 40
37.0
 40
37.0
 40
38.0
 40
38.0
 40
38.0
 40
39.0
 40
39.0
 40
39.0
 40
39.0
 10
14.98787115502735
 20
3.433424795648476
 30
0.0
 10
14.98787115502735
 20
4.278637786831343
 30
0.0
 10
15.6730519170104
 20
4.963817760229601
 30
0.0
 10
16.51826411960848
 20
4.963817760229601
 30
0.0
 10
17.36347711079128
 20
4.963817760229601
 30
0.0
 10
18.04865787277432
 20
4.278637786831343
 30
0.0
 10
18.04865787277432
 20
3.433424795648476
 30
0.0
 10
18.04865787277432
 20
2.620622636551255
 30
0.0
 10
17.41498352192679
 20
1.955934825745995
 30
0.0
 10
16.61472774576093
 20
1.906145163550933
 30
0.0
 10
16.63338329453578
 20
1.905287183373134
 30
0.0
 10
16.65209010131761
 20
1.904661047103665
 30
0.0
 10
16.67083002865778
 20
1.904193416363346
 30
0.0
 10
17.70076583669492
 20
1.93135385136795
 30
0.0
 10
18.53025760285453
 20
2.777550207699414
 30
0.0
 10
18.53038298782533
 20
3.813892478020363
 30
0.0
 10
18.53025523710037
 20
4.867303664654905
 30
0.0
 10
17.67321110932918
 20
5.724279974139954
 30
0.0
 10
16.61976522496678
 20
5.724279974139954
 30
0.0
 10
15.56631934060451
 20
5.724279974139954
 30
0.0
 10
14.70926890415557
 20
4.867303664654905
 30
0.0
 10
14.70914115343054
 20
3.813892478020363
 30
0.0
 10
14.70914115343054
 20
3.813396458230074
 30
0.0
 10
14.70915929087916
 20
3.812905169948103
 30
0.0
 10
14.70916007946388
 20
3.812409150157815
 30
0.0
 10
14.70917269681939
 20
3.792856980553644
 30
0.0
 10
14.70957960653611
 20
3.773398652531489
 30
0.0
 10
14.71017893092505
 20
3.753986851007982
 30
0.0
 10
14.71038002002925
 20
3.747518090531073
 30
0.0
 10
14.71065208175841
 20
3.741068256087627
 30
0.0
 10
14.71091783480981
 20
3.734616055889958
 30
0.0
 10
14.71149902175013
 20
3.72041601079591
 30
0.0
 10
14.71225290874462
 20
3.706260915031008
 30
0.0
 10
14.71314322089612
 20
3.692141305578744
 30
0.0
 10
14.71354776485861
 20
3.685748249235236
 30
0.0
 10
14.71389395355173
 20
3.679340209781992
 30
0.0
 10
14.71436158429199
 20
3.67296450230238
 30
0.0
 10
14.71572977878515
 20
3.654256906935838
 30
0.0
 10
14.71734401171167
 20
3.635617129855437
 30
0.0
 10
14.71924923240067
 20
3.617061731340225
 30
0.0
 10
14.71991479790631
 20
3.610590605109286
 30
0.0
 10
14.72073650318688
 20
3.604165216792147
 30
0.0
 10
14.72146752122444
 20
3.597713016594477
 30
0.0
 10
14.72291930569814
 20
3.584866971468581
 30
0.0
 10
14.72447124043161
 20
3.572050103977374
 30
0.0
 10
14.72617773777057
 20
3.559281340154317
 30
0.0
 10
14.72728096779706
 20
3.55103905263709
 30
0.0
 10
14.72843230149157
 20
3.542813325399039
 30
0.0
 10
14.7296412018708
 20
3.534604158440098
 30
0.0
 10
14.73135400788765
 20
3.522952030583827
 30
0.0
 10
14.73322137650998
 20
3.511350372149673
 30
0.0
 10
14.73514394606282
 20
3.499766851164135
 30
0.0
 10
14.73642303048241
 20
3.492069475690003
 30
0.0
 10
14.73760827332
 20
3.484341345411679
 30
0.0
 10
14.73898041073676
 20
3.476675513326459
 30
0.0
 10
14.74199201579113
 20
3.459825034980833
 30
0.0
 10
14.74526700814274
 20
3.443066032463063
 30
0.0
 10
14.74871864347212
 20
3.426370905307709
 30
0.0
 10
14.7506207098223
 20
3.41718152753905
 30
0.0
 10
14.75267891594736
 20
3.408048927870393
 30
0.0
 10
14.7547126759461
 20
3.398907653769756
 30
0.0
 10
14.75676693914768
 20
3.389664652239973
 30
0.0
 10
14.75887561469505
 20
3.380442153912898
 30
0.0
 10
14.76106314871462
 20
3.37124962180536
 30
0.0
 10
14.76337054761202
 20
3.361566590000507
 30
0.0
 10
14.76569844971214
 20
3.351890655458194
 30
0.0
 10
14.76815331395262
 20
3.342264401753407
 30
0.0
 10
14.77036687126807
 20
3.333573409529195
 30
0.0
 10
14.77272789392653
 20
3.324942349743864
 30
0.0
 10
14.77506052753503
 20
3.316299461187739
 30
0.0
 10
14.77977153266588
 20
3.298860698639248
 30
0.0
 10
14.78471674745935
 20
3.281519720596434
 30
0.0
 10
14.78990642351666
 20
3.264281258567488
 30
0.0
 10
14.79206635707093
 20
3.257099617501698
 30
0.0
 10
14.79418528421964
 20
3.249900627572078
 30
0.0
 10
14.79642801916985
 20
3.242754472818734
 30
0.0
 10
14.79981341338259
 20
3.231972153911055
 30
0.0
 10
14.80333444416754
 20
3.221249767442321
 30
0.0
 10
14.80690594437474
 20
3.210551038515239
 30
0.0
 10
14.80903827746376
 20
3.204156405002292
 30
0.0
 10
14.81122186855973
 20
3.197786217615716
 30
0.0
 10
14.81342044276545
 20
3.191421550322178
 30
0.0
 10
14.81727898781154
 20
3.180259133578374
 30
0.0
 10
14.82114463012018
 20
3.169100659758169
 30
0.0
 10
14.82520347568575
 20
3.158032873181037
 30
0.0
 10
14.82549052052458
 20
3.157249808551856
 30
0.0
 10
14.82580122290519
 20
3.156477784108686
 30
0.0
 10
14.8260890563288
 20
3.155695508064225
 30
0.0
 10
14.83548188895588
 20
3.130187158052737
 30
0.0
 10
14.84546458295514
 20
3.104964275710767
 30
0.0
 10
14.85590307892392
 20
3.079977180200723
 30
0.0
 10
14.85766004568513
 20
3.075767714953195
 30
0.0
 10
14.85939414348941
 20
3.071545632350089
 30
0.0
 10
14.86118028788543
 20
3.067351150212362
 30
0.0
 10
14.86624773331069
 20
3.055464024108755
 30
0.0
 10
14.87142715776665
 20
3.04363683044403
 30
0.0
 10
14.87672644710037
 20
3.031873512141848
 30
0.0
 10
14.878257878631
 20
3.028473923404159
 30
0.0
 10
14.87983189373663
 20
3.025097203623338
 30
0.0
 10
14.88138225130066
 20
3.021707866486939
 30
0.0
 10
14.8990481262491
 20
2.983106644331618
 30
0.0
 10
14.91793551893235
 20
2.945178873529007
 30
0.0
 10
14.93804758368922
 20
2.908001835382009
 30
0.0
 10
14.9392462324671
 20
2.905785123727678
 30
0.0
 10
14.94044093832138
 20
2.90356525773447
 30
0.0
 10
14.94164747294646
 20
2.901354066173241
 30
0.0
 10
14.97060430394844
 20
2.848329629447332
 30
0.0
 10
15.00197578137001
 20
2.796805080863274
 30
0.0
 10
15.03566017778202
 20
2.746963372076526
 30
0.0
 10
15.0358305120821
 20
2.74671102496536
 30
0.0
 10
15.03600242355148
 20
2.746459466439042
 30
0.0
 10
15.03617275785155
 20
2.746207119327876
 30
0.0
 10
15.20659380218263
 20
2.49430634715229
 30
0.0
 10
15.43551521555111
 20
2.285101917594893
 30
0.0
 10
15.70322711140831
 20
2.138116034040446
 30
0.0
 10
15.27347998115667
 20
2.409094247817342
 30
0.0
 10
14.98787115502735
 20
2.887838512618105
 30
0.0
 10
14.98787115502735
 20
3.433424795648476
 30
0.0
  0
SPLINE
  5
A0
330
7B
100
AcDbEntity
  8
Livello 2
100
AcDbSpline
210
0.0
220
0.0
230
1.0
 70
     9
 71
     3
 72
    11
 73
     7
 74
     0
 42
0.000000001
 43
0.0000000001
 40
0.0
 40
0.0
 40
0.0
 40
0.0
 40
1.0
 40
1.0
 40
1.0
 40
2.0
 40
2.0
 40
2.0
 40
2.0
 10
18.59779120988546
 20
3.13438794886835
 30
0.0
 10
18.59992038863566
 20
3.14056651016736
 30
0.0
 10
18.60202669842886
 20
3.14675374589835
 30
0.0
 10
18.604099099079
 20
3.15295833049317
 30
0.0
 10
18.60202748701358
 20
3.14675374589835
 30
0.0
 10
18.59991960005094
 20
3.14056651016736
 30
0.0
 10
18.59779120988546
 20
3.13438794886835
 30
0.0
  0
SPLINE
  5
A1
330
7B
100
AcDbEntity
  8
Livello 2
100
AcDbSpline
210
0.0
220
0.0
230
1.0
 70
     9
 71
     3
 72
    11
 73
     7
 74
     0
 42
0.000000001
 43
0.0000000001
 40
0.0
 40
0.0
 40
0.0
 40
0.0
 40
1.0
 40
1.0
 40
1.0
 40
2.0
 40
2.0
 40
2.0
 40
2.0
 10
18.58003622486345
 20
3.084935800934361
 30
0.0
 10
18.58180502039552
 20
3.089677560869407
 30
0.0
 10
18.58362113101095
 20
3.094396451847521
 30
0.0
 10
18.58535680598467
 20
3.099153983477023
 30
0.0
 10
18.58362113101095
 20
3.094396451847521
 30
0.0
 10
18.58180502039552
 20
3.089677560869407
 30
0.0
 10
18.58003622486345
 20
3.084935800934361
 30
0.0
  0
SPLINE
  5
A2
330
7B
100
AcDbEntity
  8
Livello 2
100
AcDbSpline
210
0.0
220
0.0
230
1.0
 70
     9
 71
     3
 72
    11
 73
     7
 74
     0
 42
0.000000001
 43
0.0000000001
 40
0.0
 40
0.0
 40
0.0
 40
0.0
 40
1.0
 40
1.0
 40
1.0
 40
2.0
 40
2.0
 40
2.0
 40
2.0
 10
14.66891938967089
 20
3.060176606409048
 30
0.0
 10
14.67170861383357
 20
3.052983925157184
 30
0.0
 10
14.6745175526143
 20
3.045802284091459
 30
0.0
 10
14.67738405807975
 20
3.038648243490919
 30
0.0
 10
14.67451834119902
 20
3.045802284091459
 30
0.0
 10
14.67170782524885
 20
3.052983925157184
 30
0.0
 10
14.66891938967089
 20
3.060176606409048
 30
0.0
  0
SPLINE
  5
A3
330
7B
100
AcDbEntity
  8
Livello 2
100
AcDbSpline
210
0.0
220
0.0
230
1.0
 70
     9
 71
     3
 72
    11
 73
     7
 74
     0
 42
0.000000001
 43
0.0000000001
 40
0.0
 40
0.0
 40
0.0
 40
0.0
 40
1.0
 40
1.0
 40
1.0
 40
2.0
 40
2.0
 40
2.0
 40
2.0
 10
14.82520347568575
 20
3.158032873181037
 30
0.0
 10
14.82114463012018
 20
3.169100659758169
 30
0.0
 10
14.81727898781154
 20
3.180259133578374
 30
0.0
 10
14.81342044276545
 20
3.191421550322178
 30
0.0
 10
14.8172774106421
 20
3.180257556408935
 30
0.0
 10
14.82114620728961
 20
3.169102236927673
 30
0.0
 10
14.82520347568575
 20
3.158032873181037
 30
0.0
  0
SPLINE
  5
A4
330
7B
100
AcDbEntity
  8
Livello 2
100
AcDbSpline
210
0.0
220
0.0
230
1.0
 70
     9
 71
     3
 72
    11
 73
     7
 74
     0
 42
0.000000001
 43
0.0000000001
 40
0.0
 40
0.0
 40
0.0
 40
0.0
 40
1.0
 40
1.0
 40
1.0
 40
2.0
 40
2.0
 40
2.0
 40
2.0
 10
14.68904407178334
 20
3.010160620398694
 30
0.0
 10
14.69187509093635
 20
3.003385889049623
 30
0.0
 10
14.69475105941844
 20
2.996636392411643
 30
0.0
 10
14.69765226261168
 20
2.989897935959865
 30
0.0
 10
14.69475263658788
 20
2.996636392411643
 30
0.0
 10
14.69187509093635
 20
3.003385889049623
 30
0.0
 10
14.68904407178334
 20
3.010160620398694
 30
0.0
  0
SPLINE
  5
A5
330
7B
100
AcDbEntity
  8
Livello 2
100
AcDbSpline
210
0.0
220
0.0
230
1.0
 70
     9
 71
     3
 72
    11
 73
     7
 74
     0
 42
0.000000001
 43
0.0000000001
 40
0.0
 40
0.0
 40
0.0
 40
0.0
 40
1.0
 40
1.0
 40
1.0
 40
2.0
 40
2.0
 40
2.0
 40
2.0
 10
14.61655894128112
 20
3.212602935962534
 30
0.0
 10
14.61881035066324
 20
3.2051200555329
 30
0.0
 10
14.62099078742034
 20
3.197607208883729
 30
0.0
 10
14.62332342102884
 20
3.19015902618182
 30
0.0
 10
14.62099078742034
 20
3.197607208883729
 30
0.0
 10
14.61881035066324
 20
3.20511926694818
 30
0.0
 10
14.61655894128112
 20
3.212602935962534
 30
0.0
  0
SPLINE
  5
A6
330
7B
100
AcDbEntity
  8
Livello 2
100
AcDbSpline
210
0.0
220
0.0
230
1.0
 70
     9
 71
     3
 72
    11
 73
     7
 74
     0
 42
0.000000001
 43
0.0000000001
 40
0.0
 40
0.0
 40
0.0
 40
0.0
 40
1.0
 40
1.0
 40
1.0
 40
2.0
 40
2.0
 40
2.0
 40
2.0
 10
14.80690594437474
 20
3.210551038515239
 30
0.0
 10
14.80333444416754
 20
3.221249767442321
 30
0.0
 10
14.79981341338259
 20
3.231972153911055
 30
0.0
 10
14.79642801916985
 20
3.242754472818734
 30
0.0
 10
14.79981183621315
 20
3.23196978815696
 30
0.0
 10
14.80333602133698
 20
3.22125213319648
 30
0.0
 10
14.80690594437474
 20
3.210551038515239
 30
0.0
  0
SPLINE
  5
A7
330
7B
100
AcDbEntity
  8
Livello 2
100
AcDbSpline
210
0.0
220
0.0
230
1.0
 70
     9
 71
     3
 72
    11
 73
     7
 74
     0
 42
0.000000001
 43
0.0000000001
 40
0.0
 40
0.0
 40
0.0
 40
0.0
 40
1.0
 40
1.0
 40
1.0
 40
2.0
 40
2.0
 40
2.0
 40
2.0
 10
14.85590307892392
 20
3.079977180200723
 30
0.0
 10
14.84546458295514
 20
3.104964275710767
 30
0.0
 10
14.83548188895588
 20
3.130187158052737
 30
0.0
 10
14.8260890563288
 20
3.155695508064225
 30
0.0
 10
14.83547794603228
 20
3.130183215129075
 30
0.0
 10
14.84546852587874
 20
3.104968218634365
 30
0.0
 10
14.85590307892392
 20
3.079977180200723
 30
0.0
  0
SPLINE
  5
A8
330
7B
100
AcDbEntity
  8
Livello 2
100
AcDbSpline
210
0.0
220
0.0
230
1.0
 70
     9
 71
     3
 72
    11
 73
     7
 74
     0
 42
0.000000001
 43
0.0000000001
 40
0.0
 40
0.0
 40
0.0
 40
0.0
 40
1.0
 40
1.0
 40
1.0
 40
2.0
 40
2.0
 40
2.0
 40
2.0
 10
14.6500950837654
 20
3.110694920887512
 30
0.0
 10
14.65276365446553
 20
3.103245161016164
 30
0.0
 10
14.65542512790325
 20
3.095793823975378
 30
0.0
 10
14.65817571141454
 20
3.088382704755418
 30
0.0
 10
14.65542591648797
 20
3.095793035390658
 30
0.0
 10
14.65276365446553
 20
3.103245161016164
 30
0.0
 10
14.6500950837654
 20
3.110694920887512
 30
0.0
  0
SPLINE
  5
A9
330
7B
100
AcDbEntity
  8
Livello 2
100
AcDbSpline
210
0.0
220
0.0
230
1.0
 70
     9
 71
     3
 72
    11
 73
     7
 74
     0
 42
0.000000001
 43
0.0000000001
 40
0.0
 40
0.0
 40
0.0
 40
0.0
 40
1.0
 40
1.0
 40
1.0
 40
2.0
 40
2.0
 40
2.0
 40
2.0
 10
14.63259244585443
 20
3.161669037335436
 30
0.0
 10
14.63509068225468
 20
3.154078120798834
 30
0.0
 10
14.63755264375757
 20
3.146471432567775
 30
0.0
 10
14.64013525872308
 20
3.138918368097777
 30
0.0
 10
14.63755264375757
 20
3.146471432567775
 30
0.0
 10
14.6350914708394
 20
3.154078120798834
 30
0.0
 10
14.63259244585443
 20
3.161669037335436
 30
0.0
  0
SPLINE
  5
AA
330
7B
100
AcDbEntity
  8
Livello 2
100
AcDbSpline
210
0.0
220
0.0
230
1.0
 70
     9
 71
     3
 72
    11
 73
     7
 74
     0
 42
0.000000001
 43
0.0000000001
 40
0.0
 40
0.0
 40
0.0
 40
0.0
 40
1.0
 40
1.0
 40
1.0
 40
2.0
 40
2.0
 40
2.0
 40
2.0
 10
15.03566017778202
 20
2.746963372076526
 30
0.0
 10
15.00197578137001
 20
2.796805080863274
 30
0.0
 10
14.97060430394844
 20
2.848329629447332
 30
0.0
 10
14.94164747294646
 20
2.901354066173241
 30
0.0
 10
14.9705972066859
 20
2.848317800676538
 30
0.0
 10
15.00198051287833
 20
2.796816909634132
 30
0.0
 10
15.03566017778202
 20
2.746963372076526
 30
0.0
  0
SPLINE
  5
AB
330
7B
100
AcDbEntity
  8
Livello 2
100
AcDbSpline
210
0.0
220
0.0
230
1.0
 70
     9
 71
     3
 72
    11
 73
     7
 74
     0
 42
0.000000001
 43
0.0000000001
 40
0.0
 40
0.0
 40
0.0
 40
0.0
 40
1.0
 40
1.0
 40
1.0
 40
2.0
 40
2.0
 40
2.0
 40
2.0
 10
14.93804758368922
 20
2.908001835382009
 30
0.0
 10
14.91793551893235
 20
2.945178873529007
 30
0.0
 10
14.8990481262491
 20
2.983106644331618
 30
0.0
 10
14.88138225130066
 20
3.021707866486939
 30
0.0
 10
14.89904181757134
 20
2.983099547069078
 30
0.0
 10
14.9179418276101
 20
2.945185970791484
 30
0.0
 10
14.93804758368922
 20
2.908001835382009
 30
0.0
  0
SPLINE
  5
AC
330
7B
100
AcDbEntity
  8
Livello 2
100
AcDbSpline
210
0.0
220
0.0
230
1.0
 70
     9
 71
     3
 72
    20
 73
    16
 74
     0
 42
0.000000001
 43
0.0000000001
 40
0.0
 40
0.0
 40
0.0
 40
0.0
 40
1.0
 40
1.0
 40
1.0
 40
2.0
 40
2.0
 40
2.0
 40
3.0
 40
3.0
 40
3.0
 40
4.0
 40
4.0
 40
4.0
 40
5.0
 40
5.0
 40
5.0
 40
5.0
 10
16.67839255614441
 20
1.723014499250891
 30
0.0
 10
16.67519090217198
 20
1.722926177762041
 30
0.0
 10
16.67196243631902
 20
1.722949046718973
 30
0.0
 10
16.66875762800765
 20
1.722872554000916
 30
0.0
 10
16.68983097754104
 20
1.722400980336999
 30
0.0
 10
16.71094927640357
 20
1.722149421810553
 30
0.0
 10
16.73211646751897
 20
1.722149421810553
 30
0.0
 10
16.81280761064113
 20
1.722149421810553
 30
0.0
 10
16.89419191973424
 20
1.725601845724711
 30
0.0
 10
16.97605647692312
 20
1.732514579400159
 30
0.0
 10
16.89516818762043
 20
1.725763505592739
 30
0.0
 10
16.81475147198158
 20
1.722396248828617
 30
0.0
 10
16.73501215061917
 20
1.722396248828617
 30
0.0
 10
16.71609873464005
 20
1.722396248828617
 30
0.0
 10
16.69723184515964
 20
1.722638344338365
 30
0.0
 10
16.67839255614441
 20
1.723014499250891
 30
0.0
  0
SPLINE
  5
AD
330
7B
100
AcDbEntity
  8
Livello 2
100
AcDbSpline
210
0.0
220
0.0
230
1.0
 70
     9
 71
     3
 72
    11
 73
     7
 74
     0
 42
0.000000001
 43
0.0000000001
 40
0.0
 40
0.0
 40
0.0
 40
0.0
 40
1.0
 40
1.0
 40
1.0
 40
2.0
 40
2.0
 40
2.0
 40
2.0
 10
14.71881314504926
 20
2.942397535213527
 30
0.0
 10
14.71600105192965
 20
2.948508278226396
 30
0.0
 10
14.71317791862391
 20
2.954612712561573
 30
0.0
 10
14.71042260360424
 20
2.960754210378634
 30
0.0
 10
14.71317791862391
 20
2.954611923976853
 30
0.0
 10
14.71599947476021
 20
2.948507489641741
 30
0.0
 10
14.71881314504926
 20
2.942397535213527
 30
0.0
  0
SPLINE
  5
AE
330
7B
100
AcDbEntity
  8
Livello 2
100
AcDbSpline
210
0.0
220
0.0
230
1.0
 70
     9
 71
     3
 72
   284
 73
   280
 74
     0
 42
0.000000001
 43
0.0000000001
 40
0.0
 40
0.0
 40
0.0
 40
0.0
 40
1.0
 40
1.0
 40
1.0
 40
2.0
 40
2.0
 40
2.0
 40
3.0
 40
3.0
 40
3.0
 40
4.0
 40
4.0
 40
4.0
 40
5.0
 40
5.0
 40
5.0
 40
6.0
 40
6.0
 40
6.0
 40
7.0
 40
7.0
 40
7.0
 40
8.0
 40
8.0
 40
8.0
 40
9.0
 40
9.0
 40
9.0
 40
10.0
 40
10.0
 40
10.0
 40
11.0
 40
11.0
 40
11.0
 40
12.0
 40
12.0
 40
12.0
 40
13.0
 40
13.0
 40
13.0
 40
14.0
 40
14.0
 40
14.0
 40
15.0
 40
15.0
 40
15.0
 40
16.0
 40
16.0
 40
16.0
 40
17.0
 40
17.0
 40
17.0
 40
18.0
 40
18.0
 40
18.0
 40
19.0
 40
19.0
 40
19.0
 40
20.0
 40
20.0
 40
20.0
 40
21.0
 40
21.0
 40
21.0
 40
22.0
 40
22.0
 40
22.0
 40
23.0
 40
23.0
 40
23.0
 40
24.0
 40
24.0
 40
24.0
 40
25.0
 40
25.0
 40
25.0
 40
26.0
 40
26.0
 40
26.0
 40
27.0
 40
27.0
 40
27.0
 40
28.0
 40
28.0
 40
28.0
 40
29.0
 40
29.0
 40
29.0
 40
30.0
 40
30.0
 40
30.0
 40
31.0
 40
31.0
 40
31.0
 40
32.0
 40
32.0
 40
32.0
 40
33.0
 40
33.0
 40
33.0
 40
34.0
 40
34.0
 40
34.0
 40
35.0
 40
35.0
 40
35.0
 40
36.0
 40
36.0
 40
36.0
 40
37.0
 40
37.0
 40
37.0
 40
38.0
 40
38.0
 40
38.0
 40
39.0
 40
39.0
 40
39.0
 40
40.0
 40
40.0
 40
40.0
 40
41.0
 40
41.0
 40
41.0
 40
42.0
 40
42.0
 40
42.0
 40
43.0
 40
43.0
 40
43.0
 40
44.0
 40
44.0
 40
44.0
 40
45.0
 40
45.0
 40
45.0
 40
46.0
 40
46.0
 40
46.0
 40
47.0
 40
47.0
 40
47.0
 40
48.0
 40
48.0
 40
48.0
 40
49.0
 40
49.0
 40
49.0
 40
50.0
 40
50.0
 40
50.0
 40
51.0
 40
51.0
 40
51.0
 40
52.0
 40
52.0
 40
52.0
 40
53.0
 40
53.0
 40
53.0
 40
54.0
 40
54.0
 40
54.0
 40
55.0
 40
55.0
 40
55.0
 40
56.0
 40
56.0
 40
56.0
 40
57.0
 40
57.0
 40
57.0
 40
58.0
 40
58.0
 40
58.0
 40
59.0
 40
59.0
 40
59.0
 40
60.0
 40
60.0
 40
60.0
 40
61.0
 40
61.0
 40
61.0
 40
62.0
 40
62.0
 40
62.0
 40
63.0
 40
63.0
 40
63.0
 40
64.0
 40
64.0
 40
64.0
 40
65.0
 40
65.0
 40
65.0
 40
66.0
 40
66.0
 40
66.0
 40
67.0
 40
67.0
 40
67.0
 40
68.0
 40
68.0
 40
68.0
 40
69.0
 40
69.0
 40
69.0
 40
70.0
 40
70.0
 40
70.0
 40
71.0
 40
71.0
 40
71.0
 40
72.0
 40
72.0
 40
72.0
 40
73.0
 40
73.0
 40
73.0
 40
74.0
 40
74.0
 40
74.0
 40
75.0
 40
75.0
 40
75.0
 40
76.0
 40
76.0
 40
76.0
 40
77.0
 40
77.0
 40
77.0
 40
78.0
 40
78.0
 40
78.0
 40
79.0
 40
79.0
 40
79.0
 40
80.0
 40
80.0
 40
80.0
 40
81.0
 40
81.0
 40
81.0
 40
82.0
 40
82.0
 40
82.0
 40
83.0
 40
83.0
 40
83.0
 40
84.0
 40
84.0
 40
84.0
 40
85.0
 40
85.0
 40
85.0
 40
86.0
 40
86.0
 40
86.0
 40
87.0
 40
87.0
 40
87.0
 40
88.0
 40
88.0
 40
88.0
 40
89.0
 40
89.0
 40
89.0
 40
90.0
 40
90.0
 40
90.0
 40
91.0
 40
91.0
 40
91.0
 40
92.0
 40
92.0
 40
92.0
 40
93.0
 40
93.0
 40
93.0
 40
93.0
 10
14.69765226261168
 20
2.989897935959865
 30
0.0
 10
14.69475105941844
 20
2.996636392411643
 30
0.0
 10
14.69187509093635
 20
3.003385889049623
 30
0.0
 10
14.68904407178334
 20
3.010160620398694
 30
0.0
 10
14.68509089657058
 20
3.019623637066012
 30
0.0
 10
14.68120159672029
 20
3.02911583136802
 30
0.0
 10
14.67738405807975
 20
3.038648243490919
 30
0.0
 10
14.6745175526143
 20
3.045802284091459
 30
0.0
 10
14.67170861383357
 20
3.052983925157184
 30
0.0
 10
14.66891938967089
 20
3.060176606409048
 30
0.0
 10
14.66528401410115
 20
3.069552878756955
 30
0.0
 10
14.66167939333559
 20
3.078941768460377
 30
0.0
 10
14.65817571141454
 20
3.088382704755418
 30
0.0
 10
14.65542512790325
 20
3.095793823975378
 30
0.0
 10
14.65276365446553
 20
3.103245161016164
 30
0.0
 10
14.6500950837654
 20
3.110694920887512
 30
0.0
 10
14.6467325585096
 20
3.120083022006213
 30
0.0
 10
14.64336687891491
 20
3.129468757370755
 30
0.0
 10
14.64013525872308
 20
3.138918368097777
 30
0.0
 10
14.63755264375757
 20
3.146471432567775
 30
0.0
 10
14.63509068225468
 20
3.154078120798834
 30
0.0
 10
14.63259244585443
 20
3.161669037335436
 30
0.0
 10
14.62947122752366
 20
3.171151768620809
 30
0.0
 10
14.62631215712627
 20
3.18061715104235
 30
0.0
 10
14.62332342102884
 20
3.19015902618182
 30
0.0
 10
14.62099078742034
 20
3.197607208883729
 30
0.0
 10
14.61881035066324
 20
3.2051200555329
 30
0.0
 10
14.61655894128112
 20
3.212602935962534
 30
0.0
 10
14.61361042300457
 20
3.222402678306335
 30
0.0
 10
14.61059250927245
 20
3.232172454430536
 30
0.0
 10
14.6077851476611
 20
3.242032917797938
 30
0.0
 10
14.60669059206659
 20
3.245876479734294
 30
0.0
 10
14.60571116984152
 20
3.249766568169299
 30
0.0
 10
14.60463790603451
 20
3.253619593122355
 30
0.0
 10
14.59838994927985
 20
3.27605325130165
 30
0.0
 10
14.5925496908267
 20
3.298650146518412
 30
0.0
 10
14.58703984937221
 20
3.32137794679914
 30
0.0
 10
14.58517563508869
 20
3.329069013595515
 30
0.0
 10
14.58322940799414
 20
3.336729325587698
 30
0.0
 10
14.58145036086066
 20
3.344453512942424
 30
0.0
 10
14.57922891769801
 20
3.354099481265264
 30
0.0
 10
14.57719594628398
 20
3.363814056459029
 30
0.0
 10
14.57510856252418
 20
3.373510494204116
 30
0.0
 10
14.57335317293235
 20
3.381662883062989
 30
0.0
 10
14.57155283401137
 20
3.389797134473248
 30
0.0
 10
14.56989365175571
 20
3.397984221059976
 30
0.0
 10
14.56795057900004
 20
3.407571045528655
 30
0.0
 10
14.56616049168048
 20
3.417209916589019
 30
0.0
 10
14.56434990115815
 20
3.426844056141129
 30
0.0
 10
14.56277352029831
 20
3.435229866077835
 30
0.0
 10
14.56118609925239
 20
3.443608578751936
 30
0.0
 10
14.55971065723697
 20
3.452029086416431
 30
0.0
 10
14.55803097177854
 20
3.461611179376857
 30
0.0
 10
14.55646878544371
 20
3.471232701573326
 30
0.0
 10
14.55492079363384
 20
3.480858955278112
 30
0.0
 10
14.5535431361241
 20
3.489426928285684
 30
0.0
 10
14.55218992474067
 20
3.497999632801509
 30
0.0
 10
14.55091636041417
 20
3.506601514952087
 30
0.0
 10
14.54950242800708
 20
3.516157584616638
 30
0.0
 10
14.54816735407233
 20
3.52573731182284
 30
0.0
 10
14.54688353814448
 20
3.535334387893002
 30
0.0
 10
14.54570539256931
 20
3.544143667825538
 30
0.0
 10
14.54458796801793
 20
3.552971873791407
 30
0.0
 10
14.54351943571917
 20
3.561815851451732
 30
0.0
 10
14.54237598787192
 20
3.571283599627368
 30
0.0
 10
14.54127196926071
 20
3.580760810819704
 30
0.0
 10
14.5402570607232
 20
3.590267199646728
 30
0.0
 10
14.53928000425229
 20
3.599405319408486
 30
0.0
 10
14.53840388662582
 20
3.608571039635494
 30
0.0
 10
14.53754590644796
 20
3.617743068540258
 30
0.0
 10
14.53667925183818
 20
3.627016036289515
 30
0.0
 10
14.53580944288952
 20
3.636285849699893
 30
0.0
 10
14.53506501891166
 20
3.645592726592156
 30
0.0
 10
14.53428826296024
 20
3.655285221413708
 30
0.0
 10
14.53365502942823
 20
3.665014779717146
 30
0.0
 10
14.53301154429487
 20
3.674743549435864
 30
0.0
 10
14.53242641443094
 20
3.68361197322256
 30
0.0
 10
14.531793180899
 20
3.692465413899521
 30
0.0
 10
14.53131924148086
 20
3.70136380390569
 30
0.0
 10
14.53073568878638
 20
3.712296742495324
 30
0.0
 10
14.53034533934883
 20
3.723278573337764
 30
0.0
 10
14.52993054378492
 20
3.734254884087103
 30
0.0
 10
14.52963955602243
 20
3.741984591534867
 30
0.0
 10
14.52925314950848
 20
3.7496874871021
 30
0.0
 10
14.52904654031131
 20
3.757437697752637
 30
0.0
 10
14.52858521824875
 20
3.774680102705181
 30
0.0
 10
14.52835495150986
 20
3.791979285757792
 30
0.0
 10
14.5283163108584
 20
3.809321840970045
 30
0.0
 10
14.52831315651953
 20
3.810772048274306
 30
0.0
 10
14.52825558983487
 20
3.812208849638334
 30
0.0
 10
14.52825558983487
 20
3.813659056942595
 30
0.0
 10
14.52825558983487
 20
3.813737126830091
 30
0.0
 10
14.52825874417374
 20
3.813814408132867
 30
0.0
 10
14.52825874417374
 20
3.813892478020363
 30
0.0
 10
14.52825874417374
 20
3.813970547907859
 30
0.0
 10
14.52825558983487
 20
3.814047829210699
 30
0.0
 10
14.52825558983487
 20
3.814125899098195
 30
0.0
 10
14.52825558983487
 20
3.814047829210699
 30
0.0
 10
14.52825874417374
 20
3.813970547907859
 30
0.0
 10
14.52825874417374
 20
3.813892478020363
 30
0.0
 10
14.5283864948987
 20
4.967043860328468
 30
0.0
 10
15.46657914493095
 20
5.905162383396785
 30
0.0
 10
16.61976522496678
 20
5.905162383396785
 30
0.0
 10
17.77295130500268
 20
5.905162383396785
 30
0.0
 10
18.7111376463571
 20
4.967043860328468
 30
0.0
 10
18.71126539708219
 20
3.813892478020363
 30
0.0
 10
18.71126539708219
 20
3.813970547907859
 30
0.0
 10
18.71126855142107
 20
3.814047829210699
 30
0.0
 10
18.71126855142107
 20
3.814125899098195
 30
0.0
 10
18.71126855142107
 20
3.814047829210699
 30
0.0
 10
18.71126539708219
 20
3.813970547907859
 30
0.0
 10
18.71126539708219
 20
3.813892478020363
 30
0.0
 10
18.71126539708219
 20
3.813814408132867
 30
0.0
 10
18.71126855142107
 20
3.813737126830091
 30
0.0
 10
18.71126855142107
 20
3.813659056942595
 30
0.0
 10
18.71126855142107
 20
3.813006897377251
 30
0.0
 10
18.7112385852016
 20
3.812361835074447
 30
0.0
 10
18.71123779661688
 20
3.811709675509039
 30
0.0
 10
18.7112157162446
 20
3.792149620057736
 30
0.0
 10
18.71087662481402
 20
3.772663691570331
 30
0.0
 10
18.71031751824597
 20
3.753231386843987
 30
0.0
 10
18.71010854329458
 20
3.745919629299016
 30
0.0
 10
18.70976629752512
 20
3.73864335806662
 30
0.0
 10
18.70948319560977
 20
3.731349737970264
 30
0.0
 10
18.70897850138756
 20
3.718466629362482
 30
0.0
 10
18.70839652586252
 20
3.70560560112685
 30
0.0
 10
18.7076591991472
 20
3.692782424957886
 30
0.0
 10
18.7071789510513
 20
3.684400557944842
 30
0.0
 10
18.70664271344019
 20
3.676035251210974
 30
0.0
 10
18.70606389225402
 20
3.667679407493678
 30
0.0
 10
18.70523666688035
 20
3.655785972712314
 30
0.0
 10
18.70428169078166
 20
3.643930389997684
 30
0.0
 10
18.70325653064273
 20
3.632091367562101
 30
0.0
 10
18.70252551260517
 20
3.623631430661562
 30
0.0
 10
18.7018291922954
 20
3.615163607913699
 30
0.0
 10
18.70099723541342
 20
3.606732060063129
 30
0.0
 10
18.6997268254258
 20
3.593882072013634
 30
0.0
 10
18.69825296057988
 20
3.581091227818302
 30
0.0
 10
18.6967491295145
 20
3.568309058054949
 30
0.0
 10
18.69539276379219
 20
3.556762600551423
 30
0.0
 10
18.6939630596907
 20
3.545242954928427
 30
0.0
 10
18.69241901080449
 20
3.53375485269428
 30
0.0
 10
18.69057451113908
 20
3.520050038805801
 30
0.0
 10
18.6886874278987
 20
3.506358630857684
 30
0.0
 10
18.68657796376662
 20
3.492738984119242
 30
0.0
 10
18.68508044137899
 20
3.483055952314389
 30
0.0
 10
18.68339996733577
 20
3.473436007287359
 30
0.0
 10
18.68176917413015
 20
3.463796347642276
 30
0.0
 10
18.68015494120363
 20
3.454263935519377
 30
0.0
 10
18.67853203384521
 20
3.444736254904795
 30
0.0
 10
18.67678847302423
 20
3.435248003526385
 30
0.0
 10
18.67490927563111
 20
3.425009019492363
 30
0.0
 10
18.67293387090174
 20
3.414806310355505
 30
0.0
 10
18.67090484241131
 20
3.404620161497951
 30
0.0
 10
18.66916759026816
 20
3.395903934562583
 30
0.0
 10
18.66735857691526
 20
3.38721451950781
 30
0.0
 10
18.66551250008042
 20
3.378537721808615
 30
0.0
 10
18.66327765097748
 20
3.368021155952335
 30
0.0
 10
18.66103491602734
 20
3.357510110189156
 30
0.0
 10
18.65864156139518
 20
3.347052688187038
 30
0.0
 10
18.65684437681315
 20
3.339204693030951
 30
0.0
 10
18.65491234424355
 20
3.33140953305127
 30
0.0
 10
18.6530268381726
 20
3.32359465845347
 30
0.0
 10
18.64698075910693
 20
3.298518452869856
 30
0.0
 10
18.64054433060372
 20
3.273596021307011
 30
0.0
 10
18.63360084212407
 20
3.248877833187245
 30
0.0
 10
18.63295104831295
 20
3.246565702781524
 30
0.0
 10
18.63236434127953
 20
3.244229126249431
 30
0.0
 10
18.63170666162115
 20
3.241920150182652
 30
0.0
 10
18.6283465021195
 20
3.230115825474859
 30
0.0
 10
18.62476475031095
 20
3.21840849668796
 30
0.0
 10
18.62120350170516
 20
3.206690127714923
 30
0.0
 10
18.61925490885646
 20
3.200282876846399
 30
0.0
 10
18.61733785939659
 20
3.193863008622361
 30
0.0
 10
18.61533012269366
 20
3.187481781049711
 30
0.0
 10
18.61169474712398
 20
3.175925071944767
 30
0.0
 10
18.60792925507512
 20
3.164428295278703
 30
0.0
 10
18.604099099079
 20
3.15295833049317
 30
0.0
 10
18.60202669842886
 20
3.14675374589835
 30
0.0
 10
18.59992038863566
 20
3.14056651016736
 30
0.0
 10
18.59779120988546
 20
3.13438794886835
 30
0.0
 10
18.59373157573523
 20
3.122602550193955
 30
0.0
 10
18.58962068357797
 20
3.110843963400027
 30
0.0
 10
18.58535680598467
 20
3.099153983477023
 30
0.0
 10
18.58362113101095
 20
3.094396451847521
 30
0.0
 10
18.58180502039552
 20
3.089677560869407
 30
0.0
 10
18.58003622486345
 20
3.084935800934361
 30
0.0
 10
18.56453501497772
 20
3.043384483332928
 30
0.0
 10
18.54776024076543
 20
3.002461667755123
 30
0.0
 10
18.52973634835309
 20
2.962201263344017
 30
0.0
 10
18.52816548758628
 20
2.958693638499359
 30
0.0
 10
18.52663563322508
 20
2.955163144697705
 30
0.0
 10
18.52504584642494
 20
2.951665771454402
 30
0.0
 10
18.519420871601
 20
2.939284991314666
 30
0.0
 10
18.51363817983251
 20
2.926994898418003
 30
0.0
 10
18.50778057251546
 20
2.914743446172729
 30
0.0
 10
18.50576731571949
 20
2.91053476950992
 30
0.0
 10
18.50374538449154
 20
2.906332401524933
 30
0.0
 10
18.50170531581504
 20
2.902139496556644
 30
0.0
 10
18.49568368287574
 20
2.889760293586283
 30
0.0
 10
18.48957688278647
 20
2.87743629154655
 30
0.0
 10
18.48331946301518
 20
2.865194302317974
 30
0.0
 10
18.48184717533864
 20
2.862315179496945
 30
0.0
 10
18.4803330926719
 20
2.859461291386942
 30
0.0
 10
18.47884818763991
 20
2.856590054413173
 30
0.0
 10
18.45693262962306
 20
2.814202837006154
 30
0.0
 10
18.433646511359
 20
2.772642844972742
 30
0.0
 10
18.40897800407676
 20
2.731999188386633
 30
0.0
 10
18.40858134596146
 20
2.731346240236569
 30
0.0
 10
18.40819888237112
 20
2.73068461765459
 30
0.0
 10
18.4078014356711
 20
2.730032458089246
 30
0.0
 10
18.40004412775808
 20
2.717283408884179
 30
0.0
 10
18.39211175403668
 20
2.704656590311162
 30
0.0
 10
18.38409105882649
 20
2.692087338422803
 30
0.0
 10
18.38240664185968
 20
2.689447945357362
 30
0.0
 10
18.38072616781646
 20
2.686807763707138
 30
0.0
 10
18.37903071066358
 20
2.684176256488893
 30
0.0
 10
18.3710305186561
 20
2.671760778621431
 30
0.0
 10
18.36291992478749
 20
2.659428102149718
 30
0.0
 10
18.35466580849947
 20
2.647193998768339
 30
0.0
 10
18.35351920631321
 20
2.645494598691854
 30
0.0
 10
18.35235131233952
 20
2.643810970309761
 30
0.0
 10
18.35119997864501
 20
2.64211551315681
 30
0.0
 10
18.31482729691475
 20
2.588543798633775
 30
0.0
 10
18.2760439116885
 20
2.536755074167694
 30
0.0
 10
18.23499255680095
 20
2.486877879068436
 30
0.0
 10
18.2339137729009
 20
2.485567251260055
 30
0.0
 10
18.23284129767854
 20
2.484251891943228
 30
0.0
 10
18.23175935943968
 20
2.482943629889006
 30
0.0
 10
18.22176562525422
 20
2.470860934774301
 30
0.0
 10
18.21164650609795
 20
2.458891007274881
 30
0.0
 10
18.20138938461532
 20
2.447038578899065
 30
0.0
 10
18.20067650402637
 20
2.446215296448993
 30
0.0
 10
18.19995652617495
 20
2.445399899846181
 30
0.0
 10
18.19924285700128
 20
2.444578194565548
 30
0.0
 10
18.15582101643857
 20
2.394558265631596
 30
0.0
 10
18.11008231396183
 20
2.346621777533851
 30
0.0
 10
18.06217027199052
 20
2.30092092712377
 30
0.0
 10
18.06211585964467
 20
2.300868091947366
 30
0.0
 10
18.06206065871411
 20
2.300816045355744
 30
0.0
 10
18.06200624636833
 20
2.300763998764059
 30
0.0
 10
18.04994642021049
 20
2.289263279174398
 30
0.0
 10
18.03774938031106
 20
2.277911602097252
 30
0.0
 10
18.02541828100879
 20
2.266697927346419
 30
0.0
 10
18.02533074810465
 20
2.266618280289484
 30
0.0
 10
18.02524242661581
 20
2.266539421817268
 30
0.0
 10
18.02515489371154
 20
2.266459774760333
 30
0.0
 10
17.95546923897348
 20
2.20311039826571
 30
0.0
 10
17.88163405142677
 20
2.144255166103348
 30
0.0
 10
17.80388117497974
 20
2.09065348536084
 30
0.0
 10
17.8568630281306
 20
2.108820900192604
 30
0.0
 10
17.90896245497729
 20
2.128108893914751
 30
0.0
 10
17.96012267741961
 20
2.148530872467514
 30
0.0
 10
17.90896245497729
 20
2.128108893914751
 30
0.0
 10
17.8568630281306
 20
2.108820900192604
 30
0.0
 10
17.80388117497974
 20
2.09065348536084
 30
0.0
 10
17.80316356288248
 20
2.090159042739927
 30
0.0
 10
17.80246881974221
 20
2.089634633899605
 30
0.0
 10
17.80175041906023
 20
2.089140979863475
 30
0.0
 10
19.24637612066183
 20
2.581974887897158
 30
0.0
 10
20.01729102506592
 20
3.930621942950584
 30
0.0
 10
20.01729102506592
 20
5.128482924672816
 30
0.0
 10
20.01729102506592
 20
6.765313534973702
 30
0.0
 10
18.6856300849304
 20
8.096968166431464
 30
0.0
 10
17.04880578330724
 20
8.096968166431464
 30
0.0
 10
15.41198148168414
 20
8.096968166431464
 30
0.0
 10
14.08032685022644
 20
6.765313534973702
 30
0.0
 10
14.08032685022644
 20
5.128482924672816
 30
0.0
 10
14.08032685022644
 20
4.254986553840836
 30
0.0
 10
14.30754965210309
 20
3.490915776241333
 30
0.0
 10
14.72828247039434
 20
2.921681414559268
 30
0.0
 10
14.72503665567748
 20
2.928537370134777
 30
0.0
 10
14.72198640997172
 20
2.935501361817191
 30
0.0
 10
14.71881314504926
 20
2.942397535213527
 30
0.0
 10
14.71599947476021
 20
2.948507489641741
 30
0.0
 10
14.71317791862391
 20
2.954611923976853
 30
0.0
 10
14.71042260360424
 20
2.960754210378634
 30
0.0
 10
14.70608459904697
 20
2.970426201997413
 30
0.0
 10
14.70184753333425
 20
2.980149451623029
 30
0.0
 10
14.69765226261168
 20
2.989897935959865
 30
0.0
  0
SPLINE
  5
AF
330
7B
100
AcDbEntity
  8
Livello 2
100
AcDbSpline
210
0.0
220
0.0
230
1.0
 70
     9
 71
     3
 72
    11
 73
     7
 74
     0
 42
0.000000001
 43
0.0000000001
 40
0.0
 40
0.0
 40
0.0
 40
0.0
 40
1.0
 40
1.0
 40
1.0
 40
2.0
 40
2.0
 40
2.0
 40
2.0
 10
14.87672644710037
 20
3.031873512141848
 30
0.0
 10
14.87142715776665
 20
3.04363683044403
 30
0.0
 10
14.86624773331069
 20
3.055464024108755
 30
0.0
 10
14.86118028788543
 20
3.067351150212362
 30
0.0
 10
14.86624615614125
 20
3.055461658354596
 30
0.0
 10
14.87142794635137
 20
3.043639196198253
 30
0.0
 10
14.87672644710037
 20
3.031873512141848
 30
0.0
  0
SPLINE
  5
B0
330
7B
100
AcDbEntity
  8
Livello 2
100
AcDbSpline
210
0.0
220
0.0
230
1.0
 70
     9
 71
     3
 72
    11
 73
     7
 74
     0
 42
0.000000001
 43
0.0000000001
 40
0.0
 40
0.0
 40
0.0
 40
0.0
 40
1.0
 40
1.0
 40
1.0
 40
2.0
 40
2.0
 40
2.0
 40
2.0
 10
14.7547126759461
 20
3.398907653769756
 30
0.0
 10
14.75267891594736
 20
3.408048927870393
 30
0.0
 10
14.7506207098223
 20
3.41718152753905
 30
0.0
 10
14.74871864347212
 20
3.426370905307709
 30
0.0
 10
14.75061834406808
 20
3.417179161784891
 30
0.0
 10
14.75268049311686
 20
3.408050505039832
 30
0.0
 10
14.7547126759461
 20
3.398907653769756
 30
0.0
  0
SPLINE
  5
B1
330
7B
100
AcDbEntity
  8
Livello 2
100
AcDbSpline
210
0.0
220
0.0
230
1.0
 70
     9
 71
     3
 72
    11
 73
     7
 74
     0
 42
0.000000001
 43
0.0000000001
 40
0.0
 40
0.0
 40
0.0
 40
0.0
 40
1.0
 40
1.0
 40
1.0
 40
2.0
 40
2.0
 40
2.0
 40
2.0
 10
14.56989365175571
 20
3.397984221059976
 30
0.0
 10
14.57155283401137
 20
3.389797134473248
 30
0.0
 10
14.57335317293235
 20
3.381662883062989
 30
0.0
 10
14.57510856252418
 20
3.373510494204116
 30
0.0
 10
14.57335317293235
 20
3.38166209447827
 30
0.0
 10
14.57155283401137
 20
3.389797134473248
 30
0.0
 10
14.56989365175571
 20
3.397984221059976
 30
0.0
  0
SPLINE
  5
B2
330
7B
100
AcDbEntity
  8
Livello 2
100
AcDbSpline
210
0.0
220
0.0
230
1.0
 70
     9
 71
     3
 72
    11
 73
     7
 74
     0
 42
0.000000001
 43
0.0000000001
 40
0.0
 40
0.0
 40
0.0
 40
0.0
 40
1.0
 40
1.0
 40
1.0
 40
2.0
 40
2.0
 40
2.0
 40
2.0
 10
14.54351943571917
 20
3.561815851451732
 30
0.0
 10
14.54458796801793
 20
3.552971873791407
 30
0.0
 10
14.54570539256931
 20
3.544143667825538
 30
0.0
 10
14.54688353814448
 20
3.535334387893002
 30
0.0
 10
14.54570539256931
 20
3.544144456410257
 30
0.0
 10
14.54458717943321
 20
3.552971873791407
 30
0.0
 10
14.54351943571917
 20
3.561815851451732
 30
0.0
  0
SPLINE
  5
B3
330
7B
100
AcDbEntity
  8
Livello 2
100
AcDbSpline
210
0.0
220
0.0
230
1.0
 70
     9
 71
     3
 72
    11
 73
     7
 74
     0
 42
0.000000001
 43
0.0000000001
 40
0.0
 40
0.0
 40
0.0
 40
0.0
 40
1.0
 40
1.0
 40
1.0
 40
2.0
 40
2.0
 40
2.0
 40
2.0
 10
14.76815331395262
 20
3.342264401753407
 30
0.0
 10
14.76569844971214
 20
3.351890655458194
 30
0.0
 10
14.76337054761202
 20
3.361566590000507
 30
0.0
 10
14.76106314871462
 20
3.37124962180536
 30
0.0
 10
14.76336897044259
 20
3.361564224246348
 30
0.0
 10
14.76570081546636
 20
3.351892232627633
 30
0.0
 10
14.76815331395262
 20
3.342264401753407
 30
0.0
  0
SPLINE
  5
B4
330
7B
100
AcDbEntity
  8
Livello 2
100
AcDbSpline
210
0.0
220
0.0
230
1.0
 70
     9
 71
     3
 72
    11
 73
     7
 74
     0
 42
0.000000001
 43
0.0000000001
 40
0.0
 40
0.0
 40
0.0
 40
0.0
 40
1.0
 40
1.0
 40
1.0
 40
2.0
 40
2.0
 40
2.0
 40
2.0
 10
14.58145036086066
 20
3.344453512942424
 30
0.0
 10
14.58322940799414
 20
3.336729325587698
 30
0.0
 10
14.58517563508869
 20
3.329069013595515
 30
0.0
 10
14.58703984937221
 20
3.32137794679914
 30
0.0
 10
14.58517563508869
 20
3.329069802180234
 30
0.0
 10
14.58322940799414
 20
3.336729325587698
 30
0.0
 10
14.58145036086066
 20
3.344453512942424
 30
0.0
  0
SPLINE
  5
B5
330
7B
100
AcDbEntity
  8
Livello 2
100
AcDbSpline
210
0.0
220
0.0
230
1.0
 70
     9
 71
     3
 72
    11
 73
     7
 74
     0
 42
0.000000001
 43
0.0000000001
 40
0.0
 40
0.0
 40
0.0
 40
0.0
 40
1.0
 40
1.0
 40
1.0
 40
2.0
 40
2.0
 40
2.0
 40
2.0
 10
14.55091636041417
 20
3.506601514952087
 30
0.0
 10
14.55218992474067
 20
3.497999632801509
 30
0.0
 10
14.5535431361241
 20
3.489426928285684
 30
0.0
 10
14.55492079363384
 20
3.480858955278112
 30
0.0
 10
14.5535431361241
 20
3.489426139700964
 30
0.0
 10
14.55218913615595
 20
3.498000421386229
 30
0.0
 10
14.55091636041417
 20
3.506601514952087
 30
0.0
  0
SPLINE
  5
B6
330
7B
100
AcDbEntity
  8
Livello 2
100
AcDbSpline
210
0.0
220
0.0
230
1.0
 70
     9
 71
     3
 72
    11
 73
     7
 74
     0
 42
0.000000001
 43
0.0000000001
 40
0.0
 40
0.0
 40
0.0
 40
0.0
 40
1.0
 40
1.0
 40
1.0
 40
2.0
 40
2.0
 40
2.0
 40
2.0
 10
14.55971065723697
 20
3.452029086416431
 30
0.0
 10
14.56118609925239
 20
3.443608578751936
 30
0.0
 10
14.56277352029831
 20
3.435229866077835
 30
0.0
 10
14.56434990115815
 20
3.426844056141129
 30
0.0
 10
14.56277352029831
 20
3.435228288908396
 30
0.0
 10
14.56118609925239
 20
3.44360936733672
 30
0.0
 10
14.55971065723697
 20
3.452029086416431
 30
0.0
  0
SPLINE
  5
B7
330
7B
100
AcDbEntity
  8
Livello 2
100
AcDbSpline
210
0.0
220
0.0
230
1.0
 70
     9
 71
     3
 72
    11
 73
     7
 74
     0
 42
0.000000001
 43
0.0000000001
 40
0.0
 40
0.0
 40
0.0
 40
0.0
 40
1.0
 40
1.0
 40
1.0
 40
2.0
 40
2.0
 40
2.0
 40
2.0
 10
14.78990642351666
 20
3.264281258567488
 30
0.0
 10
14.78471674745935
 20
3.281519720596434
 30
0.0
 10
14.77977153266588
 20
3.298860698639248
 30
0.0
 10
14.77506052753503
 20
3.316299461187739
 30
0.0
 10
14.77976837832701
 20
3.29885754430037
 30
0.0
 10
14.78471990179823
 20
3.281522086350593
 30
0.0
 10
14.78990642351666
 20
3.264281258567488
 30
0.0
  0
SPLINE
  5
B8
330
7B
100
AcDbEntity
  8
Livello 2
100
AcDbSpline
210
0.0
220
0.0
230
1.0
 70
     9
 71
     3
 72
    11
 73
     7
 74
     0
 42
0.000000001
 43
0.0000000001
 40
0.0
 40
0.0
 40
0.0
 40
0.0
 40
1.0
 40
1.0
 40
1.0
 40
2.0
 40
2.0
 40
2.0
 40
2.0
 10
14.60463790603451
 20
3.253619593122355
 30
0.0
 10
14.60571116984152
 20
3.249766568169299
 30
0.0
 10
14.60669059206659
 20
3.245876479734294
 30
0.0
 10
14.6077851476611
 20
3.242032917797938
 30
0.0
 10
14.60669059206659
 20
3.245875691149575
 30
0.0
 10
14.6057103812568
 20
3.249767356754019
 30
0.0
 10
14.60463790603451
 20
3.253619593122355
 30
0.0
  0
SPLINE
  5
B9
330
7B
100
AcDbEntity
  8
Livello 2
 62
    18
420
        0
370
    35
100
AcDbSpline
210
0.0
220
0.0
230
1.0
 70
     9
 71
     3
 72
    11
 73
     7
 74
     0
 42
0.000000001
 43
0.0000000001
 40
0.0
 40
0.0
 40
0.0
 40
0.0
 40
1.0
 40
1.0
 40
1.0
 40
2.0
 40
2.0
 40
2.0
 40
2.0
 10
14.94164747294646
 20
2.901354066173241
 30
0.0
 10
14.94044093832138
 20
2.90356525773447
 30
0.0
 10
14.9392462324671
 20
2.905785123727678
 30
0.0
 10
14.93804758368922
 20
2.908001835382009
 30
0.0
 10
14.93924702105182
 20
2.905785123727678
 30
0.0
 10
14.94044014973666
 20
2.90356525773447
 30
0.0
 10
14.94164747294646
 20
2.901354066173241
 30
0.0
  0
SPLINE
  5
BA
330
7B
100
AcDbEntity
  8
Livello 2
 62
    18
420
        0
370
    35
100
AcDbSpline
210
0.0
220
0.0
230
1.0
 70
     9
 71
     3
 72
    11
 73
     7
 74
     0
 42
0.000000001
 43
0.0000000001
 40
0.0
 40
0.0
 40
0.0
 40
0.0
 40
1.0
 40
1.0
 40
1.0
 40
2.0
 40
2.0
 40
2.0
 40
2.0
 10
14.73514394606282
 20
3.499766851164135
 30
0.0
 10
14.73322137650998
 20
3.511350372149673
 30
0.0
 10
14.73135400788765
 20
3.522952030583827
 30
0.0
 10
14.7296412018708
 20
3.534604158440098
 30
0.0
 10
14.73135637364181
 20
3.522952819168482
 30
0.0
 10
14.73321822217104
 20
3.511349583564954
 30
0.0
 10
14.73514394606282
 20
3.499766851164135
 30
0.0
  0
SPLINE
  5
BB
330
7B
100
AcDbEntity
  8
Livello 2
 62
    18
420
        0
370
    35
100
AcDbSpline
210
0.0
220
0.0
230
1.0
 70
     9
 71
     3
 72
    14
 73
    10
 74
     0
 42
0.000000001
 43
0.0000000001
 40
0.0
 40
0.0
 40
0.0
 40
0.0
 40
1.0
 40
1.0
 40
1.0
 40
2.0
 40
2.0
 40
2.0
 40
3.0
 40
3.0
 40
3.0
 40
3.0
 10
17.80261865083945
 20
2.090210300746893
 30
0.0
 10
17.80304212083528
 20
2.090355400335746
 30
0.0
 10
17.80345849356863
 20
2.090508385771859
 30
0.0
 10
17.80388117497974
 20
2.09065348536084
 30
0.0
 10
17.88163405142677
 20
2.144255166103348
 30
0.0
 10
17.95546923897348
 20
2.20311039826571
 30
0.0
 10
18.02515489371154
 20
2.266459774760333
 30
0.0
 10
17.955155382254
 20
2.202836759367051
 30
0.0
 10
17.88075714521557
 20
2.143992567390827
 30
0.0
 10
17.80261865083945
 20
2.090210300746893
 30
0.0
  0
SPLINE
  5
BC
330
7B
100
AcDbEntity
  8
Livello 2
 62
    18
420
        0
370
    35
100
AcDbSpline
210
0.0
220
0.0
230
1.0
 70
     9
 71
     3
 72
    11
 73
     7
 74
     0
 42
0.000000001
 43
0.0000000001
 40
0.0
 40
0.0
 40
0.0
 40
0.0
 40
1.0
 40
1.0
 40
1.0
 40
2.0
 40
2.0
 40
2.0
 40
2.0
 10
18.20138938461532
 20
2.447038578899065
 30
0.0
 10
18.21164650609795
 20
2.458891007274881
 30
0.0
 10
18.22176562525422
 20
2.470860934774301
 30
0.0
 10
18.23175935943968
 20
2.482943629889006
 30
0.0
 10
18.22176562525422
 20
2.470863300528459
 30
0.0
 10
18.21164650609795
 20
2.458889430105442
 30
0.0
 10
18.20138938461532
 20
2.447038578899065
 30
0.0
  0
SPLINE
  5
BD
330
7B
100
AcDbEntity
  8
Livello 2
 62
    18
420
        0
370
    35
100
AcDbSpline
210
0.0
220
0.0
230
1.0
 70
     9
 71
     3
 72
    14
 73
    10
 74
     0
 42
0.000000001
 43
0.0000000001
 40
0.0
 40
0.0
 40
0.0
 40
0.0
 40
1.0
 40
1.0
 40
1.0
 40
2.0
 40
2.0
 40
2.0
 40
3.0
 40
3.0
 40
3.0
 40
3.0
 10
16.61976522496678
 20
1.903498673223015
 30
0.0
 10
16.63457248029703
 20
1.903498673223015
 30
0.0
 10
16.64932768903552
 20
1.903724208453587
 30
0.0
 10
16.66405529730871
 20
1.904060934129942
 30
0.0
 10
16.41147476510253
 20
1.910635364959596
 30
0.0
 10
16.16650959555945
 20
1.953412143219438
 30
0.0
 10
15.93475874020747
 20
2.030572003955286
 30
0.0
 10
16.14751574393867
 20
1.948579696041319
 30
0.0
 10
16.37845987711976
 20
1.903498673223015
 30
0.0
 10
16.61976522496678
 20
1.903498673223015
 30
0.0
  0
SPLINE
  5
BE
330
7B
100
AcDbEntity
  8
Livello 2
 62
    18
420
        0
370
    35
100
AcDbSpline
210
0.0
220
0.0
230
1.0
 70
     9
 71
     3
 72
    11
 73
     7
 74
     0
 42
0.000000001
 43
0.0000000001
 40
0.0
 40
0.0
 40
0.0
 40
0.0
 40
1.0
 40
1.0
 40
1.0
 40
2.0
 40
2.0
 40
2.0
 40
2.0
 10
14.74871864347212
 20
3.426370905307709
 30
0.0
 10
14.74526700814274
 20
3.443066032463063
 30
0.0
 10
14.74199201579113
 20
3.459825034980833
 30
0.0
 10
14.73898041073676
 20
3.476675513326459
 30
0.0
 10
14.74199517013001
 20
3.459826612150336
 30
0.0
 10
14.7452638538038
 20
3.44306524387828
 30
0.0
 10
14.74871864347212
 20
3.426370905307709
 30
0.0
  0
SPLINE
  5
BF
330
7B
100
AcDbEntity
  8
Livello 2
 62
    18
420
        0
370
    35
100
AcDbSpline
210
0.0
220
0.0
230
1.0
 70
     9
 71
     3
 72
    11
 73
     7
 74
     0
 42
0.000000001
 43
0.0000000001
 40
0.0
 40
0.0
 40
0.0
 40
0.0
 40
1.0
 40
1.0
 40
1.0
 40
2.0
 40
2.0
 40
2.0
 40
2.0
 10
15.03617275785155
 20
2.746207119327876
 30
0.0
 10
15.03600242355148
 20
2.746459466439042
 30
0.0
 10
15.0358305120821
 20
2.74671102496536
 30
0.0
 10
15.03566017778202
 20
2.746963372076526
 30
0.0
 10
15.03583130066681
 20
2.74671102496536
 30
0.0
 10
15.03600242355148
 20
2.746459466439042
 30
0.0
 10
15.03617275785155
 20
2.746207119327876
 30
0.0
  0
SPLINE
  5
C0
330
7B
100
AcDbEntity
  8
Livello 2
 62
    18
420
        0
370
    35
100
AcDbSpline
210
0.0
220
0.0
230
1.0
 70
     9
 71
     3
 72
    11
 73
     7
 74
     0
 42
0.000000001
 43
0.0000000001
 40
0.0
 40
0.0
 40
0.0
 40
0.0
 40
1.0
 40
1.0
 40
1.0
 40
2.0
 40
2.0
 40
2.0
 40
2.0
 10
18.02541828100879
 20
2.266697927346419
 30
0.0
 10
18.03774938031106
 20
2.277911602097252
 30
0.0
 10
18.04994642021049
 20
2.289263279174398
 30
0.0
 10
18.06200624636833
 20
2.300763998764059
 30
0.0
 10
18.04994563162577
 20
2.289265644928557
 30
0.0
 10
18.03774938031106
 20
2.277909236343029
 30
0.0
 10
18.02541828100879
 20
2.266697927346419
 30
0.0
  0
SPLINE
  5
C1
330
7B
100
AcDbEntity
  8
Livello 2
 62
    18
420
        0
370
    35
100
AcDbSpline
210
0.0
220
0.0
230
1.0
 70
     9
 71
     3
 72
    11
 73
     7
 74
     0
 42
0.000000001
 43
0.0000000001
 40
0.0
 40
0.0
 40
0.0
 40
0.0
 40
1.0
 40
1.0
 40
1.0
 40
2.0
 40
2.0
 40
2.0
 40
2.0
 10
14.79642801916985
 20
3.242754472818734
 30
0.0
 10
14.79418528421964
 20
3.249900627572078
 30
0.0
 10
14.79206635707093
 20
3.257099617501698
 30
0.0
 10
14.78990642351666
 20
3.264281258567488
 30
0.0
 10
14.79206872282509
 20
3.257099617501698
 30
0.0
 10
14.79418370705027
 20
3.249899838987358
 30
0.0
 10
14.79642801916985
 20
3.242754472818734
 30
0.0
  0
SPLINE
  5
C2
330
7B
100
AcDbEntity
  8
Livello 2
 62
    18
420
        0
370
    35
100
AcDbSpline
210
0.0
220
0.0
230
1.0
 70
     9
 71
     3
 72
    11
 73
     7
 74
     0
 42
0.000000001
 43
0.0000000001
 40
0.0
 40
0.0
 40
0.0
 40
0.0
 40
1.0
 40
1.0
 40
1.0
 40
2.0
 40
2.0
 40
2.0
 40
2.0
 10
14.77506052753503
 20
3.316299461187739
 30
0.0
 10
14.77272789392653
 20
3.324942349743864
 30
0.0
 10
14.77036687126807
 20
3.333573409529195
 30
0.0
 10
14.76815331395262
 20
3.342264401753407
 30
0.0
 10
14.77036844843751
 20
3.333573409529195
 30
0.0
 10
14.77272552817238
 20
3.324942349743864
 30
0.0
 10
14.77506052753503
 20
3.316299461187739
 30
0.0
  0
SPLINE
  5
C3
330
7B
100
AcDbEntity
  8
Livello 2
 62
    18
420
        0
370
    35
100
AcDbSpline
210
0.0
220
0.0
230
1.0
 70
     9
 71
     3
 72
    11
 73
     7
 74
     0
 42
0.000000001
 43
0.0000000001
 40
0.0
 40
0.0
 40
0.0
 40
0.0
 40
1.0
 40
1.0
 40
1.0
 40
2.0
 40
2.0
 40
2.0
 40
2.0
 10
14.8260890563288
 20
3.155695508064225
 30
0.0
 10
14.82580122290519
 20
3.156477784108686
 30
0.0
 10
14.82549052052458
 20
3.157249808551856
 30
0.0
 10
14.82520347568575
 20
3.158032873181037
 30
0.0
 10
14.82549052052458
 20
3.157250597136576
 30
0.0
 10
14.82580043432047
 20
3.156477784108686
 30
0.0
 10
14.8260890563288
 20
3.155695508064225
 30
0.0
  0
SPLINE
  5
C4
330
7B
100
AcDbEntity
  8
Livello 2
 62
    18
420
        0
370
    35
100
AcDbSpline
210
0.0
220
0.0
230
1.0
 70
     9
 71
     3
 72
    11
 73
     7
 74
     0
 42
0.000000001
 43
0.0000000001
 40
0.0
 40
0.0
 40
0.0
 40
0.0
 40
1.0
 40
1.0
 40
1.0
 40
2.0
 40
2.0
 40
2.0
 40
2.0
 10
14.71017893092505
 20
3.753986851007982
 30
0.0
 10
14.70957960653611
 20
3.773398652531489
 30
0.0
 10
14.70917269681939
 20
3.792856980553644
 30
0.0
 10
14.70916007946388
 20
3.812409150157815
 30
0.0
 10
14.70917742832771
 20
3.792858557723083
 30
0.0
 10
14.70957487502779
 20
3.773397863946769
 30
0.0
 10
14.71017893092505
 20
3.753986851007982
 30
0.0
  0
SPLINE
  5
C5
330
7B
100
AcDbEntity
  8
Livello 2
 62
    18
420
        0
370
    35
100
AcDbSpline
210
0.0
220
0.0
230
1.0
 70
     9
 71
     3
 72
    11
 73
     7
 74
     0
 42
0.000000001
 43
0.0000000001
 40
0.0
 40
0.0
 40
0.0
 40
0.0
 40
1.0
 40
1.0
 40
1.0
 40
2.0
 40
2.0
 40
2.0
 40
2.0
 10
14.71314322089612
 20
3.692141305578744
 30
0.0
 10
14.71225290874462
 20
3.706260915031008
 30
0.0
 10
14.71149902175013
 20
3.72041601079591
 30
0.0
 10
14.71091783480981
 20
3.734616055889958
 30
0.0
 10
14.71150217608901
 20
3.72041679938063
 30
0.0
 10
14.71224896582103
 20
3.706260126446353
 30
0.0
 10
14.71314322089612
 20
3.692141305578744
 30
0.0
  0
SPLINE
  5
C6
330
7B
100
AcDbEntity
  8
Livello 2
 62
    18
420
        0
370
    35
100
AcDbSpline
210
0.0
220
0.0
230
1.0
 70
     9
 71
     3
 72
    11
 73
     7
 74
     0
 42
0.000000001
 43
0.0000000001
 40
0.0
 40
0.0
 40
0.0
 40
0.0
 40
1.0
 40
1.0
 40
1.0
 40
2.0
 40
2.0
 40
2.0
 40
2.0
 10
14.71924923240067
 20
3.617061731340225
 30
0.0
 10
14.71734401171167
 20
3.635617129855437
 30
0.0
 10
14.71572977878515
 20
3.654256906935838
 30
0.0
 10
14.71436158429199
 20
3.67296450230238
 30
0.0
 10
14.71573451029347
 20
3.654258484105277
 30
0.0
 10
14.71733928020328
 20
3.635616341270654
 30
0.0
 10
14.71924923240067
 20
3.617061731340225
 30
0.0
  0
SPLINE
  5
C7
330
7B
100
AcDbEntity
  8
Livello 2
 62
    18
420
        0
370
    35
100
AcDbSpline
210
0.0
220
0.0
230
1.0
 70
     9
 71
     3
 72
    11
 73
     7
 74
     0
 42
0.000000001
 43
0.0000000001
 40
0.0
 40
0.0
 40
0.0
 40
0.0
 40
1.0
 40
1.0
 40
1.0
 40
2.0
 40
2.0
 40
2.0
 40
2.0
 10
14.76106314871462
 20
3.37124962180536
 30
0.0
 10
14.75887561469505
 20
3.380442153912898
 30
0.0
 10
14.75676693914768
 20
3.389664652239973
 30
0.0
 10
14.7547126759461
 20
3.398907653769756
 30
0.0
 10
14.75676851631712
 20
3.389664652239973
 30
0.0
 10
14.75887324894089
 20
3.380442153912898
 30
0.0
 10
14.76106314871462
 20
3.37124962180536
 30
0.0
  0
SPLINE
  5
C8
330
7B
100
AcDbEntity
  8
Livello 2
 62
    18
420
        0
370
    35
100
AcDbSpline
210
0.0
220
0.0
230
1.0
 70
     9
 71
     3
 72
    11
 73
     7
 74
     0
 42
0.000000001
 43
0.0000000001
 40
0.0
 40
0.0
 40
0.0
 40
0.0
 40
1.0
 40
1.0
 40
1.0
 40
2.0
 40
2.0
 40
2.0
 40
2.0
 10
14.72617773777057
 20
3.559281340154317
 30
0.0
 10
14.72447124043161
 20
3.572050103977374
 30
0.0
 10
14.72291930569814
 20
3.584866971468581
 30
0.0
 10
14.72146752122444
 20
3.597713016594477
 30
0.0
 10
14.72292246003708
 20
3.584866971468581
 30
0.0
 10
14.72446808609273
 20
3.572049315392718
 30
0.0
 10
14.72617773777057
 20
3.559281340154317
 30
0.0
  0
SPLINE
  5
C9
330
7B
100
AcDbEntity
  8
Livello 2
 62
    18
420
        0
370
    35
100
AcDbSpline
210
0.0
220
0.0
230
1.0
 70
     9
 71
     3
 72
    11
 73
     7
 74
     0
 42
0.000000001
 43
0.0000000001
 40
0.0
 40
0.0
 40
0.0
 40
0.0
 40
1.0
 40
1.0
 40
1.0
 40
2.0
 40
2.0
 40
2.0
 40
2.0
 10
14.88138225130066
 20
3.021707866486939
 30
0.0
 10
14.87983189373663
 20
3.025097203623338
 30
0.0
 10
14.878257878631
 20
3.028473923404159
 30
0.0
 10
14.87672644710037
 20
3.031873512141848
 30
0.0
 10
14.87825866721572
 20
3.028473923404159
 30
0.0
 10
14.87983110515191
 20
3.025097203623338
 30
0.0
 10
14.88138225130066
 20
3.021707866486939
 30
0.0
  0
SPLINE
  5
CA
330
7B
100
AcDbEntity
  8
Livello 2
 62
    18
420
        0
370
    35
100
AcDbSpline
210
0.0
220
0.0
230
1.0
 70
     9
 71
     3
 72
    29
 73
    25
 74
     0
 42
0.000000001
 43
0.0000000001
 40
0.0
 40
0.0
 40
0.0
 40
0.0
 40
1.0
 40
1.0
 40
1.0
 40
2.0
 40
2.0
 40
2.0
 40
3.0
 40
3.0
 40
3.0
 40
4.0
 40
4.0
 40
4.0
 40
5.0
 40
5.0
 40
5.0
 40
6.0
 40
6.0
 40
6.0
 40
7.0
 40
7.0
 40
7.0
 40
8.0
 40
8.0
 40
8.0
 40
8.0
 10
16.61472774576093
 20
1.906145163550933
 30
0.0
 10
17.41498352192679
 20
1.955934825745995
 30
0.0
 10
18.04865787277432
 20
2.620622636551255
 30
0.0
 10
18.04865787277432
 20
3.433424795648476
 30
0.0
 10
18.04865787277432
 20
4.278637786831343
 30
0.0
 10
17.36347711079128
 20
4.963817760229601
 30
0.0
 10
16.51826411960848
 20
4.963817760229601
 30
0.0
 10
15.6730519170104
 20
4.963817760229601
 30
0.0
 10
14.98787115502735
 20
4.278637786831343
 30
0.0
 10
14.98787115502735
 20
3.433424795648476
 30
0.0
 10
14.98787115502735
 20
2.887838512618105
 30
0.0
 10
15.27347998115667
 20
2.409094247817342
 30
0.0
 10
15.70322711140831
 20
2.138116034040446
 30
0.0
 10
15.77754648997452
 20
2.097310717586244
 30
0.0
 10
15.85487431925615
 20
2.061357562928215
 30
0.0
 10
15.93475874020747
 20
2.030572003955286
 30
0.0
 10
16.16650959555945
 20
1.953412143219438
 30
0.0
 10
16.41147476510253
 20
1.910635364959596
 30
0.0
 10
16.66405529730871
 20
1.904060934129942
 30
0.0
 10
16.66631222678387
 20
1.904112980721627
 30
0.0
 10
16.66857546493678
 20
1.904133483924464
 30
0.0
 10
16.67083002865778
 20
1.904193416363346
 30
0.0
 10
16.65209010131761
 20
1.904661047103665
 30
0.0
 10
16.63338329453578
 20
1.905287183373134
 30
0.0
 10
16.61472774576093
 20
1.906145163550933
 30
0.0
  0
SPLINE
  5
CB
330
7B
100
AcDbEntity
  8
Livello 2
 62
    18
420
        0
370
    35
100
AcDbSpline
210
0.0
220
0.0
230
1.0
 70
     9
 71
     3
 72
    11
 73
     7
 74
     0
 42
0.000000001
 43
0.0000000001
 40
0.0
 40
0.0
 40
0.0
 40
0.0
 40
1.0
 40
1.0
 40
1.0
 40
2.0
 40
2.0
 40
2.0
 40
2.0
 10
14.86118028788543
 20
3.067351150212362
 30
0.0
 10
14.85939414348941
 20
3.071545632350089
 30
0.0
 10
14.85766004568513
 20
3.075767714953195
 30
0.0
 10
14.85590307892392
 20
3.079977180200723
 30
0.0
 10
14.85766162285457
 20
3.075768503537914
 30
0.0
 10
14.85939256631997
 20
3.071544843765434
 30
0.0
 10
14.86118028788543
 20
3.067351150212362
 30
0.0
  0
SPLINE
  5
CC
330
7B
100
AcDbEntity
  8
Livello 2
 62
    18
420
        0
370
    35
100
AcDbSpline
210
0.0
220
0.0
230
1.0
 70
     9
 71
     3
 72
    11
 73
     7
 74
     0
 42
0.000000001
 43
0.0000000001
 40
0.0
 40
0.0
 40
0.0
 40
0.0
 40
1.0
 40
1.0
 40
1.0
 40
2.0
 40
2.0
 40
2.0
 40
2.0
 10
14.81342044276545
 20
3.191421550322178
 30
0.0
 10
14.81122186855973
 20
3.197786217615716
 30
0.0
 10
14.80903827746376
 20
3.204156405002292
 30
0.0
 10
14.80690594437474
 20
3.210551038515239
 30
0.0
 10
14.80904064321791
 20
3.204156405002292
 30
0.0
 10
14.8112202913903
 20
3.197785429030997
 30
0.0
 10
14.81342044276545
 20
3.191421550322178
 30
0.0
  0
SPLINE
  5
CD
330
7B
100
AcDbEntity
  8
Livello 2
 62
    18
420
        0
370
    35
100
AcDbSpline
210
0.0
220
0.0
230
1.0
 70
     9
 71
     3
 72
    11
 73
     7
 74
     0
 42
0.000000001
 43
0.0000000001
 40
0.0
 40
0.0
 40
0.0
 40
0.0
 40
1.0
 40
1.0
 40
1.0
 40
2.0
 40
2.0
 40
2.0
 40
2.0
 10
14.6077851476611
 20
3.242032917797938
 30
0.0
 10
14.61059250927245
 20
3.232172454430536
 30
0.0
 10
14.61361042300457
 20
3.222402678306335
 30
0.0
 10
14.61655894128112
 20
3.212602935962534
 30
0.0
 10
14.61361042300457
 20
3.222403466890991
 30
0.0
 10
14.61059250927245
 20
3.232173243015319
 30
0.0
 10
14.6077851476611
 20
3.242032917797938
 30
0.0
  0
SPLINE
  5
CE
330
7B
100
AcDbEntity
  8
Livello 2
 62
    18
420
        0
370
    35
100
AcDbSpline
210
0.0
220
0.0
230
1.0
 70
     9
 71
     3
 72
    11
 73
     7
 74
     0
 42
0.000000001
 43
0.0000000001
 40
0.0
 40
0.0
 40
0.0
 40
0.0
 40
1.0
 40
1.0
 40
1.0
 40
2.0
 40
2.0
 40
2.0
 40
2.0
 10
14.58703984937221
 20
3.32137794679914
 30
0.0
 10
14.5925496908267
 20
3.298650146518412
 30
0.0
 10
14.59838994927985
 20
3.27605325130165
 30
0.0
 10
14.60463790603451
 20
3.253619593122355
 30
0.0
 10
14.59839073786457
 20
3.276052462716866
 30
0.0
 10
14.5925496908267
 20
3.298650146518412
 30
0.0
 10
14.58703984937221
 20
3.32137794679914
 30
0.0
  0
SPLINE
  5
CF
330
7B
100
AcDbEntity
  8
Livello 2
 62
    18
420
        0
370
    35
100
AcDbSpline
210
0.0
220
0.0
230
1.0
 70
     9
 71
     3
 72
    11
 73
     7
 74
     0
 42
0.000000001
 43
0.0000000001
 40
0.0
 40
0.0
 40
0.0
 40
0.0
 40
1.0
 40
1.0
 40
1.0
 40
2.0
 40
2.0
 40
2.0
 40
2.0
 10
14.67738405807975
 20
3.038648243490919
 30
0.0
 10
14.68120159672029
 20
3.02911583136802
 30
0.0
 10
14.68509089657058
 20
3.019623637066012
 30
0.0
 10
14.68904407178334
 20
3.010160620398694
 30
0.0
 10
14.68508931940108
 20
3.019622059896573
 30
0.0
 10
14.68120238530501
 20
3.029117408537459
 30
0.0
 10
14.67738405807975
 20
3.038648243490919
 30
0.0
  0
SPLINE
  5
D0
330
7B
100
AcDbEntity
  8
Livello 2
 62
    18
420
        0
370
    35
100
AcDbSpline
210
0.0
220
0.0
230
1.0
 70
     9
 71
     3
 72
    11
 73
     7
 74
     0
 42
0.000000001
 43
0.0000000001
 40
0.0
 40
0.0
 40
0.0
 40
0.0
 40
1.0
 40
1.0
 40
1.0
 40
2.0
 40
2.0
 40
2.0
 40
2.0
 10
14.65817571141454
 20
3.088382704755418
 30
0.0
 10
14.66167939333559
 20
3.078941768460377
 30
0.0
 10
14.66528401410115
 20
3.069552878756955
 30
0.0
 10
14.66891938967089
 20
3.060176606409048
 30
0.0
 10
14.66528322551643
 20
3.069552090172236
 30
0.0
 10
14.66167939333559
 20
3.078943345629816
 30
0.0
 10
14.65817571141454
 20
3.088382704755418
 30
0.0
  0
SPLINE
  5
D1
330
7B
100
AcDbEntity
  8
Livello 2
 62
    18
420
        0
370
    35
100
AcDbSpline
210
0.0
220
0.0
230
1.0
 70
     9
 71
     3
 72
    11
 73
     7
 74
     0
 42
0.000000001
 43
0.0000000001
 40
0.0
 40
0.0
 40
0.0
 40
0.0
 40
1.0
 40
1.0
 40
1.0
 40
2.0
 40
2.0
 40
2.0
 40
2.0
 10
14.64013525872308
 20
3.138918368097777
 30
0.0
 10
14.64336687891491
 20
3.129468757370755
 30
0.0
 10
14.6467325585096
 20
3.120083022006213
 30
0.0
 10
14.6500950837654
 20
3.110694920887512
 30
0.0
 10
14.64673176992488
 20
3.120083022006213
 30
0.0
 10
14.64336687891491
 20
3.129469545955475
 30
0.0
 10
14.64013525872308
 20
3.138918368097777
 30
0.0
  0
SPLINE
  5
D2
330
7B
100
AcDbEntity
  8
Livello 2
 62
    18
420
        0
370
    35
100
AcDbSpline
210
0.0
220
0.0
230
1.0
 70
     9
 71
     3
 72
    11
 73
     7
 74
     0
 42
0.000000001
 43
0.0000000001
 40
0.0
 40
0.0
 40
0.0
 40
0.0
 40
1.0
 40
1.0
 40
1.0
 40
2.0
 40
2.0
 40
2.0
 40
2.0
 10
14.62332342102884
 20
3.19015902618182
 30
0.0
 10
14.62631215712627
 20
3.18061715104235
 30
0.0
 10
14.62947122752366
 20
3.171151768620809
 30
0.0
 10
14.63259244585443
 20
3.161669037335436
 30
0.0
 10
14.62947043893893
 20
3.171151768620809
 30
0.0
 10
14.62631215712627
 20
3.18061715104235
 30
0.0
 10
14.62332342102884
 20
3.19015902618182
 30
0.0
  0
SPLINE
  5
D3
330
7B
100
AcDbEntity
  8
Livello 2
 62
    18
420
        0
370
    35
100
AcDbSpline
210
0.0
220
0.0
230
1.0
 70
     9
 71
     3
 72
    11
 73
     7
 74
     0
 42
0.000000001
 43
0.0000000001
 40
0.0
 40
0.0
 40
0.0
 40
0.0
 40
1.0
 40
1.0
 40
1.0
 40
2.0
 40
2.0
 40
2.0
 40
2.0
 10
14.54688353814448
 20
3.535334387893002
 30
0.0
 10
14.54816735407233
 20
3.52573731182284
 30
0.0
 10
14.54950242800708
 20
3.516157584616638
 30
0.0
 10
14.55091636041417
 20
3.506601514952087
 30
0.0
 10
14.54950242800708
 20
3.516156796031918
 30
0.0
 10
14.54816814265704
 20
3.52573731182284
 30
0.0
 10
14.54688353814448
 20
3.535334387893002
 30
0.0
  0
SPLINE
  5
D4
330
7B
100
AcDbEntity
  8
Livello 2
 62
    18
420
        0
370
    35
100
AcDbSpline
210
0.0
220
0.0
230
1.0
 70
     9
 71
     3
 72
    11
 73
     7
 74
     0
 42
0.000000001
 43
0.0000000001
 40
0.0
 40
0.0
 40
0.0
 40
0.0
 40
1.0
 40
1.0
 40
1.0
 40
2.0
 40
2.0
 40
2.0
 40
2.0
 10
14.55492079363384
 20
3.480858955278112
 30
0.0
 10
14.55646878544371
 20
3.471232701573326
 30
0.0
 10
14.55803097177854
 20
3.461611179376857
 30
0.0
 10
14.55971065723697
 20
3.452029086416431
 30
0.0
 10
14.55803097177854
 20
3.461611179376857
 30
0.0
 10
14.55646878544371
 20
3.471233490158045
 30
0.0
 10
14.55492079363384
 20
3.480858955278112
 30
0.0
  0
SPLINE
  5
D5
330
7B
100
AcDbEntity
  8
Livello 2
 62
    18
420
        0
370
    35
100
AcDbSpline
210
0.0
220
0.0
230
1.0
 70
     9
 71
     3
 72
    11
 73
     7
 74
     0
 42
0.000000001
 43
0.0000000001
 40
0.0
 40
0.0
 40
0.0
 40
0.0
 40
1.0
 40
1.0
 40
1.0
 40
2.0
 40
2.0
 40
2.0
 40
2.0
 10
14.56434990115815
 20
3.426844056141129
 30
0.0
 10
14.56616049168048
 20
3.417209916589019
 30
0.0
 10
14.56795057900004
 20
3.407571045528655
 30
0.0
 10
14.56989365175571
 20
3.397984221059976
 30
0.0
 10
14.56794979041532
 20
3.407571045528655
 30
0.0
 10
14.5661612802652
 20
3.417211493758458
 30
0.0
 10
14.56434990115815
 20
3.426844056141129
 30
0.0
  0
SPLINE
  5
D6
330
7B
100
AcDbEntity
  8
Livello 2
 62
    18
420
        0
370
    35
100
AcDbSpline
210
0.0
220
0.0
230
1.0
 70
     9
 71
     3
 72
    11
 73
     7
 74
     0
 42
0.000000001
 43
0.0000000001
 40
0.0
 40
0.0
 40
0.0
 40
0.0
 40
1.0
 40
1.0
 40
1.0
 40
2.0
 40
2.0
 40
2.0
 40
2.0
 10
14.57510856252418
 20
3.373510494204116
 30
0.0
 10
14.57719594628398
 20
3.363814056459029
 30
0.0
 10
14.57922891769801
 20
3.354099481265264
 30
0.0
 10
14.58145036086066
 20
3.344453512942424
 30
0.0
 10
14.57922812911329
 20
3.354098692680609
 30
0.0
 10
14.57719594628398
 20
3.363815633628469
 30
0.0
 10
14.57510856252418
 20
3.373510494204116
 30
0.0
  0
SPLINE
  5
D7
330
7B
100
AcDbEntity
  8
Livello 2
 62
    18
420
        0
370
    35
100
AcDbSpline
210
0.0
220
0.0
230
1.0
 70
     9
 71
     3
 72
    11
 73
     7
 74
     0
 42
0.000000001
 43
0.0000000001
 40
0.0
 40
0.0
 40
0.0
 40
0.0
 40
1.0
 40
1.0
 40
1.0
 40
2.0
 40
2.0
 40
2.0
 40
2.0
 10
18.19924285700128
 20
2.444578194565548
 30
0.0
 10
18.15582022785386
 20
2.394565362894072
 30
0.0
 10
18.11008310254655
 20
2.346612314517216
 30
0.0
 10
18.06217027199052
 20
2.30092092712377
 30
0.0
 10
18.11008231396183
 20
2.346621777533851
 30
0.0
 10
18.15582101643857
 20
2.394558265631596
 30
0.0
 10
18.19924285700128
 20
2.444578194565548
 30
0.0
  0
SPLINE
  5
D8
330
7B
100
AcDbEntity
  8
Livello 2
 62
    18
420
        0
370
    35
100
AcDbSpline
210
0.0
220
0.0
230
1.0
 70
     8
 71
     3
 72
    11
 73
     7
 74
     0
 42
0.000000001
 43
0.0000000001
 40
0.0
 40
0.0
 40
0.0
 40
0.0
 40
1.0
 40
1.0
 40
1.0
 40
2.0
 40
2.0
 40
2.0
 40
2.0
 10
15.87922187255643
 20
1.858173189140742
 30
0.0
 10
16.12769230119007
 20
1.775628083336484
 30
0.0
 10
16.39018140043167
 20
1.729960353484754
 30
0.0
 10
16.6607156410099
 20
1.723135941298157
 30
0.0
 10
17.08380080752769
 20
1.731307256190364
 30
0.0
 10
17.4764663183838
 20
1.865721522102358
 30
0.0
 10
17.80261865083945
 20
2.090210300746893
 30
0.0
  0
SPLINE
  5
D9
330
7B
100
AcDbEntity
  8
Livello 2
 62
    18
420
        0
370
    35
100
AcDbSpline
210
0.0
220
0.0
230
1.0
 70
     8
 71
     3
 72
    17
 73
    13
 74
     0
 42
0.000000001
 43
0.0000000001
 40
0.0
 40
0.0
 40
0.0
 40
0.0
 40
1.0
 40
1.0
 40
1.0
 40
2.0
 40
2.0
 40
2.0
 40
3.0
 40
3.0
 40
3.0
 40
4.0
 40
4.0
 40
4.0
 40
4.0
 10
16.66405529730871
 20
1.904060934129942
 30
0.0
 10
16.64932768903552
 20
1.903724208453587
 30
0.0
 10
16.63457248029703
 20
1.903498673223015
 30
0.0
 10
16.61976522496678
 20
1.903498673223015
 30
0.0
 10
16.37845987711976
 20
1.903498673223015
 30
0.0
 10
16.14751574393867
 20
1.948579696041319
 30
0.0
 10
15.93475874020747
 20
2.030572003955286
 30
0.0
 10
15.62381189836668
 20
2.134098983465138
 30
0.0
 10
15.336659811936
 20
2.299454948125053
 30
0.0
 10
15.08708457610644
 20
2.522695397154182
 30
0.0
 10
14.95763050809752
 20
2.638489600603829
 30
0.0
 10
14.83994843282283
 20
2.768050127550211
 30
0.0
 10
14.73414165488089
 20
2.909619222647336
 30
0.0
  0
SPLINE
  5
DA
330
7B
100
AcDbEntity
  8
Livello 2
 62
    18
420
        0
370
    35
100
AcDbSpline
210
0.0
220
0.0
230
1.0
 70
     9
 71
     3
 72
    14
 73
    10
 74
     0
 42
0.000000001
 43
0.0000000001
 40
0.0
 40
0.0
 40
0.0
 40
0.0
 40
1.0
 40
1.0
 40
1.0
 40
2.0
 40
2.0
 40
2.0
 40
3.0
 40
3.0
 40
3.0
 40
3.0
 10
16.6607156410099
 20
1.723135941298157
 30
0.0
 10
16.39018140043167
 20
1.729960353484754
 30
0.0
 10
16.12769230119007
 20
1.775628083336484
 30
0.0
 10
15.87922187255643
 20
1.858173189140742
 30
0.0
 10
16.10954538956108
 20
1.77067892561948
 30
0.0
 10
16.35913008840734
 20
1.722616263966152
 30
0.0
 10
16.61976522496678
 20
1.722616263966152
 30
0.0
 10
16.63345584433024
 20
1.722616263966152
 30
0.0
 10
16.64708653125482
 20
1.722872554000916
 30
0.0
 10
16.6607156410099
 20
1.723135941298157
 30
0.0
  0
SPLINE
  5
DB
330
7B
100
AcDbEntity
  8
Livello 2
 62
    18
420
        0
370
    35
100
AcDbSpline
210
0.0
220
0.0
230
1.0
 70
     9
 71
     3
 72
    11
 73
     7
 74
     0
 42
0.000000001
 43
0.0000000001
 40
0.0
 40
0.0
 40
0.0
 40
0.0
 40
1.0
 40
1.0
 40
1.0
 40
2.0
 40
2.0
 40
2.0
 40
2.0
 10
14.69765226261168
 20
2.989897935959865
 30
0.0
 10
14.70184753333425
 20
2.980149451623029
 30
0.0
 10
14.70608459904697
 20
2.970426201997413
 30
0.0
 10
14.71042260360424
 20
2.960754210378634
 30
0.0
 10
14.70608302187753
 20
2.970424624827974
 30
0.0
 10
14.70184753333425
 20
2.980150240207749
 30
0.0
 10
14.69765226261168
 20
2.989897935959865
 30
0.0
  0
SPLINE
  5
DC
330
7B
100
AcDbEntity
  8
Livello 2
 62
    18
420
        0
370
    35
100
AcDbSpline
210
0.0
220
0.0
230
1.0
 70
     8
 71
     3
 72
   101
 73
    97
 74
     0
 42
0.000000001
 43
0.0000000001
 40
0.0
 40
0.0
 40
0.0
 40
0.0
 40
1.0
 40
1.0
 40
1.0
 40
2.0
 40
2.0
 40
2.0
 40
3.0
 40
3.0
 40
3.0
 40
4.0
 40
4.0
 40
4.0
 40
5.0
 40
5.0
 40
5.0
 40
6.0
 40
6.0
 40
6.0
 40
7.0
 40
7.0
 40
7.0
 40
8.0
 40
8.0
 40
8.0
 40
9.0
 40
9.0
 40
9.0
 40
10.0
 40
10.0
 40
10.0
 40
11.0
 40
11.0
 40
11.0
 40
12.0
 40
12.0
 40
12.0
 40
13.0
 40
13.0
 40
13.0
 40
14.0
 40
14.0
 40
14.0
 40
15.0
 40
15.0
 40
15.0
 40
16.0
 40
16.0
 40
16.0
 40
17.0
 40
17.0
 40
17.0
 40
18.0
 40
18.0
 40
18.0
 40
19.0
 40
19.0
 40
19.0
 40
20.0
 40
20.0
 40
20.0
 40
21.0
 40
21.0
 40
21.0
 40
22.0
 40
22.0
 40
22.0
 40
23.0
 40
23.0
 40
23.0
 40
24.0
 40
24.0
 40
24.0
 40
25.0
 40
25.0
 40
25.0
 40
26.0
 40
26.0
 40
26.0
 40
27.0
 40
27.0
 40
27.0
 40
28.0
 40
28.0
 40
28.0
 40
29.0
 40
29.0
 40
29.0
 40
30.0
 40
30.0
 40
30.0
 40
31.0
 40
31.0
 40
31.0
 40
32.0
 40
32.0
 40
32.0
 40
32.0
 10
14.73414165488089
 20
2.909619222647336
 30
0.0
 10
14.30779411336693
 20
3.480071159140614
 30
0.0
 10
14.07743116712624
 20
4.248689704833438
 30
0.0
 10
14.07743116712624
 20
5.128236097654752
 30
0.0
 10
14.07743116712624
 20
4.248689704833438
 30
0.0
 10
14.30779411336693
 20
3.480071159140614
 30
0.0
 10
14.73414165488089
 20
2.909619222647336
 30
0.0
 10
14.72891176100275
 20
2.920478034273136
 30
0.0
 10
14.72385929868709
 20
2.93143620757386
 30
0.0
 10
14.71881314504926
 20
2.942397535213527
 30
0.0
 10
14.72198640997172
 20
2.935501361817191
 30
0.0
 10
14.72503665567748
 20
2.928537370134777
 30
0.0
 10
14.72828247039434
 20
2.921681414559268
 30
0.0
 10
14.30754965210309
 20
3.490915776241333
 30
0.0
 10
14.08032685022644
 20
4.254986553840836
 30
0.0
 10
14.08032685022644
 20
5.128482924672816
 30
0.0
 10
14.08032685022644
 20
6.765313534973702
 30
0.0
 10
15.41198148168414
 20
8.096968166431464
 30
0.0
 10
17.04880578330724
 20
8.096968166431464
 30
0.0
 10
18.6856300849304
 20
8.096968166431464
 30
0.0
 10
20.01729102506592
 20
6.765313534973702
 30
0.0
 10
20.01729102506592
 20
5.128482924672816
 30
0.0
 10
20.01729102506592
 20
3.930621942950584
 30
0.0
 10
19.24637612066183
 20
2.581974887897158
 30
0.0
 10
17.80175041906023
 20
2.089140979863475
 30
0.0
 10
17.80246881974221
 20
2.089634633899605
 30
0.0
 10
17.80316356288248
 20
2.090159042739927
 30
0.0
 10
17.80388117497974
 20
2.09065348536084
 30
0.0
 10
17.80345849356863
 20
2.090508385771859
 30
0.0
 10
17.80304212083528
 20
2.090355400335746
 30
0.0
 10
17.80261865083945
 20
2.090210300746893
 30
0.0
 10
17.4764663183838
 20
1.865721522102358
 30
0.0
 10
17.08380080752769
 20
1.731307256190364
 30
0.0
 10
16.6607156410099
 20
1.723135941298157
 30
0.0
 10
16.66340077198927
 20
1.723068123012015
 30
0.0
 10
16.66607091985891
 20
1.722932486439797
 30
0.0
 10
16.66875762800765
 20
1.722872554000916
 30
0.0
 10
16.67196243631902
 20
1.722949046718973
 30
0.0
 10
16.67519090217198
 20
1.722926177762041
 30
0.0
 10
16.67839255614441
 20
1.723014499250891
 30
0.0
 10
16.69723184515964
 20
1.722638344338365
 30
0.0
 10
16.71609873464005
 20
1.722396248828617
 30
0.0
 10
16.73501215061917
 20
1.722396248828617
 30
0.0
 10
16.81475147198158
 20
1.722396248828617
 30
0.0
 10
16.89516818762043
 20
1.725763505592739
 30
0.0
 10
16.97605647692312
 20
1.732514579400159
 30
0.0
 10
17.00264124508057
 20
1.734759680104523
 30
0.0
 10
17.02927411690597
 20
1.737349392332437
 30
0.0
 10
17.05595351522996
 20
1.740331031167397
 30
0.0
 10
17.51819033603946
 20
1.791973867459778
 30
0.0
 10
17.95468775151374
 20
1.925579045446716
 30
0.0
 10
18.35334571767432
 20
2.137424445238993
 30
0.0
 10
17.95468775151374
 20
1.925579045446716
 30
0.0
 10
17.51819033603946
 20
1.791973867459778
 30
0.0
 10
17.05595351522996
 20
1.740331031167397
 30
0.0
 10
17.02927411690597
 20
1.737349392332437
 30
0.0
 10
17.00264124508057
 20
1.734759680104523
 30
0.0
 10
16.97605647692312
 20
1.732514579400159
 30
0.0
 10
17.00360252985695
 20
1.734813303865583
 30
0.0
 10
17.03120062938253
 20
1.737488183243597
 30
0.0
 10
17.05884919833016
 20
1.740577858185462
 30
0.0
 10
17.5210860191396
 20
1.792220694477842
 30
0.0
 10
17.95758343461395
 20
1.925825872464781
 30
0.0
 10
18.35624140077453
 20
2.137671272257058
 30
0.0
 10
18.73192316246694
 20
2.33730307187073
 30
0.0
 10
19.06488255824523
 20
2.601043655066554
 30
0.0
 10
19.3458710664867
 20
2.921537103555134
 30
0.0
 10
19.6173713233497
 20
3.231230095687421
 30
0.0
 10
19.82954477438642
 20
3.581071513200248
 30
0.0
 10
19.9764864971965
 20
3.961345992315194
 30
0.0
 10
20.12359224562878
 20
4.342030535485672
 30
0.0
 10
20.19817343432278
 20
4.734714183790324
 30
0.0
 10
20.19817343432278
 20
5.128482924672816
 30
0.0
 10
20.19817343432278
 20
5.969707254330377
 30
0.0
 10
19.87057641465591
 20
6.760582026640043
 30
0.0
 10
19.27574380430413
 20
7.355420945669642
 30
0.0
 10
18.68091119395229
 20
7.950259864699209
 30
0.0
 10
17.8900301129649
 20
8.277850575688296
 30
0.0
 10
17.04880578330724
 20
8.277850575688296
 30
0.0
 10
16.20758145364971
 20
8.277850575688296
 30
0.0
 10
15.41670668134007
 20
7.950259864699209
 30
0.0
 10
14.82187407098823
 20
7.355420945669642
 30
0.0
 10
14.22703515195864
 20
6.760582026640043
 30
0.0
 10
13.89944444096958
 20
5.969707254330377
 30
0.0
 10
13.89944444096958
 20
5.128482924672816
 30
0.0
 10
13.89944444096958
 20
3.978499287194168
 30
0.0
 10
14.27942241222887
 20
3.005284801060869
 30
0.0
 10
14.9693898834761
 20
2.388125780051981
 30
0.0
 10
15.22850147435223
 20
2.156352844327789
 30
0.0
 10
15.52498015229329
 20
1.982550348707568
 30
0.0
 10
15.84560608301521
 20
1.870737709520719
 30
0.0
 10
15.85387202807416
 20
1.867431962364982
 30
0.0
 10
15.86222708320667
 20
1.864303646771729
 30
0.0
 10
15.87054428627251
 20
1.861101204214514
 30
0.0
 10
15.87343760361856
 20
1.860128879251926
 30
0.0
 10
15.87632382370206
 20
1.85913605108663
 30
0.0
 10
15.87922187255643
 20
1.858173189140742
 30
0.0
  0
SPLINE
  5
DD
330
7B
100
AcDbEntity
  8
Livello 2
 62
    18
420
        0
370
    35
100
AcDbSpline
210
0.0
220
0.0
230
1.0
 70
     9
 71
     3
 72
    23
 73
    19
 74
     0
 42
0.000000001
 43
0.0000000001
 40
0.0
 40
0.0
 40
0.0
 40
0.0
 40
1.0
 40
1.0
 40
1.0
 40
2.0
 40
2.0
 40
2.0
 40
3.0
 40
3.0
 40
3.0
 40
4.0
 40
4.0
 40
4.0
 40
5.0
 40
5.0
 40
5.0
 40
6.0
 40
6.0
 40
6.0
 40
6.0
 10
16.61976522496678
 20
1.722616263966152
 30
0.0
 10
16.35913008840734
 20
1.722616263966152
 30
0.0
 10
16.10954538956108
 20
1.77067892561948
 30
0.0
 10
15.87922187255643
 20
1.858173189140742
 30
0.0
 10
15.87632382370206
 20
1.85913605108663
 30
0.0
 10
15.87343760361856
 20
1.860128879251926
 30
0.0
 10
15.87054428627251
 20
1.861101204214514
 30
0.0
 10
16.10327692960371
 20
1.771488013544536
 30
0.0
 10
16.355840112946
 20
1.722149421810553
 30
0.0
 10
16.61976522496678
 20
1.722149421810553
 30
0.0
 10
16.63615280408047
 20
1.722149421810553
 30
0.0
 10
16.65246231330653
 20
1.722482204563373
 30
0.0
 10
16.66875762800765
 20
1.722872554000916
 30
0.0
 10
16.66607091985891
 20
1.722932486439797
 30
0.0
 10
16.66340077198927
 20
1.723068123012015
 30
0.0
 10
16.6607156410099
 20
1.723135941298157
 30
0.0
 10
16.64708653125482
 20
1.722872554000916
 30
0.0
 10
16.63345584433024
 20
1.722616263966152
 30
0.0
 10
16.61976522496678
 20
1.722616263966152
 30
0.0
  0
SPLINE
  5
DE
330
7B
100
AcDbEntity
  8
Livello 2
 62
    18
420
        0
370
    35
100
AcDbSpline
210
0.0
220
0.0
230
1.0
 70
     9
 71
     3
 72
    14
 73
    10
 74
     0
 42
0.000000001
 43
0.0000000001
 40
0.0
 40
0.0
 40
0.0
 40
0.0
 40
1.0
 40
1.0
 40
1.0
 40
2.0
 40
2.0
 40
2.0
 40
3.0
 40
3.0
 40
3.0
 40
3.0
 10
14.5283163108584
 20
3.809321840970045
 30
0.0
 10
14.52831236793481
 20
3.810849329577082
 30
0.0
 10
14.52825874417374
 20
3.812364200828606
 30
0.0
 10
14.52825874417374
 20
3.813892478020363
 30
0.0
 10
14.52825874417374
 20
3.813814408132867
 30
0.0
 10
14.52825558983487
 20
3.813737126830091
 30
0.0
 10
14.52825558983487
 20
3.813659056942595
 30
0.0
 10
14.52825558983487
 20
3.812208849638334
 30
0.0
 10
14.52831315651953
 20
3.810772048274306
 30
0.0
 10
14.5283163108584
 20
3.809321840970045
 30
0.0
  0
SPLINE
  5
DF
330
7B
100
AcDbEntity
  8
Livello 2
 62
    18
420
        0
370
    35
100
AcDbSpline
210
0.0
220
0.0
230
1.0
 70
     8
 71
     3
 72
   383
 73
   379
 74
     0
 42
0.000000001
 43
0.0000000001
 40
0.0
 40
0.0
 40
0.0
 40
0.0
 40
1.0
 40
1.0
 40
1.0
 40
2.0
 40
2.0
 40
2.0
 40
3.0
 40
3.0
 40
3.0
 40
4.0
 40
4.0
 40
4.0
 40
5.0
 40
5.0
 40
5.0
 40
6.0
 40
6.0
 40
6.0
 40
7.0
 40
7.0
 40
7.0
 40
8.0
 40
8.0
 40
8.0
 40
9.0
 40
9.0
 40
9.0
 40
10.0
 40
10.0
 40
10.0
 40
11.0
 40
11.0
 40
11.0
 40
12.0
 40
12.0
 40
12.0
 40
13.0
 40
13.0
 40
13.0
 40
14.0
 40
14.0
 40
14.0
 40
15.0
 40
15.0
 40
15.0
 40
16.0
 40
16.0
 40
16.0
 40
17.0
 40
17.0
 40
17.0
 40
18.0
 40
18.0
 40
18.0
 40
19.0
 40
19.0
 40
19.0
 40
20.0
 40
20.0
 40
20.0
 40
21.0
 40
21.0
 40
21.0
 40
22.0
 40
22.0
 40
22.0
 40
23.0
 40
23.0
 40
23.0
 40
24.0
 40
24.0
 40
24.0
 40
25.0
 40
25.0
 40
25.0
 40
26.0
 40
26.0
 40
26.0
 40
27.0
 40
27.0
 40
27.0
 40
28.0
 40
28.0
 40
28.0
 40
29.0
 40
29.0
 40
29.0
 40
30.0
 40
30.0
 40
30.0
 40
31.0
 40
31.0
 40
31.0
 40
32.0
 40
32.0
 40
32.0
 40
33.0
 40
33.0
 40
33.0
 40
34.0
 40
34.0
 40
34.0
 40
35.0
 40
35.0
 40
35.0
 40
36.0
 40
36.0
 40
36.0
 40
37.0
 40
37.0
 40
37.0
 40
38.0
 40
38.0
 40
38.0
 40
39.0
 40
39.0
 40
39.0
 40
40.0
 40
40.0
 40
40.0
 40
41.0
 40
41.0
 40
41.0
 40
42.0
 40
42.0
 40
42.0
 40
43.0
 40
43.0
 40
43.0
 40
44.0
 40
44.0
 40
44.0
 40
45.0
 40
45.0
 40
45.0
 40
46.0
 40
46.0
 40
46.0
 40
47.0
 40
47.0
 40
47.0
 40
48.0
 40
48.0
 40
48.0
 40
49.0
 40
49.0
 40
49.0
 40
50.0
 40
50.0
 40
50.0
 40
51.0
 40
51.0
 40
51.0
 40
52.0
 40
52.0
 40
52.0
 40
53.0
 40
53.0
 40
53.0
 40
54.0
 40
54.0
 40
54.0
 40
55.0
 40
55.0
 40
55.0
 40
56.0
 40
56.0
 40
56.0
 40
57.0
 40
57.0
 40
57.0
 40
58.0
 40
58.0
 40
58.0
 40
59.0
 40
59.0
 40
59.0
 40
60.0
 40
60.0
 40
60.0
 40
61.0
 40
61.0
 40
61.0
 40
62.0
 40
62.0
 40
62.0
 40
63.0
 40
63.0
 40
63.0
 40
64.0
 40
64.0
 40
64.0
 40
65.0
 40
65.0
 40
65.0
 40
66.0
 40
66.0
 40
66.0
 40
67.0
 40
67.0
 40
67.0
 40
68.0
 40
68.0
 40
68.0
 40
69.0
 40
69.0
 40
69.0
 40
70.0
 40
70.0
 40
70.0
 40
71.0
 40
71.0
 40
71.0
 40
72.0
 40
72.0
 40
72.0
 40
73.0
 40
73.0
 40
73.0
 40
74.0
 40
74.0
 40
74.0
 40
75.0
 40
75.0
 40
75.0
 40
76.0
 40
76.0
 40
76.0
 40
77.0
 40
77.0
 40
77.0
 40
78.0
 40
78.0
 40
78.0
 40
79.0
 40
79.0
 40
79.0
 40
80.0
 40
80.0
 40
80.0
 40
81.0
 40
81.0
 40
81.0
 40
82.0
 40
82.0
 40
82.0
 40
83.0
 40
83.0
 40
83.0
 40
84.0
 40
84.0
 40
84.0
 40
85.0
 40
85.0
 40
85.0
 40
86.0
 40
86.0
 40
86.0
 40
87.0
 40
87.0
 40
87.0
 40
88.0
 40
88.0
 40
88.0
 40
89.0
 40
89.0
 40
89.0
 40
90.0
 40
90.0
 40
90.0
 40
91.0
 40
91.0
 40
91.0
 40
92.0
 40
92.0
 40
92.0
 40
93.0
 40
93.0
 40
93.0
 40
94.0
 40
94.0
 40
94.0
 40
95.0
 40
95.0
 40
95.0
 40
96.0
 40
96.0
 40
96.0
 40
97.0
 40
97.0
 40
97.0
 40
98.0
 40
98.0
 40
98.0
 40
99.0
 40
99.0
 40
99.0
 40
100.0
 40
100.0
 40
100.0
 40
101.0
 40
101.0
 40
101.0
 40
102.0
 40
102.0
 40
102.0
 40
103.0
 40
103.0
 40
103.0
 40
104.0
 40
104.0
 40
104.0
 40
105.0
 40
105.0
 40
105.0
 40
106.0
 40
106.0
 40
106.0
 40
107.0
 40
107.0
 40
107.0
 40
108.0
 40
108.0
 40
108.0
 40
109.0
 40
109.0
 40
109.0
 40
110.0
 40
110.0
 40
110.0
 40
111.0
 40
111.0
 40
111.0
 40
112.0
 40
112.0
 40
112.0
 40
113.0
 40
113.0
 40
113.0
 40
114.0
 40
114.0
 40
114.0
 40
115.0
 40
115.0
 40
115.0
 40
116.0
 40
116.0
 40
116.0
 40
117.0
 40
117.0
 40
117.0
 40
118.0
 40
118.0
 40
118.0
 40
119.0
 40
119.0
 40
119.0
 40
120.0
 40
120.0
 40
120.0
 40
121.0
 40
121.0
 40
121.0
 40
122.0
 40
122.0
 40
122.0
 40
123.0
 40
123.0
 40
123.0
 40
124.0
 40
124.0
 40
124.0
 40
125.0
 40
125.0
 40
125.0
 40
126.0
 40
126.0
 40
126.0
 40
126.0
 10
17.80261865083945
 20
2.090210300746893
 30
0.0
 10
17.88075714521557
 20
2.143992567390827
 30
0.0
 10
17.955155382254
 20
2.202836759367051
 30
0.0
 10
18.02515489371154
 20
2.266459774760333
 30
0.0
 10
18.02524242661581
 20
2.266539421817268
 30
0.0
 10
18.02533074810465
 20
2.266618280289484
 30
0.0
 10
18.02541828100879
 20
2.266697927346419
 30
0.0
 10
18.03774938031106
 20
2.277909236343029
 30
0.0
 10
18.04994563162577
 20
2.289265644928557
 30
0.0
 10
18.06200624636833
 20
2.300763998764059
 30
0.0
 10
18.06206144729883
 20
2.300816045355744
 30
0.0
 10
18.06211585964467
 20
2.300868880532149
 30
0.0
 10
18.06217027199052
 20
2.30092092712377
 30
0.0
 10
18.11008310254655
 20
2.346612314517216
 30
0.0
 10
18.15582022785386
 20
2.394565362894072
 30
0.0
 10
18.19924285700128
 20
2.444578194565548
 30
0.0
 10
18.19995652617495
 20
2.445399899846181
 30
0.0
 10
18.20067729261109
 20
2.446215296448993
 30
0.0
 10
18.20138938461532
 20
2.447038578899065
 30
0.0
 10
18.21164650609795
 20
2.458889430105442
 30
0.0
 10
18.22176562525422
 20
2.470863300528459
 30
0.0
 10
18.23175935943968
 20
2.482943629889006
 30
0.0
 10
18.23284129767854
 20
2.484251891943228
 30
0.0
 10
18.2339137729009
 20
2.485567251260055
 30
0.0
 10
18.23499255680095
 20
2.486877879068436
 30
0.0
 10
18.27604470027322
 20
2.536747976905218
 30
0.0
 10
18.31482571974531
 20
2.588550107311532
 30
0.0
 10
18.35119997864501
 20
2.64211551315681
 30
0.0
 10
18.35235131233952
 20
2.64381175889448
 30
0.0
 10
18.35351920631321
 20
2.645495387276509
 30
0.0
 10
18.35466580849947
 20
2.647193998768339
 30
0.0
 10
18.36292071337221
 20
2.659426524980279
 30
0.0
 10
18.37102973007137
 20
2.671763144375526
 30
0.0
 10
18.37903071066358
 20
2.684176256488893
 30
0.0
 10
18.38072616781646
 20
2.686807763707138
 30
0.0
 10
18.3824074304444
 20
2.689447945357362
 30
0.0
 10
18.38409105882649
 20
2.692087338422803
 30
0.0
 10
18.39211175403668
 20
2.704655013141723
 30
0.0
 10
18.40004412775808
 20
2.717284986053682
 30
0.0
 10
18.4078014356711
 20
2.730032458089246
 30
0.0
 10
18.40819888237112
 20
2.730685406239309
 30
0.0
 10
18.40858134596146
 20
2.731346240236569
 30
0.0
 10
18.40897800407676
 20
2.731999188386633
 30
0.0
 10
18.43364808852844
 20
2.772638902049143
 30
0.0
 10
18.4569302638689
 20
2.814206779929753
 30
0.0
 10
18.47884818763991
 20
2.856590054413173
 30
0.0
 10
18.4803330926719
 20
2.859462079971726
 30
0.0
 10
18.48184796392336
 20
2.862315179496945
 30
0.0
 10
18.48331946301518
 20
2.865194302317974
 30
0.0
 10
18.48957688278647
 20
2.877433925792391
 30
0.0
 10
18.49568289429102
 20
2.889762659340442
 30
0.0
 10
18.50170531581504
 20
2.902139496556644
 30
0.0
 10
18.50374459590682
 20
2.906332401524933
 30
0.0
 10
18.50576810430421
 20
2.91053476950992
 30
0.0
 10
18.50778057251546
 20
2.914743446172729
 30
0.0
 10
18.51363896841723
 20
2.926993321248565
 30
0.0
 10
18.51942008301628
 20
2.939286568484106
 30
0.0
 10
18.52504584642494
 20
2.951665771454402
 30
0.0
 10
18.52663563322508
 20
2.955163933282425
 30
0.0
 10
18.528166276171
 20
2.958693638499359
 30
0.0
 10
18.52973634835309
 20
2.962201263344017
 30
0.0
 10
18.54776260651959
 20
3.002456936246805
 30
0.0
 10
18.56453107205406
 20
3.043389214841246
 30
0.0
 10
18.58003622486345
 20
3.084935800934361
 30
0.0
 10
18.58180502039552
 20
3.089677560869407
 30
0.0
 10
18.58362113101095
 20
3.094396451847521
 30
0.0
 10
18.58535680598467
 20
3.099153983477023
 30
0.0
 10
18.58962147216269
 20
3.110842386230588
 30
0.0
 10
18.59373078715051
 20
3.12260412736333
 30
0.0
 10
18.59779120988546
 20
3.13438794886835
 30
0.0
 10
18.59991960005094
 20
3.14056651016736
 30
0.0
 10
18.60202748701358
 20
3.14675374589835
 30
0.0
 10
18.604099099079
 20
3.15295833049317
 30
0.0
 10
18.60793004365984
 20
3.164426718109264
 30
0.0
 10
18.61169316995454
 20
3.175926649114206
 30
0.0
 10
18.61533012269366
 20
3.187481781049711
 30
0.0
 10
18.61733785939659
 20
3.193863008622361
 30
0.0
 10
18.61925569744117
 20
3.200282088261743
 30
0.0
 10
18.62120350170516
 20
3.206690127714923
 30
0.0
 10
18.62476632748039
 20
3.218406919518457
 30
0.0
 10
18.62834492495006
 20
3.230117402644298
 30
0.0
 10
18.63170666162115
 20
3.241920150182652
 30
0.0
 10
18.63236355269481
 20
3.244228337664711
 30
0.0
 10
18.63295183689761
 20
3.246566491366243
 30
0.0
 10
18.63360084212407
 20
3.248877833187245
 30
0.0
 10
18.64054748494259
 20
3.273593655552788
 30
0.0
 10
18.64697760476799
 20
3.298520818624015
 30
0.0
 10
18.6530268381726
 20
3.32359465845347
 30
0.0
 10
18.65491155565883
 20
3.33140953305127
 30
0.0
 10
18.65684595398265
 20
3.339203904446232
 30
0.0
 10
18.65864156139518
 20
3.347052688187038
 30
0.0
 10
18.66103570461206
 20
3.357509321604372
 30
0.0
 10
18.66327607380804
 20
3.368022733121838
 30
0.0
 10
18.66551250008042
 20
3.378537721808615
 30
0.0
 10
18.66735621116111
 20
3.38721451950781
 30
0.0
 10
18.66916916743759
 20
3.395903934562583
 30
0.0
 10
18.67090484241131
 20
3.404620161497951
 30
0.0
 10
18.67293544807118
 20
3.414805521770849
 30
0.0
 10
18.67490769846166
 20
3.425010596661802
 30
0.0
 10
18.67678847302423
 20
3.435248003526385
 30
0.0
 10
18.67853045667577
 20
3.444736254904795
 30
0.0
 10
18.68015651837308
 20
3.454263935519377
 30
0.0
 10
18.68176917413015
 20
3.463796347642276
 30
0.0
 10
18.68340154450521
 20
3.47343443011792
 30
0.0
 10
18.68507807562483
 20
3.483056740899109
 30
0.0
 10
18.68657796376662
 20
3.492738984119242
 30
0.0
 10
18.68868506214454
 20
3.50635941944234
 30
0.0
 10
18.69057687689324
 20
3.520049250221146
 30
0.0
 10
18.69241901080449
 20
3.53375485269428
 30
0.0
 10
18.69396542544486
 20
3.545242166343644
 30
0.0
 10
18.69539118662275
 20
3.556764177720798
 30
0.0
 10
18.6967491295145
 20
3.568309058054949
 30
0.0
 10
18.698249806241
 20
3.581091227818302
 30
0.0
 10
18.69972840259524
 20
3.593881283428915
 30
0.0
 10
18.70099723541342
 20
3.606732060063129
 30
0.0
 10
18.70183155804956
 20
3.615162819328979
 30
0.0
 10
18.70252314685101
 20
3.623633007831001
 30
0.0
 10
18.70325653064273
 20
3.632091367562101
 30
0.0
 10
18.70428011361222
 20
3.6439296014129
 30
0.0
 10
18.70523903263451
 20
3.655785184127595
 30
0.0
 10
18.70606389225402
 20
3.667679407493678
 30
0.0
 10
18.70664429060963
 20
3.676034462626191
 30
0.0
 10
18.70717737388186
 20
3.684401346529562
 30
0.0
 10
18.7076591991472
 20
3.692782424957886
 30
0.0
 10
18.70839337152364
 20
3.70560560112685
 30
0.0
 10
18.70898165572644
 20
3.718466629362482
 30
0.0
 10
18.70948319560977
 20
3.731349737970264
 30
0.0
 10
18.70976787469456
 20
3.738641780897181
 30
0.0
 10
18.71010775470986
 20
3.745919629299016
 30
0.0
 10
18.71031751824597
 20
3.753231386843987
 30
0.0
 10
18.71087189330571
 20
3.772665268739706
 30
0.0
 10
18.71121965916826
 20
3.792148831473017
 30
0.0
 10
18.71123779661688
 20
3.811709675509039
 30
0.0
 10
18.7112385852016
 20
3.812439116377223
 30
0.0
 10
18.71126539708219
 20
3.813163037152307
 30
0.0
 10
18.71126539708219
 20
3.813892478020363
 30
0.0
 10
18.7111376463571
 20
4.967043860328468
 30
0.0
 10
17.77295130500268
 20
5.905162383396785
 30
0.0
 10
16.61976522496678
 20
5.905162383396785
 30
0.0
 10
15.46657914493095
 20
5.905162383396785
 30
0.0
 10
14.5283864948987
 20
4.967043860328468
 30
0.0
 10
14.52825874417374
 20
3.813892478020363
 30
0.0
 10
14.52825874417374
 20
3.812364200828606
 30
0.0
 10
14.52831236793481
 20
3.810849329577082
 30
0.0
 10
14.5283163108584
 20
3.809321840970045
 30
0.0
 10
14.52835179717092
 20
3.791978497173008
 30
0.0
 10
14.52858916117234
 20
3.774680891289901
 30
0.0
 10
14.52904654031131
 20
3.757437697752637
 30
0.0
 10
14.5292539380932
 20
3.749688275686756
 30
0.0
 10
14.52963876743771
 20
3.741983802950211
 30
0.0
 10
14.52993054378492
 20
3.734254884087103
 30
0.0
 10
14.53034297359467
 20
3.723278573337764
 30
0.0
 10
14.53073726595581
 20
3.712296742495324
 30
0.0
 10
14.53131924148086
 20
3.70136380390569
 30
0.0
 10
14.53179475806844
 20
3.692466991069024
 30
0.0
 10
14.53242483726151
 20
3.683611184637841
 30
0.0
 10
14.53301154429487
 20
3.674743549435864
 30
0.0
 10
14.53365345225879
 20
3.665015568301801
 30
0.0
 10
14.53428905154496
 20
3.655285221413708
 30
0.0
 10
14.53506501891166
 20
3.645592726592156
 30
0.0
 10
14.53581023147418
 20
3.636286638284548
 30
0.0
 10
14.53667846325346
 20
3.627014459120076
 30
0.0
 10
14.53754590644796
 20
3.617743068540258
 30
0.0
 10
14.53840309804103
 20
3.608571039635494
 30
0.0
 10
14.53928079283695
 20
3.599404530823766
 30
0.0
 10
14.5402570607232
 20
3.590267199646728
 30
0.0
 10
14.54127354643021
 20
3.580762387989143
 30
0.0
 10
14.54237598787192
 20
3.571282811042649
 30
0.0
 10
14.54351943571917
 20
3.561815851451732
 30
0.0
 10
14.54458717943321
 20
3.552971873791407
 30
0.0
 10
14.54570539256931
 20
3.544144456410257
 30
0.0
 10
14.54688353814448
 20
3.535334387893002
 30
0.0
 10
14.54816814265704
 20
3.52573731182284
 30
0.0
 10
14.54950242800708
 20
3.516156796031918
 30
0.0
 10
14.55091636041417
 20
3.506601514952087
 30
0.0
 10
14.55218913615595
 20
3.498000421386229
 30
0.0
 10
14.5535431361241
 20
3.489426139700964
 30
0.0
 10
14.55492079363384
 20
3.480858955278112
 30
0.0
 10
14.55646878544371
 20
3.471233490158045
 30
0.0
 10
14.55803097177854
 20
3.461611179376857
 30
0.0
 10
14.55971065723697
 20
3.452029086416431
 30
0.0
 10
14.56118609925239
 20
3.44360936733672
 30
0.0
 10
14.56277352029831
 20
3.435228288908396
 30
0.0
 10
14.56434990115815
 20
3.426844056141129
 30
0.0
 10
14.5661612802652
 20
3.417211493758458
 30
0.0
 10
14.56794979041532
 20
3.407571045528655
 30
0.0
 10
14.56989365175571
 20
3.397984221059976
 30
0.0
 10
14.57155283401137
 20
3.389797134473248
 30
0.0
 10
14.57335317293235
 20
3.38166209447827
 30
0.0
 10
14.57510856252418
 20
3.373510494204116
 30
0.0
 10
14.57719594628398
 20
3.363815633628469
 30
0.0
 10
14.57922812911329
 20
3.354098692680609
 30
0.0
 10
14.58145036086066
 20
3.344453512942424
 30
0.0
 10
14.58322940799414
 20
3.336729325587698
 30
0.0
 10
14.58517563508869
 20
3.329069802180234
 30
0.0
 10
14.58703984937221
 20
3.32137794679914
 30
0.0
 10
14.5925496908267
 20
3.298650146518412
 30
0.0
 10
14.59839073786457
 20
3.276052462716866
 30
0.0
 10
14.60463790603451
 20
3.253619593122355
 30
0.0
 10
14.6057103812568
 20
3.249767356754019
 30
0.0
 10
14.60669059206659
 20
3.245875691149575
 30
0.0
 10
14.6077851476611
 20
3.242032917797938
 30
0.0
 10
14.61059250927245
 20
3.232173243015319
 30
0.0
 10
14.61361042300457
 20
3.222403466890991
 30
0.0
 10
14.61655894128112
 20
3.212602935962534
 30
0.0
 10
14.61881035066324
 20
3.20511926694818
 30
0.0
 10
14.62099078742034
 20
3.197607208883729
 30
0.0
 10
14.62332342102884
 20
3.19015902618182
 30
0.0
 10
14.62631215712627
 20
3.18061715104235
 30
0.0
 10
14.62947043893893
 20
3.171151768620809
 30
0.0
 10
14.63259244585443
 20
3.161669037335436
 30
0.0
 10
14.6350914708394
 20
3.154078120798834
 30
0.0
 10
14.63755264375757
 20
3.146471432567775
 30
0.0
 10
14.64013525872308
 20
3.138918368097777
 30
0.0
 10
14.64336687891491
 20
3.129469545955475
 30
0.0
 10
14.64673176992488
 20
3.120083022006213
 30
0.0
 10
14.6500950837654
 20
3.110694920887512
 30
0.0
 10
14.65276365446553
 20
3.103245161016164
 30
0.0
 10
14.65542591648797
 20
3.095793035390658
 30
0.0
 10
14.65817571141454
 20
3.088382704755418
 30
0.0
 10
14.66167939333559
 20
3.078943345629816
 30
0.0
 10
14.66528322551643
 20
3.069552090172236
 30
0.0
 10
14.66891938967089
 20
3.060176606409048
 30
0.0
 10
14.67170782524885
 20
3.052983925157184
 30
0.0
 10
14.67451834119902
 20
3.045802284091459
 30
0.0
 10
14.67738405807975
 20
3.038648243490919
 30
0.0
 10
14.68120238530501
 20
3.029117408537459
 30
0.0
 10
14.68508931940108
 20
3.019622059896573
 30
0.0
 10
14.68904407178334
 20
3.010160620398694
 30
0.0
 10
14.69187509093635
 20
3.003385889049623
 30
0.0
 10
14.69475263658788
 20
2.996636392411643
 30
0.0
 10
14.69765226261168
 20
2.989897935959865
 30
0.0
 10
14.70184753333425
 20
2.980150240207749
 30
0.0
 10
14.70608302187753
 20
2.970424624827974
 30
0.0
 10
14.71042260360424
 20
2.960754210378634
 30
0.0
 10
14.71317791862391
 20
2.954612712561573
 30
0.0
 10
14.71600105192965
 20
2.948508278226396
 30
0.0
 10
14.71881314504926
 20
2.942397535213527
 30
0.0
 10
14.72385929868709
 20
2.93143620757386
 30
0.0
 10
14.72891176100275
 20
2.920478034273136
 30
0.0
 10
14.73414165488089
 20
2.909619222647336
 30
0.0
 10
14.83994843282283
 20
2.768050127550211
 30
0.0
 10
14.95763050809752
 20
2.638489600603829
 30
0.0
 10
15.08708457610644
 20
2.522695397154182
 30
0.0
 10
15.336659811936
 20
2.299454948125053
 30
0.0
 10
15.62381189836668
 20
2.134098983465138
 30
0.0
 10
15.93475874020747
 20
2.030572003955286
 30
0.0
 10
15.85487431925615
 20
2.061357562928215
 30
0.0
 10
15.77754648997452
 20
2.097310717586244
 30
0.0
 10
15.70322711140831
 20
2.138116034040446
 30
0.0
 10
15.70503139325289
 20
2.136978106286167
 30
0.0
 10
15.70678836001403
 20
2.135773937415252
 30
0.0
 10
15.70859816195171
 20
2.134643106923514
 30
0.0
 10
15.4384534822263
 20
2.281833233921104
 30
0.0
 10
15.20776248474104
 20
2.492477619181344
 30
0.0
 10
15.03617275785155
 20
2.746207119327876
 30
0.0
 10
15.03600242355148
 20
2.746459466439042
 30
0.0
 10
15.03583130066681
 20
2.74671102496536
 30
0.0
 10
15.03566017778202
 20
2.746963372076526
 30
0.0
 10
15.00198051287833
 20
2.796816909634132
 30
0.0
 10
14.9705972066859
 20
2.848317800676538
 30
0.0
 10
14.94164747294646
 20
2.901354066173241
 30
0.0
 10
14.94044014973666
 20
2.90356525773447
 30
0.0
 10
14.93924702105182
 20
2.905785123727678
 30
0.0
 10
14.93804758368922
 20
2.908001835382009
 30
0.0
 10
14.9179418276101
 20
2.945185970791484
 30
0.0
 10
14.89904181757134
 20
2.983099547069078
 30
0.0
 10
14.88138225130066
 20
3.021707866486939
 30
0.0
 10
14.87983110515191
 20
3.025097203623338
 30
0.0
 10
14.87825866721572
 20
3.028473923404159
 30
0.0
 10
14.87672644710037
 20
3.031873512141848
 30
0.0
 10
14.87142794635137
 20
3.043639196198253
 30
0.0
 10
14.86624615614125
 20
3.055461658354596
 30
0.0
 10
14.86118028788543
 20
3.067351150212362
 30
0.0
 10
14.85939256631997
 20
3.071544843765434
 30
0.0
 10
14.85766162285457
 20
3.075768503537914
 30
0.0
 10
14.85590307892392
 20
3.079977180200723
 30
0.0
 10
14.84546852587874
 20
3.104968218634365
 30
0.0
 10
14.83547794603228
 20
3.130183215129075
 30
0.0
 10
14.8260890563288
 20
3.155695508064225
 30
0.0
 10
14.82580043432047
 20
3.156477784108686
 30
0.0
 10
14.82549052052458
 20
3.157250597136576
 30
0.0
 10
14.82520347568575
 20
3.158032873181037
 30
0.0
 10
14.82114620728961
 20
3.169102236927673
 30
0.0
 10
14.8172774106421
 20
3.180257556408935
 30
0.0
 10
14.81342044276545
 20
3.191421550322178
 30
0.0
 10
14.8112202913903
 20
3.197785429030997
 30
0.0
 10
14.80904064321791
 20
3.204156405002292
 30
0.0
 10
14.80690594437474
 20
3.210551038515239
 30
0.0
 10
14.80333602133698
 20
3.22125213319648
 30
0.0
 10
14.79981183621315
 20
3.23196978815696
 30
0.0
 10
14.79642801916985
 20
3.242754472818734
 30
0.0
 10
14.79418370705027
 20
3.249899838987358
 30
0.0
 10
14.79206872282509
 20
3.257099617501698
 30
0.0
 10
14.78990642351666
 20
3.264281258567488
 30
0.0
 10
14.78471990179823
 20
3.281522086350593
 30
0.0
 10
14.77976837832701
 20
3.29885754430037
 30
0.0
 10
14.77506052753503
 20
3.316299461187739
 30
0.0
 10
14.77272552817238
 20
3.324942349743864
 30
0.0
 10
14.77036844843751
 20
3.333573409529195
 30
0.0
 10
14.76815331395262
 20
3.342264401753407
 30
0.0
 10
14.76570081546636
 20
3.351892232627633
 30
0.0
 10
14.76336897044259
 20
3.361564224246348
 30
0.0
 10
14.76106314871462
 20
3.37124962180536
 30
0.0
 10
14.75887324894089
 20
3.380442153912898
 30
0.0
 10
14.75676851631712
 20
3.389664652239973
 30
0.0
 10
14.7547126759461
 20
3.398907653769756
 30
0.0
 10
14.75268049311686
 20
3.408050505039832
 30
0.0
 10
14.75061834406808
 20
3.417179161784891
 30
0.0
 10
14.74871864347212
 20
3.426370905307709
 30
0.0
 10
14.7452638538038
 20
3.44306524387828
 30
0.0
 10
14.74199517013001
 20
3.459826612150336
 30
0.0
 10
14.73898041073676
 20
3.476675513326459
 30
0.0
 10
14.73761063907416
 20
3.484342133996399
 30
0.0
 10
14.73642224189769
 20
3.492068687105283
 30
0.0
 10
14.73514394606282
 20
3.499766851164135
 30
0.0
 10
14.73321822217104
 20
3.511349583564954
 30
0.0
 10
14.73135637364181
 20
3.522952819168482
 30
0.0
 10
14.7296412018708
 20
3.534604158440098
 30
0.0
 10
14.72843387866101
 20
3.542814113983758
 30
0.0
 10
14.72727939062762
 20
3.551038264052435
 30
0.0
 10
14.72617773777057
 20
3.559281340154317
 30
0.0
 10
14.72446808609273
 20
3.572049315392718
 30
0.0
 10
14.72292246003708
 20
3.584866971468581
 30
0.0
 10
14.72146752122444
 20
3.597713016594477
 30
0.0
 10
14.72073808035638
 20
3.604166793961586
 30
0.0
 10
14.71991400932159
 20
3.610589027939782
 30
0.0
 10
14.71924923240067
 20
3.617061731340225
 30
0.0
 10
14.71733928020328
 20
3.635616341270654
 30
0.0
 10
14.71573451029347
 20
3.654258484105277
 30
0.0
 10
14.71436158429199
 20
3.67296450230238
 30
0.0
 10
14.71389553072117
 20
3.679340998366712
 30
0.0
 10
14.71354697627389
 20
3.685747460650516
 30
0.0
 10
14.71314322089612
 20
3.692141305578744
 30
0.0
 10
14.71224896582103
 20
3.706260126446353
 30
0.0
 10
14.71150217608901
 20
3.72041679938063
 30
0.0
 10
14.71091783480981
 20
3.734616055889958
 30
0.0
 10
14.71065365892784
 20
3.741069044672347
 30
0.0
 10
14.71037844285975
 20
3.747518090531073
 30
0.0
 10
14.71017893092505
 20
3.753986851007982
 30
0.0
 10
14.70957487502779
 20
3.773397863946769
 30
0.0
 10
14.70917742832771
 20
3.792858557723083
 30
0.0
 10
14.70916007946388
 20
3.812409150157815
 30
0.0
 10
14.70916007946388
 20
3.812827100060608
 30
0.0
 10
14.70913799909167
 20
3.813241107039802
 30
0.0
 10
14.70913799909167
 20
3.813659056942595
 30
0.0
 10
14.70913799909167
 20
3.813737126830091
 30
0.0
 10
14.70914115343054
 20
3.813814408132867
 30
0.0
 10
14.70914115343054
 20
3.813892478020363
 30
0.0
 10
14.70914115343054
 20
3.813970547907859
 30
0.0
 10
14.70913799909167
 20
3.814047829210699
 30
0.0
 10
14.70913799909167
 20
3.814125899098195
 30
0.0
 10
14.70913799909167
 20
3.814047829210699
 30
0.0
 10
14.70914115343054
 20
3.813970547907859
 30
0.0
 10
14.70914115343054
 20
3.813892478020363
 30
0.0
 10
14.70926890415557
 20
4.867303664654905
 30
0.0
 10
15.56631934060451
 20
5.724279974139954
 30
0.0
 10
16.61976522496678
 20
5.724279974139954
 30
0.0
 10
17.67321110932918
 20
5.724279974139954
 30
0.0
 10
18.53025523710037
 20
4.867303664654905
 30
0.0
 10
18.53038298782533
 20
3.813892478020363
 30
0.0
 10
18.53038298782533
 20
3.813970547907859
 30
0.0
 10
18.53038614216421
 20
3.814047829210699
 30
0.0
 10
18.53038614216421
 20
3.814125899098195
 30
0.0
 10
18.53038614216421
 20
3.814047829210699
 30
0.0
 10
18.53038298782533
 20
3.813970547907859
 30
0.0
 10
18.53038298782533
 20
3.813892478020363
 30
0.0
 10
18.53038298782533
 20
3.813814408132867
 30
0.0
 10
18.53038614216421
 20
3.813737126830091
 30
0.0
 10
18.53038614216421
 20
3.813659056942595
 30
0.0
 10
18.53038614216421
 20
2.779363952560688
 30
0.0
 10
17.7042703072007
 20
1.934471915359848
 30
0.0
 10
16.67723018226383
 20
1.903971035471588
 30
0.0
 10
16.67509075191227
 20
1.904018350554956
 30
0.0
 10
16.6729678818399
 20
1.904139792602157
 30
0.0
 10
16.67083002865778
 20
1.904193416363346
 30
0.0
 10
16.66857546493678
 20
1.904133483924464
 30
0.0
 10
16.66631222678387
 20
1.904112980721627
 30
0.0
 10
16.66405529730871
 20
1.904060934129942
 30
0.0
  0
SPLINE
  5
E0
330
7B
100
AcDbEntity
  8
Livello 2
 62
    18
420
        0
370
    35
100
AcDbSpline
210
0.0
220
0.0
230
1.0
 70
     9
 71
     3
 72
    14
 73
    10
 74
     0
 42
0.000000001
 43
0.0000000001
 40
0.0
 40
0.0
 40
0.0
 40
0.0
 40
1.0
 40
1.0
 40
1.0
 40
2.0
 40
2.0
 40
2.0
 40
3.0
 40
3.0
 40
3.0
 40
3.0
 10
18.71126539708219
 20
3.813892478020363
 30
0.0
 10
18.71126539708219
 20
3.813163037152307
 30
0.0
 10
18.7112385852016
 20
3.812439116377223
 30
0.0
 10
18.71123779661688
 20
3.811709675509039
 30
0.0
 10
18.7112385852016
 20
3.812361835074447
 30
0.0
 10
18.71126855142107
 20
3.813006897377251
 30
0.0
 10
18.71126855142107
 20
3.813659056942595
 30
0.0
 10
18.71126855142107
 20
3.813737126830091
 30
0.0
 10
18.71126539708219
 20
3.813814408132867
 30
0.0
 10
18.71126539708219
 20
3.813892478020363
 30
0.0
  0
SPLINE
  5
E1
330
7B
100
AcDbEntity
  8
Livello 2
 62
    18
420
        0
370
    35
100
AcDbSpline
210
0.0
220
0.0
230
1.0
 70
     9
 71
     3
 72
    11
 73
     7
 74
     0
 42
0.000000001
 43
0.0000000001
 40
0.0
 40
0.0
 40
0.0
 40
0.0
 40
1.0
 40
1.0
 40
1.0
 40
2.0
 40
2.0
 40
2.0
 40
2.0
 10
14.5402570607232
 20
3.590267199646728
 30
0.0
 10
14.54127196926071
 20
3.580760810819704
 30
0.0
 10
14.54237598787192
 20
3.571283599627368
 30
0.0
 10
14.54351943571917
 20
3.561815851451732
 30
0.0
 10
14.54237598787192
 20
3.571282811042649
 30
0.0
 10
14.54127354643021
 20
3.580762387989143
 30
0.0
 10
14.5402570607232
 20
3.590267199646728
 30
0.0
  0
SPLINE
  5
E2
330
7B
100
AcDbEntity
  8
Livello 2
 62
    18
420
        0
370
    35
100
AcDbSpline
210
0.0
220
0.0
230
1.0
 70
     9
 71
     3
 72
    11
 73
     7
 74
     0
 42
0.000000001
 43
0.0000000001
 40
0.0
 40
0.0
 40
0.0
 40
0.0
 40
1.0
 40
1.0
 40
1.0
 40
2.0
 40
2.0
 40
2.0
 40
2.0
 10
18.69241901080449
 20
3.53375485269428
 30
0.0
 10
18.6939630596907
 20
3.545242954928427
 30
0.0
 10
18.69539276379219
 20
3.556762600551423
 30
0.0
 10
18.6967491295145
 20
3.568309058054949
 30
0.0
 10
18.69539118662275
 20
3.556764177720798
 30
0.0
 10
18.69396542544486
 20
3.545242166343644
 30
0.0
 10
18.69241901080449
 20
3.53375485269428
 30
0.0
  0
SPLINE
  5
E3
330
7B
100
AcDbEntity
  8
Livello 2
 62
    18
420
        0
370
    35
100
AcDbSpline
210
0.0
220
0.0
230
1.0
 70
     9
 71
     3
 72
    11
 73
     7
 74
     0
 42
0.000000001
 43
0.0000000001
 40
0.0
 40
0.0
 40
0.0
 40
0.0
 40
1.0
 40
1.0
 40
1.0
 40
2.0
 40
2.0
 40
2.0
 40
2.0
 10
14.53506501891166
 20
3.645592726592156
 30
0.0
 10
14.53580944288952
 20
3.636285849699893
 30
0.0
 10
14.53667925183818
 20
3.627016036289515
 30
0.0
 10
14.53754590644796
 20
3.617743068540258
 30
0.0
 10
14.53667846325346
 20
3.627014459120076
 30
0.0
 10
14.53581023147418
 20
3.636286638284548
 30
0.0
 10
14.53506501891166
 20
3.645592726592156
 30
0.0
  0
SPLINE
  5
E4
330
7B
100
AcDbEntity
  8
Livello 2
 62
    18
420
        0
370
    35
100
AcDbSpline
210
0.0
220
0.0
230
1.0
 70
     9
 71
     3
 72
    11
 73
     7
 74
     0
 42
0.000000001
 43
0.0000000001
 40
0.0
 40
0.0
 40
0.0
 40
0.0
 40
1.0
 40
1.0
 40
1.0
 40
2.0
 40
2.0
 40
2.0
 40
2.0
 10
18.52973634835309
 20
2.962201263344017
 30
0.0
 10
18.54776024076543
 20
3.002461667755123
 30
0.0
 10
18.56453501497772
 20
3.043384483332928
 30
0.0
 10
18.58003622486345
 20
3.084935800934361
 30
0.0
 10
18.56453107205406
 20
3.043389214841246
 30
0.0
 10
18.54776260651959
 20
3.002456936246805
 30
0.0
 10
18.52973634835309
 20
2.962201263344017
 30
0.0
  0
SPLINE
  5
E5
330
7B
100
AcDbEntity
  8
Livello 2
 62
    18
420
        0
370
    35
100
AcDbSpline
210
0.0
220
0.0
230
1.0
 70
     9
 71
     3
 72
    11
 73
     7
 74
     0
 42
0.000000001
 43
0.0000000001
 40
0.0
 40
0.0
 40
0.0
 40
0.0
 40
1.0
 40
1.0
 40
1.0
 40
2.0
 40
2.0
 40
2.0
 40
2.0
 10
18.50778057251546
 20
2.914743446172729
 30
0.0
 10
18.51363817983251
 20
2.926994898418003
 30
0.0
 10
18.519420871601
 20
2.939284991314666
 30
0.0
 10
18.52504584642494
 20
2.951665771454402
 30
0.0
 10
18.51942008301628
 20
2.939286568484106
 30
0.0
 10
18.51363896841723
 20
2.926993321248565
 30
0.0
 10
18.50778057251546
 20
2.914743446172729
 30
0.0
  0
SPLINE
  5
E6
330
7B
100
AcDbEntity
  8
Livello 2
 62
    18
420
        0
370
    35
100
AcDbSpline
210
0.0
220
0.0
230
1.0
 70
     9
 71
     3
 72
    11
 73
     7
 74
     0
 42
0.000000001
 43
0.0000000001
 40
0.0
 40
0.0
 40
0.0
 40
0.0
 40
1.0
 40
1.0
 40
1.0
 40
2.0
 40
2.0
 40
2.0
 40
2.0
 10
18.62120350170516
 20
3.206690127714923
 30
0.0
 10
18.62476475031095
 20
3.21840849668796
 30
0.0
 10
18.6283465021195
 20
3.230115825474859
 30
0.0
 10
18.63170666162115
 20
3.241920150182652
 30
0.0
 10
18.62834492495006
 20
3.230117402644298
 30
0.0
 10
18.62476632748039
 20
3.218406919518457
 30
0.0
 10
18.62120350170516
 20
3.206690127714923
 30
0.0
  0
SPLINE
  5
E7
330
7B
100
AcDbEntity
  8
Livello 2
 62
    18
420
        0
370
    35
100
AcDbSpline
210
0.0
220
0.0
230
1.0
 70
     9
 71
     3
 72
    11
 73
     7
 74
     0
 42
0.000000001
 43
0.0000000001
 40
0.0
 40
0.0
 40
0.0
 40
0.0
 40
1.0
 40
1.0
 40
1.0
 40
2.0
 40
2.0
 40
2.0
 40
2.0
 10
18.604099099079
 20
3.15295833049317
 30
0.0
 10
18.60792925507512
 20
3.164428295278703
 30
0.0
 10
18.61169474712398
 20
3.175925071944767
 30
0.0
 10
18.61533012269366
 20
3.187481781049711
 30
0.0
 10
18.61169316995454
 20
3.175926649114206
 30
0.0
 10
18.60793004365984
 20
3.164426718109264
 30
0.0
 10
18.604099099079
 20
3.15295833049317
 30
0.0
  0
SPLINE
  5
E8
330
7B
100
AcDbEntity
  8
Livello 2
 62
    18
420
        0
370
    35
100
AcDbSpline
210
0.0
220
0.0
230
1.0
 70
     9
 71
     3
 72
    11
 73
     7
 74
     0
 42
0.000000001
 43
0.0000000001
 40
0.0
 40
0.0
 40
0.0
 40
0.0
 40
1.0
 40
1.0
 40
1.0
 40
2.0
 40
2.0
 40
2.0
 40
2.0
 10
18.63360084212407
 20
3.248877833187245
 30
0.0
 10
18.64054433060372
 20
3.273596021307011
 30
0.0
 10
18.64698075910693
 20
3.298518452869856
 30
0.0
 10
18.6530268381726
 20
3.32359465845347
 30
0.0
 10
18.64697760476799
 20
3.298520818624015
 30
0.0
 10
18.64054748494259
 20
3.273593655552788
 30
0.0
 10
18.63360084212407
 20
3.248877833187245
 30
0.0
  0
SPLINE
  5
E9
330
7B
100
AcDbEntity
  8
Livello 2
 62
    18
420
        0
370
    35
100
AcDbSpline
210
0.0
220
0.0
230
1.0
 70
     9
 71
     3
 72
    11
 73
     7
 74
     0
 42
0.000000001
 43
0.0000000001
 40
0.0
 40
0.0
 40
0.0
 40
0.0
 40
1.0
 40
1.0
 40
1.0
 40
2.0
 40
2.0
 40
2.0
 40
2.0
 10
18.38409105882649
 20
2.692087338422803
 30
0.0
 10
18.39211175403668
 20
2.704656590311162
 30
0.0
 10
18.40004412775808
 20
2.717283408884179
 30
0.0
 10
18.4078014356711
 20
2.730032458089246
 30
0.0
 10
18.40004412775808
 20
2.717284986053682
 30
0.0
 10
18.39211175403668
 20
2.704655013141723
 30
0.0
 10
18.38409105882649
 20
2.692087338422803
 30
0.0
  0
SPLINE
  5
EA
330
7B
100
AcDbEntity
  8
Livello 2
 62
    18
420
        0
370
    35
100
AcDbSpline
210
0.0
220
0.0
230
1.0
 70
     9
 71
     3
 72
    11
 73
     7
 74
     0
 42
0.000000001
 43
0.0000000001
 40
0.0
 40
0.0
 40
0.0
 40
0.0
 40
1.0
 40
1.0
 40
1.0
 40
2.0
 40
2.0
 40
2.0
 40
2.0
 10
18.48331946301518
 20
2.865194302317974
 30
0.0
 10
18.48957688278647
 20
2.87743629154655
 30
0.0
 10
18.49568368287574
 20
2.889760293586283
 30
0.0
 10
18.50170531581504
 20
2.902139496556644
 30
0.0
 10
18.49568289429102
 20
2.889762659340442
 30
0.0
 10
18.48957688278647
 20
2.877433925792391
 30
0.0
 10
18.48331946301518
 20
2.865194302317974
 30
0.0
  0
SPLINE
  5
EB
330
7B
100
AcDbEntity
  8
Livello 2
 62
    18
420
        0
370
    35
100
AcDbSpline
210
0.0
220
0.0
230
1.0
 70
     9
 71
     3
 72
    11
 73
     7
 74
     0
 42
0.000000001
 43
0.0000000001
 40
0.0
 40
0.0
 40
0.0
 40
0.0
 40
1.0
 40
1.0
 40
1.0
 40
2.0
 40
2.0
 40
2.0
 40
2.0
 10
18.35466580849947
 20
2.647193998768339
 30
0.0
 10
18.36291992478749
 20
2.659428102149718
 30
0.0
 10
18.3710305186561
 20
2.671760778621431
 30
0.0
 10
18.37903071066358
 20
2.684176256488893
 30
0.0
 10
18.37102973007137
 20
2.671763144375526
 30
0.0
 10
18.36292071337221
 20
2.659426524980279
 30
0.0
 10
18.35466580849947
 20
2.647193998768339
 30
0.0
  0
SPLINE
  5
EC
330
7B
100
AcDbEntity
  8
Livello 2
 62
    18
420
        0
370
    35
100
AcDbSpline
210
0.0
220
0.0
230
1.0
 70
     9
 71
     3
 72
    11
 73
     7
 74
     0
 42
0.000000001
 43
0.0000000001
 40
0.0
 40
0.0
 40
0.0
 40
0.0
 40
1.0
 40
1.0
 40
1.0
 40
2.0
 40
2.0
 40
2.0
 40
2.0
 10
18.40897800407676
 20
2.731999188386633
 30
0.0
 10
18.433646511359
 20
2.772642844972742
 30
0.0
 10
18.45693262962306
 20
2.814202837006154
 30
0.0
 10
18.47884818763991
 20
2.856590054413173
 30
0.0
 10
18.4569302638689
 20
2.814206779929753
 30
0.0
 10
18.43364808852844
 20
2.772638902049143
 30
0.0
 10
18.40897800407676
 20
2.731999188386633
 30
0.0
  0
SPLINE
  5
ED
330
7B
100
AcDbEntity
  8
Livello 2
 62
    18
420
        0
370
    35
100
AcDbSpline
210
0.0
220
0.0
230
1.0
 70
     9
 71
     3
 72
    11
 73
     7
 74
     0
 42
0.000000001
 43
0.0000000001
 40
0.0
 40
0.0
 40
0.0
 40
0.0
 40
1.0
 40
1.0
 40
1.0
 40
2.0
 40
2.0
 40
2.0
 40
2.0
 10
18.58535680598467
 20
3.099153983477023
 30
0.0
 10
18.58962068357797
 20
3.110843963400027
 30
0.0
 10
18.59373157573523
 20
3.122602550193955
 30
0.0
 10
18.59779120988546
 20
3.13438794886835
 30
0.0
 10
18.59373078715051
 20
3.12260412736333
 30
0.0
 10
18.58962147216269
 20
3.110842386230588
 30
0.0
 10
18.58535680598467
 20
3.099153983477023
 30
0.0
  0
SPLINE
  5
EE
330
7B
100
AcDbEntity
  8
Livello 2
 62
    18
420
        0
370
    35
100
AcDbSpline
210
0.0
220
0.0
230
1.0
 70
     9
 71
     3
 72
    11
 73
     7
 74
     0
 42
0.000000001
 43
0.0000000001
 40
0.0
 40
0.0
 40
0.0
 40
0.0
 40
1.0
 40
1.0
 40
1.0
 40
2.0
 40
2.0
 40
2.0
 40
2.0
 10
18.70948319560977
 20
3.731349737970264
 30
0.0
 10
18.70976629752512
 20
3.73864335806662
 30
0.0
 10
18.71010854329458
 20
3.745919629299016
 30
0.0
 10
18.71031751824597
 20
3.753231386843987
 30
0.0
 10
18.71010775470986
 20
3.745919629299016
 30
0.0
 10
18.70976787469456
 20
3.738641780897181
 30
0.0
 10
18.70948319560977
 20
3.731349737970264
 30
0.0
  0
SPLINE
  5
EF
330
7B
100
AcDbEntity
  8
Livello 2
 62
    18
420
        0
370
    35
100
AcDbSpline
210
0.0
220
0.0
230
1.0
 70
     9
 71
     3
 72
    11
 73
     7
 74
     0
 42
0.000000001
 43
0.0000000001
 40
0.0
 40
0.0
 40
0.0
 40
0.0
 40
1.0
 40
1.0
 40
1.0
 40
2.0
 40
2.0
 40
2.0
 40
2.0
 10
14.52904654031131
 20
3.757437697752637
 30
0.0
 10
14.52925314950848
 20
3.7496874871021
 30
0.0
 10
14.52963955602243
 20
3.741984591534867
 30
0.0
 10
14.52993054378492
 20
3.734254884087103
 30
0.0
 10
14.52963876743771
 20
3.741983802950211
 30
0.0
 10
14.5292539380932
 20
3.749688275686756
 30
0.0
 10
14.52904654031131
 20
3.757437697752637
 30
0.0
  0
SPLINE
  5
F0
330
7B
100
AcDbEntity
  8
Livello 2
 62
    18
420
        0
370
    35
100
AcDbSpline
210
0.0
220
0.0
230
1.0
 70
     9
 71
     3
 72
    11
 73
     7
 74
     0
 42
0.000000001
 43
0.0000000001
 40
0.0
 40
0.0
 40
0.0
 40
0.0
 40
1.0
 40
1.0
 40
1.0
 40
2.0
 40
2.0
 40
2.0
 40
2.0
 10
18.70606389225402
 20
3.667679407493678
 30
0.0
 10
18.70664271344019
 20
3.676035251210974
 30
0.0
 10
18.7071789510513
 20
3.684400557944842
 30
0.0
 10
18.7076591991472
 20
3.692782424957886
 30
0.0
 10
18.70717737388186
 20
3.684401346529562
 30
0.0
 10
18.70664429060963
 20
3.676034462626191
 30
0.0
 10
18.70606389225402
 20
3.667679407493678
 30
0.0
  0
SPLINE
  5
F1
330
7B
100
AcDbEntity
  8
Livello 2
 62
    18
420
        0
370
    35
100
AcDbSpline
210
0.0
220
0.0
230
1.0
 70
     9
 71
     3
 72
    11
 73
     7
 74
     0
 42
0.000000001
 43
0.0000000001
 40
0.0
 40
0.0
 40
0.0
 40
0.0
 40
1.0
 40
1.0
 40
1.0
 40
2.0
 40
2.0
 40
2.0
 40
2.0
 10
14.53131924148086
 20
3.70136380390569
 30
0.0
 10
14.531793180899
 20
3.692465413899521
 30
0.0
 10
14.53242641443094
 20
3.68361197322256
 30
0.0
 10
14.53301154429487
 20
3.674743549435864
 30
0.0
 10
14.53242483726151
 20
3.683611184637841
 30
0.0
 10
14.53179475806844
 20
3.692466991069024
 30
0.0
 10
14.53131924148086
 20
3.70136380390569
 30
0.0
  0
SPLINE
  5
F2
330
7B
100
AcDbEntity
  8
Livello 2
 62
    18
420
        0
370
    35
100
AcDbSpline
210
0.0
220
0.0
230
1.0
 70
     9
 71
     3
 72
    11
 73
     7
 74
     0
 42
0.000000001
 43
0.0000000001
 40
0.0
 40
0.0
 40
0.0
 40
0.0
 40
1.0
 40
1.0
 40
1.0
 40
2.0
 40
2.0
 40
2.0
 40
2.0
 10
18.65864156139518
 20
3.347052688187038
 30
0.0
 10
18.66103491602734
 20
3.357510110189156
 30
0.0
 10
18.66327765097748
 20
3.368021155952335
 30
0.0
 10
18.66551250008042
 20
3.378537721808615
 30
0.0
 10
18.66327607380804
 20
3.368022733121838
 30
0.0
 10
18.66103570461206
 20
3.357509321604372
 30
0.0
 10
18.65864156139518
 20
3.347052688187038
 30
0.0
  0
SPLINE
  5
F3
330
7B
100
AcDbEntity
  8
Livello 2
 62
    18
420
        0
370
    35
100
AcDbSpline
210
0.0
220
0.0
230
1.0
 70
     9
 71
     3
 72
    11
 73
     7
 74
     0
 42
0.000000001
 43
0.0000000001
 40
0.0
 40
0.0
 40
0.0
 40
0.0
 40
1.0
 40
1.0
 40
1.0
 40
2.0
 40
2.0
 40
2.0
 40
2.0
 10
18.67090484241131
 20
3.404620161497951
 30
0.0
 10
18.67293387090174
 20
3.414806310355505
 30
0.0
 10
18.67490927563111
 20
3.425009019492363
 30
0.0
 10
18.67678847302423
 20
3.435248003526385
 30
0.0
 10
18.67490769846166
 20
3.425010596661802
 30
0.0
 10
18.67293544807118
 20
3.414805521770849
 30
0.0
 10
18.67090484241131
 20
3.404620161497951
 30
0.0
  0
SPLINE
  5
F4
330
7B
100
AcDbEntity
  8
Livello 2
 62
    18
420
        0
370
    35
100
AcDbSpline
210
0.0
220
0.0
230
1.0
 70
     9
 71
     3
 72
    11
 73
     7
 74
     0
 42
0.000000001
 43
0.0000000001
 40
0.0
 40
0.0
 40
0.0
 40
0.0
 40
1.0
 40
1.0
 40
1.0
 40
2.0
 40
2.0
 40
2.0
 40
2.0
 10
18.68176917413015
 20
3.463796347642276
 30
0.0
 10
18.68339996733577
 20
3.473436007287359
 30
0.0
 10
18.68508044137899
 20
3.483055952314389
 30
0.0
 10
18.68657796376662
 20
3.492738984119242
 30
0.0
 10
18.68507807562483
 20
3.483056740899109
 30
0.0
 10
18.68340154450521
 20
3.47343443011792
 30
0.0
 10
18.68176917413015
 20
3.463796347642276
 30
0.0
  0
SPLINE
  5
F5
330
7B
100
AcDbEntity
  8
Livello 2
 62
    18
420
        0
370
    35
100
AcDbSpline
210
0.0
220
0.0
230
1.0
 70
     9
 71
     3
 72
    11
 73
     7
 74
     0
 42
0.000000001
 43
0.0000000001
 40
0.0
 40
0.0
 40
0.0
 40
0.0
 40
1.0
 40
1.0
 40
1.0
 40
2.0
 40
2.0
 40
2.0
 40
2.0
 10
18.70099723541342
 20
3.606732060063129
 30
0.0
 10
18.7018291922954
 20
3.615163607913699
 30
0.0
 10
18.70252551260517
 20
3.623631430661562
 30
0.0
 10
18.70325653064273
 20
3.632091367562101
 30
0.0
 10
18.70252314685101
 20
3.623633007831001
 30
0.0
 10
18.70183155804956
 20
3.615162819328979
 30
0.0
 10
18.70099723541342
 20
3.606732060063129
 30
0.0
  0
SPLINE
  5
F6
330
7B
100
AcDbEntity
  8
Livello 2
 62
    18
420
        0
370
    35
100
AcDbSpline
210
0.0
220
0.0
230
1.0
 70
     9
 71
     3
 72
    11
 73
     7
 74
     0
 42
0.000000001
 43
0.0000000001
 40
0.0
 40
0.0
 40
0.0
 40
0.0
 40
1.0
 40
1.0
 40
1.0
 40
2.0
 40
2.0
 40
2.0
 40
2.0
 10
18.23499255680095
 20
2.486877879068436
 30
0.0
 10
18.2760439116885
 20
2.536755074167694
 30
0.0
 10
18.31482729691475
 20
2.588543798633775
 30
0.0
 10
18.35119997864501
 20
2.64211551315681
 30
0.0
 10
18.31482571974531
 20
2.588550107311532
 30
0.0
 10
18.27604470027322
 20
2.536747976905218
 30
0.0
 10
18.23499255680095
 20
2.486877879068436
 30
0.0
  0
ENDBLK
  5
7E
330
7B
100
AcDbEntity
  8
0
100
AcDbBlockEnd
  0
ENDSEC
  0
SECTION
  2
ENTITIES
  0
LINE
  5
13D
330
70
100
AcDbEntity
  8
Livello 2
370
    35
100
AcDbLine
 10
22.89093862930239
 20
4.414756474765103
 30
0.0
 11
22.42040048435377
 21
4.408325985336015
 31
0.0
  0
LINE
  5
13E
330
70
100
AcDbEntity
  8
Livello 2
370
    35
100
AcDbLine
 10
22.42040048435377
 20
4.408325985336015
 30
0.0
 11
23.19438855987261
 21
8.180381557491633
 31
0.0
  0
LINE
  5
13F
330
70
100
AcDbEntity
  8
Livello 2
370
    35
100
AcDbLine
 10
23.19438855987261
 20
8.180381557491633
 30
0.0
 11
23.62964892705234
 21
8.186812046920625
 31
0.0
  0
LINE
  5
140
330
70
100
AcDbEntity
  8
Livello 2
370
    35
100
AcDbLine
 10
23.62964892705234
 20
8.186812046920625
 30
0.0
 11
22.89093862930239
 21
4.414756474765103
 31
0.0
  0
LINE
  5
141
330
70
100
AcDbEntity
  8
Livello 2
370
    35
100
AcDbLine
 10
23.85750509322072
 20
1.862190230402429
 30
0.0
 11
22.27718801687346
 21
5.877314358949575
 31
0.0
  0
LINE
  5
142
330
70
100
AcDbEntity
  8
Livello 2
370
    35
100
AcDbLine
 10
22.27718801687346
 20
5.877314358949575
 30
0.0
 11
22.74920351827317
 21
5.904927058253297
 31
0.0
  0
LINE
  5
143
330
70
100
AcDbEntity
  8
Livello 2
370
    35
100
AcDbLine
 10
22.74920351827317
 20
5.904927058253297
 30
0.0
 11
24.22368767553638
 21
1.819229898967819
 31
0.0
  0
LINE
  5
144
330
70
100
AcDbEntity
  8
Livello 2
370
    35
100
AcDbLine
 10
24.22368767553638
 20
1.819229898967819
 30
0.0
 11
23.85750509322072
 21
1.862190230402429
 31
0.0
  0
SPLINE
  5
145
330
70
100
AcDbEntity
  8
Livello 2
100
AcDbSpline
210
0.0
220
0.0
230
1.0
 70
     9
 71
     3
 72
    11
 73
     7
 74
     0
 42
0.000000001
 43
0.0000000001
 40
0.0
 40
0.0
 40
0.0
 40
0.0
 40
1.0
 40
1.0
 40
1.0
 40
2.0
 40
2.0
 40
2.0
 40
2.0
 10
18.68657796376662
 20
3.492738984119242
 30
0.0
 10
18.6886874278987
 20
3.506358630857684
 30
0.0
 10
18.69057451113908
 20
3.520050038805801
 30
0.0
 10
18.69241901080449
 20
3.53375485269428
 30
0.0
 10
18.69057687689324
 20
3.520049250221146
 30
0.0
 10
18.68868506214454
 20
3.50635941944234
 30
0.0
 10
18.68657796376662
 20
3.492738984119242
 30
0.0
  0
SPLINE
  5
146
330
70
100
AcDbEntity
  8
Livello 2
100
AcDbSpline
210
0.0
220
0.0
230
1.0
 70
     9
 71
     3
 72
    11
 73
     7
 74
     0
 42
0.000000001
 43
0.0000000001
 40
0.0
 40
0.0
 40
0.0
 40
0.0
 40
1.0
 40
1.0
 40
1.0
 40
2.0
 40
2.0
 40
2.0
 40
2.0
 10
14.71436158429199
 20
3.67296450230238
 30
0.0
 10
14.71389395355173
 20
3.679340209781992
 30
0.0
 10
14.71354776485861
 20
3.685748249235236
 30
0.0
 10
14.71314322089612
 20
3.692141305578744
 30
0.0
 10
14.71354697627389
 20
3.685747460650516
 30
0.0
 10
14.71389553072117
 20
3.679340998366712
 30
0.0
 10
14.71436158429199
 20
3.67296450230238
 30
0.0
  0
SPLINE
  5
147
330
70
100
AcDbEntity
  8
Livello 2
100
AcDbSpline
210
0.0
220
0.0
230
1.0
 70
     9
 71
     3
 72
    11
 73
     7
 74
     0
 42
0.000000001
 43
0.0000000001
 40
0.0
 40
0.0
 40
0.0
 40
0.0
 40
1.0
 40
1.0
 40
1.0
 40
2.0
 40
2.0
 40
2.0
 40
2.0
 10
18.70325653064273
 20
3.632091367562101
 30
0.0
 10
18.70428169078166
 20
3.643930389997684
 30
0.0
 10
18.70523666688035
 20
3.655785972712314
 30
0.0
 10
18.70606389225402
 20
3.667679407493678
 30
0.0
 10
18.70523903263451
 20
3.655785184127595
 30
0.0
 10
18.70428011361222
 20
3.6439296014129
 30
0.0
 10
18.70325653064273
 20
3.632091367562101
 30
0.0
  0
SPLINE
  5
148
330
70
100
AcDbEntity
  8
Livello 2
100
AcDbSpline
210
0.0
220
0.0
230
1.0
 70
     9
 71
     3
 72
    11
 73
     7
 74
     0
 42
0.000000001
 43
0.0000000001
 40
0.0
 40
0.0
 40
0.0
 40
0.0
 40
1.0
 40
1.0
 40
1.0
 40
2.0
 40
2.0
 40
2.0
 40
2.0
 10
18.6967491295145
 20
3.568309058054949
 30
0.0
 10
18.69825296057988
 20
3.581091227818302
 30
0.0
 10
18.6997268254258
 20
3.593882072013634
 30
0.0
 10
18.70099723541342
 20
3.606732060063129
 30
0.0
 10
18.69972840259524
 20
3.593881283428915
 30
0.0
 10
18.698249806241
 20
3.581091227818302
 30
0.0
 10
18.6967491295145
 20
3.568309058054949
 30
0.0
  0
SPLINE
  5
149
330
70
100
AcDbEntity
  8
Livello 2
100
AcDbSpline
210
0.0
220
0.0
230
1.0
 70
     9
 71
     3
 72
    11
 73
     7
 74
     0
 42
0.000000001
 43
0.0000000001
 40
0.0
 40
0.0
 40
0.0
 40
0.0
 40
1.0
 40
1.0
 40
1.0
 40
2.0
 40
2.0
 40
2.0
 40
2.0
 10
18.66551250008042
 20
3.378537721808615
 30
0.0
 10
18.66735857691526
 20
3.38721451950781
 30
0.0
 10
18.66916759026816
 20
3.395903934562583
 30
0.0
 10
18.67090484241131
 20
3.404620161497951
 30
0.0
 10
18.66916916743759
 20
3.395903934562583
 30
0.0
 10
18.66735621116111
 20
3.38721451950781
 30
0.0
 10
18.66551250008042
 20
3.378537721808615
 30
0.0
  0
SPLINE
  5
14A
330
70
100
AcDbEntity
  8
Livello 2
100
AcDbSpline
210
0.0
220
0.0
230
1.0
 70
     9
 71
     3
 72
    11
 73
     7
 74
     0
 42
0.000000001
 43
0.0000000001
 40
0.0
 40
0.0
 40
0.0
 40
0.0
 40
1.0
 40
1.0
 40
1.0
 40
2.0
 40
2.0
 40
2.0
 40
2.0
 10
18.67678847302423
 20
3.435248003526385
 30
0.0
 10
18.67853203384521
 20
3.444736254904795
 30
0.0
 10
18.68015494120363
 20
3.454263935519377
 30
0.0
 10
18.68176917413015
 20
3.463796347642276
 30
0.0
 10
18.68015651837308
 20
3.454263935519377
 30
0.0
 10
18.67853045667577
 20
3.444736254904795
 30
0.0
 10
18.67678847302423
 20
3.435248003526385
 30
0.0
  0
SPLINE
  5
14B
330
70
100
AcDbEntity
  8
Livello 2
100
AcDbSpline
210
0.0
220
0.0
230
1.0
 70
     9
 71
     3
 72
    11
 73
     7
 74
     0
 42
0.000000001
 43
0.0000000001
 40
0.0
 40
0.0
 40
0.0
 40
0.0
 40
1.0
 40
1.0
 40
1.0
 40
2.0
 40
2.0
 40
2.0
 40
2.0
 10
14.71091783480981
 20
3.734616055889958
 30
0.0
 10
14.71065208175841
 20
3.741068256087627
 30
0.0
 10
14.71038002002925
 20
3.747518090531073
 30
0.0
 10
14.71017893092505
 20
3.753986851007982
 30
0.0
 10
14.71037844285975
 20
3.747518090531073
 30
0.0
 10
14.71065365892784
 20
3.741069044672347
 30
0.0
 10
14.71091783480981
 20
3.734616055889958
 30
0.0
  0
SPLINE
  5
14C
330
70
100
AcDbEntity
  8
Livello 2
100
AcDbSpline
210
0.0
220
0.0
230
1.0
 70
     9
 71
     3
 72
    11
 73
     7
 74
     0
 42
0.000000001
 43
0.0000000001
 40
0.0
 40
0.0
 40
0.0
 40
0.0
 40
1.0
 40
1.0
 40
1.0
 40
2.0
 40
2.0
 40
2.0
 40
2.0
 10
14.7296412018708
 20
3.534604158440098
 30
0.0
 10
14.72843230149157
 20
3.542813325399039
 30
0.0
 10
14.72728096779706
 20
3.55103905263709
 30
0.0
 10
14.72617773777057
 20
3.559281340154317
 30
0.0
 10
14.72727939062762
 20
3.551038264052435
 30
0.0
 10
14.72843387866101
 20
3.542814113983758
 30
0.0
 10
14.7296412018708
 20
3.534604158440098
 30
0.0
  0
SPLINE
  5
14D
330
70
100
AcDbEntity
  8
Livello 2
100
AcDbSpline
210
0.0
220
0.0
230
1.0
 70
     9
 71
     3
 72
    11
 73
     7
 74
     0
 42
0.000000001
 43
0.0000000001
 40
0.0
 40
0.0
 40
0.0
 40
0.0
 40
1.0
 40
1.0
 40
1.0
 40
2.0
 40
2.0
 40
2.0
 40
2.0
 10
14.53301154429487
 20
3.674743549435864
 30
0.0
 10
14.53365502942823
 20
3.665014779717146
 30
0.0
 10
14.53428826296024
 20
3.655285221413708
 30
0.0
 10
14.53506501891166
 20
3.645592726592156
 30
0.0
 10
14.53428905154496
 20
3.655285221413708
 30
0.0
 10
14.53365345225879
 20
3.665015568301801
 30
0.0
 10
14.53301154429487
 20
3.674743549435864
 30
0.0
  0
SPLINE
  5
14E
330
70
100
AcDbEntity
  8
Livello 2
100
AcDbSpline
210
0.0
220
0.0
230
1.0
 70
     9
 71
     3
 72
    11
 73
     7
 74
     0
 42
0.000000001
 43
0.0000000001
 40
0.0
 40
0.0
 40
0.0
 40
0.0
 40
1.0
 40
1.0
 40
1.0
 40
2.0
 40
2.0
 40
2.0
 40
2.0
 10
18.6530268381726
 20
3.32359465845347
 30
0.0
 10
18.65491234424355
 20
3.33140953305127
 30
0.0
 10
18.65684437681315
 20
3.339204693030951
 30
0.0
 10
18.65864156139518
 20
3.347052688187038
 30
0.0
 10
18.65684595398265
 20
3.339203904446232
 30
0.0
 10
18.65491155565883
 20
3.33140953305127
 30
0.0
 10
18.6530268381726
 20
3.32359465845347
 30
0.0
  0
SPLINE
  5
14F
330
70
100
AcDbEntity
  8
Livello 2
100
AcDbSpline
210
0.0
220
0.0
230
1.0
 70
     9
 71
     3
 72
    11
 73
     7
 74
     0
 42
0.000000001
 43
0.0000000001
 40
0.0
 40
0.0
 40
0.0
 40
0.0
 40
1.0
 40
1.0
 40
1.0
 40
2.0
 40
2.0
 40
2.0
 40
2.0
 10
14.72146752122444
 20
3.597713016594477
 30
0.0
 10
14.72073650318688
 20
3.604165216792147
 30
0.0
 10
14.71991479790631
 20
3.610590605109286
 30
0.0
 10
14.71924923240067
 20
3.617061731340225
 30
0.0
 10
14.71991400932159
 20
3.610589027939782
 30
0.0
 10
14.72073808035638
 20
3.604166793961586
 30
0.0
 10
14.72146752122444
 20
3.597713016594477
 30
0.0
  0
SPLINE
  5
150
330
70
100
AcDbEntity
  8
Livello 2
100
AcDbSpline
210
0.0
220
0.0
230
1.0
 70
     9
 71
     3
 72
    11
 73
     7
 74
     0
 42
0.000000001
 43
0.0000000001
 40
0.0
 40
0.0
 40
0.0
 40
0.0
 40
1.0
 40
1.0
 40
1.0
 40
2.0
 40
2.0
 40
2.0
 40
2.0
 10
14.73898041073676
 20
3.476675513326459
 30
0.0
 10
14.73760827332
 20
3.484341345411679
 30
0.0
 10
14.73642303048241
 20
3.492069475690003
 30
0.0
 10
14.73514394606282
 20
3.499766851164135
 30
0.0
 10
14.73642224189769
 20
3.492068687105283
 30
0.0
 10
14.73761063907416
 20
3.484342133996399
 30
0.0
 10
14.73898041073676
 20
3.476675513326459
 30
0.0
  0
SPLINE
  5
151
330
70
100
AcDbEntity
  8
Livello 2
100
AcDbSpline
210
0.0
220
0.0
230
1.0
 70
     9
 71
     3
 72
    11
 73
     7
 74
     0
 42
0.000000001
 43
0.0000000001
 40
0.0
 40
0.0
 40
0.0
 40
0.0
 40
1.0
 40
1.0
 40
1.0
 40
2.0
 40
2.0
 40
2.0
 40
2.0
 10
14.52993054378492
 20
3.734254884087103
 30
0.0
 10
14.53034533934883
 20
3.723278573337764
 30
0.0
 10
14.53073568878638
 20
3.712296742495324
 30
0.0
 10
14.53131924148086
 20
3.70136380390569
 30
0.0
 10
14.53073726595581
 20
3.712296742495324
 30
0.0
 10
14.53034297359467
 20
3.723278573337764
 30
0.0
 10
14.52993054378492
 20
3.734254884087103
 30
0.0
  0
SPLINE
  5
152
330
70
100
AcDbEntity
  8
Livello 2
100
AcDbSpline
210
0.0
220
0.0
230
1.0
 70
     9
 71
     3
 72
    11
 73
     7
 74
     0
 42
0.000000001
 43
0.0000000001
 40
0.0
 40
0.0
 40
0.0
 40
0.0
 40
1.0
 40
1.0
 40
1.0
 40
2.0
 40
2.0
 40
2.0
 40
2.0
 10
18.7076591991472
 20
3.692782424957886
 30
0.0
 10
18.70839652586252
 20
3.70560560112685
 30
0.0
 10
18.70897850138756
 20
3.718466629362482
 30
0.0
 10
18.70948319560977
 20
3.731349737970264
 30
0.0
 10
18.70898165572644
 20
3.718466629362482
 30
0.0
 10
18.70839337152364
 20
3.70560560112685
 30
0.0
 10
18.7076591991472
 20
3.692782424957886
 30
0.0
  0
SPLINE
  5
153
330
70
100
AcDbEntity
  8
Livello 2
100
AcDbSpline
210
0.0
220
0.0
230
1.0
 70
     9
 71
     3
 72
    11
 73
     7
 74
     0
 42
0.000000001
 43
0.0000000001
 40
0.0
 40
0.0
 40
0.0
 40
0.0
 40
1.0
 40
1.0
 40
1.0
 40
2.0
 40
2.0
 40
2.0
 40
2.0
 10
14.5283163108584
 20
3.809321840970045
 30
0.0
 10
14.52835495150986
 20
3.791979285757792
 30
0.0
 10
14.52858521824875
 20
3.774680102705181
 30
0.0
 10
14.52904654031131
 20
3.757437697752637
 30
0.0
 10
14.52858916117234
 20
3.774680891289901
 30
0.0
 10
14.52835179717092
 20
3.791978497173008
 30
0.0
 10
14.5283163108584
 20
3.809321840970045
 30
0.0
  0
SPLINE
  5
154
330
70
100
AcDbEntity
  8
Livello 2
100
AcDbSpline
210
0.0
220
0.0
230
1.0
 70
     9
 71
     3
 72
    11
 73
     7
 74
     0
 42
0.000000001
 43
0.0000000001
 40
0.0
 40
0.0
 40
0.0
 40
0.0
 40
1.0
 40
1.0
 40
1.0
 40
2.0
 40
2.0
 40
2.0
 40
2.0
 10
18.71031751824597
 20
3.753231386843987
 30
0.0
 10
18.71087662481402
 20
3.772663691570331
 30
0.0
 10
18.7112157162446
 20
3.792149620057736
 30
0.0
 10
18.71123779661688
 20
3.811709675509039
 30
0.0
 10
18.71121965916826
 20
3.792148831473017
 30
0.0
 10
18.71087189330571
 20
3.772665268739706
 30
0.0
 10
18.71031751824597
 20
3.753231386843987
 30
0.0
  0
SPLINE
  5
155
330
70
100
AcDbEntity
  8
Livello 2
100
AcDbSpline
210
0.0
220
0.0
230
1.0
 70
     9
 71
     3
 72
    11
 73
     7
 74
     0
 42
0.000000001
 43
0.0000000001
 40
0.0
 40
0.0
 40
0.0
 40
0.0
 40
1.0
 40
1.0
 40
1.0
 40
2.0
 40
2.0
 40
2.0
 40
2.0
 10
18.02515489371154
 20
2.266459774760333
 30
0.0
 10
18.02524242661581
 20
2.266539421817268
 30
0.0
 10
18.02533074810465
 20
2.266618280289484
 30
0.0
 10
18.02541828100879
 20
2.266697927346419
 30
0.0
 10
18.02533074810465
 20
2.266618280289484
 30
0.0
 10
18.02524242661581
 20
2.266539421817268
 30
0.0
 10
18.02515489371154
 20
2.266459774760333
 30
0.0
  0
SPLINE
  5
156
330
70
100
AcDbEntity
  8
Livello 2
100
AcDbSpline
210
0.0
220
0.0
230
1.0
 70
     9
 71
     3
 72
    11
 73
     7
 74
     0
 42
0.000000001
 43
0.0000000001
 40
0.0
 40
0.0
 40
0.0
 40
0.0
 40
1.0
 40
1.0
 40
1.0
 40
2.0
 40
2.0
 40
2.0
 40
2.0
 10
18.47884818763991
 20
2.856590054413173
 30
0.0
 10
18.4803330926719
 20
2.859461291386942
 30
0.0
 10
18.48184717533864
 20
2.862315179496945
 30
0.0
 10
18.48331946301518
 20
2.865194302317974
 30
0.0
 10
18.48184796392336
 20
2.862315179496945
 30
0.0
 10
18.4803330926719
 20
2.859462079971726
 30
0.0
 10
18.47884818763991
 20
2.856590054413173
 30
0.0
  0
SPLINE
  5
157
330
70
100
AcDbEntity
  8
Livello 2
100
AcDbSpline
210
0.0
220
0.0
230
1.0
 70
     9
 71
     3
 72
    14
 73
    10
 74
     0
 42
0.000000001
 43
0.0000000001
 40
0.0
 40
0.0
 40
0.0
 40
0.0
 40
1.0
 40
1.0
 40
1.0
 40
2.0
 40
2.0
 40
2.0
 40
3.0
 40
3.0
 40
3.0
 40
3.0
 10
14.70913799909167
 20
3.813659056942595
 30
0.0
 10
14.70913799909167
 20
3.813241107039802
 30
0.0
 10
14.70916007946388
 20
3.812827100060608
 30
0.0
 10
14.70916007946388
 20
3.812409150157815
 30
0.0
 10
14.70915929087916
 20
3.812905169948103
 30
0.0
 10
14.70914115343054
 20
3.813396458230074
 30
0.0
 10
14.70914115343054
 20
3.813892478020363
 30
0.0
 10
14.70914115343054
 20
3.813814408132867
 30
0.0
 10
14.70913799909167
 20
3.813737126830091
 30
0.0
 10
14.70913799909167
 20
3.813659056942595
 30
0.0
  0
SPLINE
  5
158
330
70
100
AcDbEntity
  8
Livello 2
100
AcDbSpline
210
0.0
220
0.0
230
1.0
 70
     9
 71
     3
 72
    11
 73
     7
 74
     0
 42
0.000000001
 43
0.0000000001
 40
0.0
 40
0.0
 40
0.0
 40
0.0
 40
1.0
 40
1.0
 40
1.0
 40
2.0
 40
2.0
 40
2.0
 40
2.0
 10
18.50170531581504
 20
2.902139496556644
 30
0.0
 10
18.50374538449154
 20
2.906332401524933
 30
0.0
 10
18.50576731571949
 20
2.91053476950992
 30
0.0
 10
18.50778057251546
 20
2.914743446172729
 30
0.0
 10
18.50576810430421
 20
2.91053476950992
 30
0.0
 10
18.50374459590682
 20
2.906332401524933
 30
0.0
 10
18.50170531581504
 20
2.902139496556644
 30
0.0
  0
SPLINE
  5
159
330
70
100
AcDbEntity
  8
Livello 2
100
AcDbSpline
210
0.0
220
0.0
230
1.0
 70
     9
 71
     3
 72
    11
 73
     7
 74
     0
 42
0.000000001
 43
0.0000000001
 40
0.0
 40
0.0
 40
0.0
 40
0.0
 40
1.0
 40
1.0
 40
1.0
 40
2.0
 40
2.0
 40
2.0
 40
2.0
 10
14.53754590644796
 20
3.617743068540258
 30
0.0
 10
14.53840388662582
 20
3.608571039635494
 30
0.0
 10
14.53928000425229
 20
3.599405319408486
 30
0.0
 10
14.5402570607232
 20
3.590267199646728
 30
0.0
 10
14.53928079283695
 20
3.599404530823766
 30
0.0
 10
14.53840309804103
 20
3.608571039635494
 30
0.0
 10
14.53754590644796
 20
3.617743068540258
 30
0.0
  0
SPLINE
  5
15A
330
70
100
AcDbEntity
  8
Livello 2
100
AcDbSpline
210
0.0
220
0.0
230
1.0
 70
     9
 71
     3
 72
    11
 73
     7
 74
     0
 42
0.000000001
 43
0.0000000001
 40
0.0
 40
0.0
 40
0.0
 40
0.0
 40
1.0
 40
1.0
 40
1.0
 40
2.0
 40
2.0
 40
2.0
 40
2.0
 10
18.4078014356711
 20
2.730032458089246
 30
0.0
 10
18.40819888237112
 20
2.73068461765459
 30
0.0
 10
18.40858134596146
 20
2.731346240236569
 30
0.0
 10
18.40897800407676
 20
2.731999188386633
 30
0.0
 10
18.40858134596146
 20
2.731346240236569
 30
0.0
 10
18.40819888237112
 20
2.730685406239309
 30
0.0
 10
18.4078014356711
 20
2.730032458089246
 30
0.0
  0
SPLINE
  5
15B
330
70
100
AcDbEntity
  8
Livello 2
100
AcDbSpline
210
0.0
220
0.0
230
1.0
 70
     9
 71
     3
 72
    11
 73
     7
 74
     0
 42
0.000000001
 43
0.0000000001
 40
0.0
 40
0.0
 40
0.0
 40
0.0
 40
1.0
 40
1.0
 40
1.0
 40
2.0
 40
2.0
 40
2.0
 40
2.0
 10
18.35119997864501
 20
2.64211551315681
 30
0.0
 10
18.35235131233952
 20
2.643810970309761
 30
0.0
 10
18.35351920631321
 20
2.645494598691854
 30
0.0
 10
18.35466580849947
 20
2.647193998768339
 30
0.0
 10
18.35351920631321
 20
2.645495387276509
 30
0.0
 10
18.35235131233952
 20
2.64381175889448
 30
0.0
 10
18.35119997864501
 20
2.64211551315681
 30
0.0
  0
SPLINE
  5
15C
330
70
100
AcDbEntity
  8
Livello 2
100
AcDbSpline
210
0.0
220
0.0
230
1.0
 70
     9
 71
     3
 72
    11
 73
     7
 74
     0
 42
0.000000001
 43
0.0000000001
 40
0.0
 40
0.0
 40
0.0
 40
0.0
 40
1.0
 40
1.0
 40
1.0
 40
2.0
 40
2.0
 40
2.0
 40
2.0
 10
18.19924285700128
 20
2.444578194565548
 30
0.0
 10
18.19995652617495
 20
2.445399899846181
 30
0.0
 10
18.20067650402637
 20
2.446215296448993
 30
0.0
 10
18.20138938461532
 20
2.447038578899065
 30
0.0
 10
18.20067729261109
 20
2.446215296448993
 30
0.0
 10
18.19995652617495
 20
2.445399899846181
 30
0.0
 10
18.19924285700128
 20
2.444578194565548
 30
0.0
  0
SPLINE
  5
15D
330
70
100
AcDbEntity
  8
Livello 2
100
AcDbSpline
210
0.0
220
0.0
230
1.0
 70
     9
 71
     3
 72
    11
 73
     7
 74
     0
 42
0.000000001
 43
0.0000000001
 40
0.0
 40
0.0
 40
0.0
 40
0.0
 40
1.0
 40
1.0
 40
1.0
 40
2.0
 40
2.0
 40
2.0
 40
2.0
 10
18.37903071066358
 20
2.684176256488893
 30
0.0
 10
18.38072616781646
 20
2.686807763707138
 30
0.0
 10
18.38240664185968
 20
2.689447945357362
 30
0.0
 10
18.38409105882649
 20
2.692087338422803
 30
0.0
 10
18.3824074304444
 20
2.689447945357362
 30
0.0
 10
18.38072616781646
 20
2.686807763707138
 30
0.0
 10
18.37903071066358
 20
2.684176256488893
 30
0.0
  0
SPLINE
  5
15E
330
70
100
AcDbEntity
  8
Livello 2
100
AcDbSpline
210
0.0
220
0.0
230
1.0
 70
     9
 71
     3
 72
    11
 73
     7
 74
     0
 42
0.000000001
 43
0.0000000001
 40
0.0
 40
0.0
 40
0.0
 40
0.0
 40
1.0
 40
1.0
 40
1.0
 40
2.0
 40
2.0
 40
2.0
 40
2.0
 10
18.06200624636833
 20
2.300763998764059
 30
0.0
 10
18.06206065871411
 20
2.300816045355744
 30
0.0
 10
18.06211585964467
 20
2.300868091947366
 30
0.0
 10
18.06217027199052
 20
2.30092092712377
 30
0.0
 10
18.06211585964467
 20
2.300868880532149
 30
0.0
 10
18.06206144729883
 20
2.300816045355744
 30
0.0
 10
18.06200624636833
 20
2.300763998764059
 30
0.0
  0
SPLINE
  5
15F
330
70
100
AcDbEntity
  8
Livello 2
100
AcDbSpline
210
0.0
220
0.0
230
1.0
 70
     9
 71
     3
 72
    14
 73
    10
 74
     0
 42
0.000000001
 43
0.0000000001
 40
0.0
 40
0.0
 40
0.0
 40
0.0
 40
1.0
 40
1.0
 40
1.0
 40
2.0
 40
2.0
 40
2.0
 40
3.0
 40
3.0
 40
3.0
 40
3.0
 10
15.03617275785155
 20
2.746207119327876
 30
0.0
 10
15.20776248474104
 20
2.492477619181344
 30
0.0
 10
15.4384534822263
 20
2.281833233921104
 30
0.0
 10
15.70859816195171
 20
2.134643106923514
 30
0.0
 10
15.70678836001403
 20
2.135773937415252
 30
0.0
 10
15.70503139325289
 20
2.136978106286167
 30
0.0
 10
15.70322711140831
 20
2.138116034040446
 30
0.0
 10
15.43551521555111
 20
2.285101917594893
 30
0.0
 10
15.20659380218263
 20
2.49430634715229
 30
0.0
 10
15.03617275785155
 20
2.746207119327876
 30
0.0
  0
SPLINE
  5
160
330
70
100
AcDbEntity
  8
Livello 2
100
AcDbSpline
210
0.0
220
0.0
230
1.0
 70
     9
 71
     3
 72
    17
 73
    13
 74
     0
 42
0.000000001
 43
0.0000000001
 40
0.0
 40
0.0
 40
0.0
 40
0.0
 40
1.0
 40
1.0
 40
1.0
 40
2.0
 40
2.0
 40
2.0
 40
3.0
 40
3.0
 40
3.0
 40
4.0
 40
4.0
 40
4.0
 40
4.0
 10
16.67083002865778
 20
1.904193416363346
 30
0.0
 10
16.6729678818399
 20
1.904139792602157
 30
0.0
 10
16.67509075191227
 20
1.904018350554956
 30
0.0
 10
16.67723018226383
 20
1.903971035471588
 30
0.0
 10
17.7042703072007
 20
1.934471915359848
 30
0.0
 10
18.53038614216421
 20
2.779363952560688
 30
0.0
 10
18.53038614216421
 20
3.813659056942595
 30
0.0
 10
18.53038614216421
 20
3.813737126830091
 30
0.0
 10
18.53038298782533
 20
3.813814408132867
 30
0.0
 10
18.53038298782533
 20
3.813892478020363
 30
0.0
 10
18.53025760285453
 20
2.777550207699414
 30
0.0
 10
17.70076583669492
 20
1.93135385136795
 30
0.0
 10
16.67083002865778
 20
1.904193416363346
 30
0.0
  0
SPLINE
  5
161
330
70
100
AcDbEntity
  8
Livello 2
100
AcDbSpline
210
0.0
220
0.0
230
1.0
 70
     9
 71
     3
 72
    11
 73
     7
 74
     0
 42
0.000000001
 43
0.0000000001
 40
0.0
 40
0.0
 40
0.0
 40
0.0
 40
1.0
 40
1.0
 40
1.0
 40
2.0
 40
2.0
 40
2.0
 40
2.0
 10
18.61533012269366
 20
3.187481781049711
 30
0.0
 10
18.61733785939659
 20
3.193863008622361
 30
0.0
 10
18.61925490885646
 20
3.200282876846399
 30
0.0
 10
18.62120350170516
 20
3.206690127714923
 30
0.0
 10
18.61925569744117
 20
3.200282088261743
 30
0.0
 10
18.61733785939659
 20
3.193863008622361
 30
0.0
 10
18.61533012269366
 20
3.187481781049711
 30
0.0
  0
SPLINE
  5
162
330
70
100
AcDbEntity
  8
Livello 2
100
AcDbSpline
210
0.0
220
0.0
230
1.0
 70
     9
 71
     3
 72
    11
 73
     7
 74
     0
 42
0.000000001
 43
0.0000000001
 40
0.0
 40
0.0
 40
0.0
 40
0.0
 40
1.0
 40
1.0
 40
1.0
 40
2.0
 40
2.0
 40
2.0
 40
2.0
 10
18.63170666162115
 20
3.241920150182652
 30
0.0
 10
18.63236434127953
 20
3.244229126249431
 30
0.0
 10
18.63295104831295
 20
3.246565702781524
 30
0.0
 10
18.63360084212407
 20
3.248877833187245
 30
0.0
 10
18.63295183689761
 20
3.246566491366243
 30
0.0
 10
18.63236355269481
 20
3.244228337664711
 30
0.0
 10
18.63170666162115
 20
3.241920150182652
 30
0.0
  0
SPLINE
  5
163
330
70
100
AcDbEntity
  8
Livello 2
100
AcDbSpline
210
0.0
220
0.0
230
1.0
 70
     9
 71
     3
 72
    11
 73
     7
 74
     0
 42
0.000000001
 43
0.0000000001
 40
0.0
 40
0.0
 40
0.0
 40
0.0
 40
1.0
 40
1.0
 40
1.0
 40
2.0
 40
2.0
 40
2.0
 40
2.0
 10
18.23175935943968
 20
2.482943629889006
 30
0.0
 10
18.23284129767854
 20
2.484251891943228
 30
0.0
 10
18.2339137729009
 20
2.485567251260055
 30
0.0
 10
18.23499255680095
 20
2.486877879068436
 30
0.0
 10
18.2339137729009
 20
2.485567251260055
 30
0.0
 10
18.23284129767854
 20
2.484251891943228
 30
0.0
 10
18.23175935943968
 20
2.482943629889006
 30
0.0
  0
SPLINE
  5
164
330
70
100
AcDbEntity
  8
Livello 2
100
AcDbSpline
210
0.0
220
0.0
230
1.0
 70
     9
 71
     3
 72
    11
 73
     7
 74
     0
 42
0.000000001
 43
0.0000000001
 40
0.0
 40
0.0
 40
0.0
 40
0.0
 40
1.0
 40
1.0
 40
1.0
 40
2.0
 40
2.0
 40
2.0
 40
2.0
 10
18.52504584642494
 20
2.951665771454402
 30
0.0
 10
18.52663563322508
 20
2.955163144697705
 30
0.0
 10
18.52816548758628
 20
2.958693638499359
 30
0.0
 10
18.52973634835309
 20
2.962201263344017
 30
0.0
 10
18.528166276171
 20
2.958693638499359
 30
0.0
 10
18.52663563322508
 20
2.955163933282425
 30
0.0
 10
18.52504584642494
 20
2.951665771454402
 30
0.0
  0
SPLINE
  5
165
330
70
100
AcDbEntity
  8
Livello 2
100
AcDbSpline
210
0.0
220
0.0
230
1.0
 70
     9
 71
     3
 72
   122
 73
   118
 74
     0
 42
0.000000001
 43
0.0000000001
 40
0.0
 40
0.0
 40
0.0
 40
0.0
 40
1.0
 40
1.0
 40
1.0
 40
2.0
 40
2.0
 40
2.0
 40
3.0
 40
3.0
 40
3.0
 40
4.0
 40
4.0
 40
4.0
 40
5.0
 40
5.0
 40
5.0
 40
6.0
 40
6.0
 40
6.0
 40
7.0
 40
7.0
 40
7.0
 40
8.0
 40
8.0
 40
8.0
 40
9.0
 40
9.0
 40
9.0
 40
10.0
 40
10.0
 40
10.0
 40
11.0
 40
11.0
 40
11.0
 40
12.0
 40
12.0
 40
12.0
 40
13.0
 40
13.0
 40
13.0
 40
14.0
 40
14.0
 40
14.0
 40
15.0
 40
15.0
 40
15.0
 40
16.0
 40
16.0
 40
16.0
 40
17.0
 40
17.0
 40
17.0
 40
18.0
 40
18.0
 40
18.0
 40
19.0
 40
19.0
 40
19.0
 40
20.0
 40
20.0
 40
20.0
 40
21.0
 40
21.0
 40
21.0
 40
22.0
 40
22.0
 40
22.0
 40
23.0
 40
23.0
 40
23.0
 40
24.0
 40
24.0
 40
24.0
 40
25.0
 40
25.0
 40
25.0
 40
26.0
 40
26.0
 40
26.0
 40
27.0
 40
27.0
 40
27.0
 40
28.0
 40
28.0
 40
28.0
 40
29.0
 40
29.0
 40
29.0
 40
30.0
 40
30.0
 40
30.0
 40
31.0
 40
31.0
 40
31.0
 40
32.0
 40
32.0
 40
32.0
 40
33.0
 40
33.0
 40
33.0
 40
34.0
 40
34.0
 40
34.0
 40
35.0
 40
35.0
 40
35.0
 40
36.0
 40
36.0
 40
36.0
 40
37.0
 40
37.0
 40
37.0
 40
38.0
 40
38.0
 40
38.0
 40
39.0
 40
39.0
 40
39.0
 40
39.0
 10
14.98787115502735
 20
3.433424795648476
 30
0.0
 10
14.98787115502735
 20
4.278637786831343
 30
0.0
 10
15.6730519170104
 20
4.963817760229601
 30
0.0
 10
16.51826411960848
 20
4.963817760229601
 30
0.0
 10
17.36347711079128
 20
4.963817760229601
 30
0.0
 10
18.04865787277432
 20
4.278637786831343
 30
0.0
 10
18.04865787277432
 20
3.433424795648476
 30
0.0
 10
18.04865787277432
 20
2.620622636551255
 30
0.0
 10
17.41498352192679
 20
1.955934825745995
 30
0.0
 10
16.61472774576093
 20
1.906145163550933
 30
0.0
 10
16.63338329453578
 20
1.905287183373134
 30
0.0
 10
16.65209010131761
 20
1.904661047103665
 30
0.0
 10
16.67083002865778
 20
1.904193416363346
 30
0.0
 10
17.70076583669492
 20
1.93135385136795
 30
0.0
 10
18.53025760285453
 20
2.777550207699414
 30
0.0
 10
18.53038298782533
 20
3.813892478020363
 30
0.0
 10
18.53025523710037
 20
4.867303664654905
 30
0.0
 10
17.67321110932918
 20
5.724279974139954
 30
0.0
 10
16.61976522496678
 20
5.724279974139954
 30
0.0
 10
15.56631934060451
 20
5.724279974139954
 30
0.0
 10
14.70926890415557
 20
4.867303664654905
 30
0.0
 10
14.70914115343054
 20
3.813892478020363
 30
0.0
 10
14.70914115343054
 20
3.813396458230074
 30
0.0
 10
14.70915929087916
 20
3.812905169948103
 30
0.0
 10
14.70916007946388
 20
3.812409150157815
 30
0.0
 10
14.70917269681939
 20
3.792856980553644
 30
0.0
 10
14.70957960653611
 20
3.773398652531489
 30
0.0
 10
14.71017893092505
 20
3.753986851007982
 30
0.0
 10
14.71038002002925
 20
3.747518090531073
 30
0.0
 10
14.71065208175841
 20
3.741068256087627
 30
0.0
 10
14.71091783480981
 20
3.734616055889958
 30
0.0
 10
14.71149902175013
 20
3.72041601079591
 30
0.0
 10
14.71225290874462
 20
3.706260915031008
 30
0.0
 10
14.71314322089612
 20
3.692141305578744
 30
0.0
 10
14.71354776485861
 20
3.685748249235236
 30
0.0
 10
14.71389395355173
 20
3.679340209781992
 30
0.0
 10
14.71436158429199
 20
3.67296450230238
 30
0.0
 10
14.71572977878515
 20
3.654256906935838
 30
0.0
 10
14.71734401171167
 20
3.635617129855437
 30
0.0
 10
14.71924923240067
 20
3.617061731340225
 30
0.0
 10
14.71991479790631
 20
3.610590605109286
 30
0.0
 10
14.72073650318688
 20
3.604165216792147
 30
0.0
 10
14.72146752122444
 20
3.597713016594477
 30
0.0
 10
14.72291930569814
 20
3.584866971468581
 30
0.0
 10
14.72447124043161
 20
3.572050103977374
 30
0.0
 10
14.72617773777057
 20
3.559281340154317
 30
0.0
 10
14.72728096779706
 20
3.55103905263709
 30
0.0
 10
14.72843230149157
 20
3.542813325399039
 30
0.0
 10
14.7296412018708
 20
3.534604158440098
 30
0.0
 10
14.73135400788765
 20
3.522952030583827
 30
0.0
 10
14.73322137650998
 20
3.511350372149673
 30
0.0
 10
14.73514394606282
 20
3.499766851164135
 30
0.0
 10
14.73642303048241
 20
3.492069475690003
 30
0.0
 10
14.73760827332
 20
3.484341345411679
 30
0.0
 10
14.73898041073676
 20
3.476675513326459
 30
0.0
 10
14.74199201579113
 20
3.459825034980833
 30
0.0
 10
14.74526700814274
 20
3.443066032463063
 30
0.0
 10
14.74871864347212
 20
3.426370905307709
 30
0.0
 10
14.7506207098223
 20
3.41718152753905
 30
0.0
 10
14.75267891594736
 20
3.408048927870393
 30
0.0
 10
14.7547126759461
 20
3.398907653769756
 30
0.0
 10
14.75676693914768
 20
3.389664652239973
 30
0.0
 10
14.75887561469505
 20
3.380442153912898
 30
0.0
 10
14.76106314871462
 20
3.37124962180536
 30
0.0
 10
14.76337054761202
 20
3.361566590000507
 30
0.0
 10
14.76569844971214
 20
3.351890655458194
 30
0.0
 10
14.76815331395262
 20
3.342264401753407
 30
0.0
 10
14.77036687126807
 20
3.333573409529195
 30
0.0
 10
14.77272789392653
 20
3.324942349743864
 30
0.0
 10
14.77506052753503
 20
3.316299461187739
 30
0.0
 10
14.77977153266588
 20
3.298860698639248
 30
0.0
 10
14.78471674745935
 20
3.281519720596434
 30
0.0
 10
14.78990642351666
 20
3.264281258567488
 30
0.0
 10
14.79206635707093
 20
3.257099617501698
 30
0.0
 10
14.79418528421964
 20
3.249900627572078
 30
0.0
 10
14.79642801916985
 20
3.242754472818734
 30
0.0
 10
14.79981341338259
 20
3.231972153911055
 30
0.0
 10
14.80333444416754
 20
3.221249767442321
 30
0.0
 10
14.80690594437474
 20
3.210551038515239
 30
0.0
 10
14.80903827746376
 20
3.204156405002292
 30
0.0
 10
14.81122186855973
 20
3.197786217615716
 30
0.0
 10
14.81342044276545
 20
3.191421550322178
 30
0.0
 10
14.81727898781154
 20
3.180259133578374
 30
0.0
 10
14.82114463012018
 20
3.169100659758169
 30
0.0
 10
14.82520347568575
 20
3.158032873181037
 30
0.0
 10
14.82549052052458
 20
3.157249808551856
 30
0.0
 10
14.82580122290519
 20
3.156477784108686
 30
0.0
 10
14.8260890563288
 20
3.155695508064225
 30
0.0
 10
14.83548188895588
 20
3.130187158052737
 30
0.0
 10
14.84546458295514
 20
3.104964275710767
 30
0.0
 10
14.85590307892392
 20
3.079977180200723
 30
0.0
 10
14.85766004568513
 20
3.075767714953195
 30
0.0
 10
14.85939414348941
 20
3.071545632350089
 30
0.0
 10
14.86118028788543
 20
3.067351150212362
 30
0.0
 10
14.86624773331069
 20
3.055464024108755
 30
0.0
 10
14.87142715776665
 20
3.04363683044403
 30
0.0
 10
14.87672644710037
 20
3.031873512141848
 30
0.0
 10
14.878257878631
 20
3.028473923404159
 30
0.0
 10
14.87983189373663
 20
3.025097203623338
 30
0.0
 10
14.88138225130066
 20
3.021707866486939
 30
0.0
 10
14.8990481262491
 20
2.983106644331618
 30
0.0
 10
14.91793551893235
 20
2.945178873529007
 30
0.0
 10
14.93804758368922
 20
2.908001835382009
 30
0.0
 10
14.9392462324671
 20
2.905785123727678
 30
0.0
 10
14.94044093832138
 20
2.90356525773447
 30
0.0
 10
14.94164747294646
 20
2.901354066173241
 30
0.0
 10
14.97060430394844
 20
2.848329629447332
 30
0.0
 10
15.00197578137001
 20
2.796805080863274
 30
0.0
 10
15.03566017778202
 20
2.746963372076526
 30
0.0
 10
15.0358305120821
 20
2.74671102496536
 30
0.0
 10
15.03600242355148
 20
2.746459466439042
 30
0.0
 10
15.03617275785155
 20
2.746207119327876
 30
0.0
 10
15.20659380218263
 20
2.49430634715229
 30
0.0
 10
15.43551521555111
 20
2.285101917594893
 30
0.0
 10
15.70322711140831
 20
2.138116034040446
 30
0.0
 10
15.27347998115667
 20
2.409094247817342
 30
0.0
 10
14.98787115502735
 20
2.887838512618105
 30
0.0
 10
14.98787115502735
 20
3.433424795648476
 30
0.0
  0
SPLINE
  5
166
330
70
100
AcDbEntity
  8
Livello 2
100
AcDbSpline
210
0.0
220
0.0
230
1.0
 70
     9
 71
     3
 72
    11
 73
     7
 74
     0
 42
0.000000001
 43
0.0000000001
 40
0.0
 40
0.0
 40
0.0
 40
0.0
 40
1.0
 40
1.0
 40
1.0
 40
2.0
 40
2.0
 40
2.0
 40
2.0
 10
18.59779120988546
 20
3.13438794886835
 30
0.0
 10
18.59992038863566
 20
3.14056651016736
 30
0.0
 10
18.60202669842886
 20
3.14675374589835
 30
0.0
 10
18.604099099079
 20
3.15295833049317
 30
0.0
 10
18.60202748701358
 20
3.14675374589835
 30
0.0
 10
18.59991960005094
 20
3.14056651016736
 30
0.0
 10
18.59779120988546
 20
3.13438794886835
 30
0.0
  0
SPLINE
  5
167
330
70
100
AcDbEntity
  8
Livello 2
100
AcDbSpline
210
0.0
220
0.0
230
1.0
 70
     9
 71
     3
 72
    11
 73
     7
 74
     0
 42
0.000000001
 43
0.0000000001
 40
0.0
 40
0.0
 40
0.0
 40
0.0
 40
1.0
 40
1.0
 40
1.0
 40
2.0
 40
2.0
 40
2.0
 40
2.0
 10
18.58003622486345
 20
3.084935800934361
 30
0.0
 10
18.58180502039552
 20
3.089677560869407
 30
0.0
 10
18.58362113101095
 20
3.094396451847521
 30
0.0
 10
18.58535680598467
 20
3.099153983477023
 30
0.0
 10
18.58362113101095
 20
3.094396451847521
 30
0.0
 10
18.58180502039552
 20
3.089677560869407
 30
0.0
 10
18.58003622486345
 20
3.084935800934361
 30
0.0
  0
SPLINE
  5
168
330
70
100
AcDbEntity
  8
Livello 2
100
AcDbSpline
210
0.0
220
0.0
230
1.0
 70
     9
 71
     3
 72
    11
 73
     7
 74
     0
 42
0.000000001
 43
0.0000000001
 40
0.0
 40
0.0
 40
0.0
 40
0.0
 40
1.0
 40
1.0
 40
1.0
 40
2.0
 40
2.0
 40
2.0
 40
2.0
 10
14.66891938967089
 20
3.060176606409048
 30
0.0
 10
14.67170861383357
 20
3.052983925157184
 30
0.0
 10
14.6745175526143
 20
3.045802284091459
 30
0.0
 10
14.67738405807975
 20
3.038648243490919
 30
0.0
 10
14.67451834119902
 20
3.045802284091459
 30
0.0
 10
14.67170782524885
 20
3.052983925157184
 30
0.0
 10
14.66891938967089
 20
3.060176606409048
 30
0.0
  0
SPLINE
  5
169
330
70
100
AcDbEntity
  8
Livello 2
100
AcDbSpline
210
0.0
220
0.0
230
1.0
 70
     9
 71
     3
 72
    11
 73
     7
 74
     0
 42
0.000000001
 43
0.0000000001
 40
0.0
 40
0.0
 40
0.0
 40
0.0
 40
1.0
 40
1.0
 40
1.0
 40
2.0
 40
2.0
 40
2.0
 40
2.0
 10
14.82520347568575
 20
3.158032873181037
 30
0.0
 10
14.82114463012018
 20
3.169100659758169
 30
0.0
 10
14.81727898781154
 20
3.180259133578374
 30
0.0
 10
14.81342044276545
 20
3.191421550322178
 30
0.0
 10
14.8172774106421
 20
3.180257556408935
 30
0.0
 10
14.82114620728961
 20
3.169102236927673
 30
0.0
 10
14.82520347568575
 20
3.158032873181037
 30
0.0
  0
SPLINE
  5
16A
330
70
100
AcDbEntity
  8
Livello 2
100
AcDbSpline
210
0.0
220
0.0
230
1.0
 70
     9
 71
     3
 72
    11
 73
     7
 74
     0
 42
0.000000001
 43
0.0000000001
 40
0.0
 40
0.0
 40
0.0
 40
0.0
 40
1.0
 40
1.0
 40
1.0
 40
2.0
 40
2.0
 40
2.0
 40
2.0
 10
14.68904407178334
 20
3.010160620398694
 30
0.0
 10
14.69187509093635
 20
3.003385889049623
 30
0.0
 10
14.69475105941844
 20
2.996636392411643
 30
0.0
 10
14.69765226261168
 20
2.989897935959865
 30
0.0
 10
14.69475263658788
 20
2.996636392411643
 30
0.0
 10
14.69187509093635
 20
3.003385889049623
 30
0.0
 10
14.68904407178334
 20
3.010160620398694
 30
0.0
  0
SPLINE
  5
16B
330
70
100
AcDbEntity
  8
Livello 2
100
AcDbSpline
210
0.0
220
0.0
230
1.0
 70
     9
 71
     3
 72
    11
 73
     7
 74
     0
 42
0.000000001
 43
0.0000000001
 40
0.0
 40
0.0
 40
0.0
 40
0.0
 40
1.0
 40
1.0
 40
1.0
 40
2.0
 40
2.0
 40
2.0
 40
2.0
 10
14.61655894128112
 20
3.212602935962534
 30
0.0
 10
14.61881035066324
 20
3.2051200555329
 30
0.0
 10
14.62099078742034
 20
3.197607208883729
 30
0.0
 10
14.62332342102884
 20
3.19015902618182
 30
0.0
 10
14.62099078742034
 20
3.197607208883729
 30
0.0
 10
14.61881035066324
 20
3.20511926694818
 30
0.0
 10
14.61655894128112
 20
3.212602935962534
 30
0.0
  0
SPLINE
  5
16C
330
70
100
AcDbEntity
  8
Livello 2
100
AcDbSpline
210
0.0
220
0.0
230
1.0
 70
     9
 71
     3
 72
    11
 73
     7
 74
     0
 42
0.000000001
 43
0.0000000001
 40
0.0
 40
0.0
 40
0.0
 40
0.0
 40
1.0
 40
1.0
 40
1.0
 40
2.0
 40
2.0
 40
2.0
 40
2.0
 10
14.80690594437474
 20
3.210551038515239
 30
0.0
 10
14.80333444416754
 20
3.221249767442321
 30
0.0
 10
14.79981341338259
 20
3.231972153911055
 30
0.0
 10
14.79642801916985
 20
3.242754472818734
 30
0.0
 10
14.79981183621315
 20
3.23196978815696
 30
0.0
 10
14.80333602133698
 20
3.22125213319648
 30
0.0
 10
14.80690594437474
 20
3.210551038515239
 30
0.0
  0
SPLINE
  5
16D
330
70
100
AcDbEntity
  8
Livello 2
100
AcDbSpline
210
0.0
220
0.0
230
1.0
 70
     9
 71
     3
 72
    11
 73
     7
 74
     0
 42
0.000000001
 43
0.0000000001
 40
0.0
 40
0.0
 40
0.0
 40
0.0
 40
1.0
 40
1.0
 40
1.0
 40
2.0
 40
2.0
 40
2.0
 40
2.0
 10
14.85590307892392
 20
3.079977180200723
 30
0.0
 10
14.84546458295514
 20
3.104964275710767
 30
0.0
 10
14.83548188895588
 20
3.130187158052737
 30
0.0
 10
14.8260890563288
 20
3.155695508064225
 30
0.0
 10
14.83547794603228
 20
3.130183215129075
 30
0.0
 10
14.84546852587874
 20
3.104968218634365
 30
0.0
 10
14.85590307892392
 20
3.079977180200723
 30
0.0
  0
SPLINE
  5
16E
330
70
100
AcDbEntity
  8
Livello 2
100
AcDbSpline
210
0.0
220
0.0
230
1.0
 70
     9
 71
     3
 72
    11
 73
     7
 74
     0
 42
0.000000001
 43
0.0000000001
 40
0.0
 40
0.0
 40
0.0
 40
0.0
 40
1.0
 40
1.0
 40
1.0
 40
2.0
 40
2.0
 40
2.0
 40
2.0
 10
14.6500950837654
 20
3.110694920887512
 30
0.0
 10
14.65276365446553
 20
3.103245161016164
 30
0.0
 10
14.65542512790325
 20
3.095793823975378
 30
0.0
 10
14.65817571141454
 20
3.088382704755418
 30
0.0
 10
14.65542591648797
 20
3.095793035390658
 30
0.0
 10
14.65276365446553
 20
3.103245161016164
 30
0.0
 10
14.6500950837654
 20
3.110694920887512
 30
0.0
  0
SPLINE
  5
16F
330
70
100
AcDbEntity
  8
Livello 2
100
AcDbSpline
210
0.0
220
0.0
230
1.0
 70
     9
 71
     3
 72
    11
 73
     7
 74
     0
 42
0.000000001
 43
0.0000000001
 40
0.0
 40
0.0
 40
0.0
 40
0.0
 40
1.0
 40
1.0
 40
1.0
 40
2.0
 40
2.0
 40
2.0
 40
2.0
 10
14.63259244585443
 20
3.161669037335436
 30
0.0
 10
14.63509068225468
 20
3.154078120798834
 30
0.0
 10
14.63755264375757
 20
3.146471432567775
 30
0.0
 10
14.64013525872308
 20
3.138918368097777
 30
0.0
 10
14.63755264375757
 20
3.146471432567775
 30
0.0
 10
14.6350914708394
 20
3.154078120798834
 30
0.0
 10
14.63259244585443
 20
3.161669037335436
 30
0.0
  0
SPLINE
  5
170
330
70
100
AcDbEntity
  8
Livello 2
100
AcDbSpline
210
0.0
220
0.0
230
1.0
 70
     9
 71
     3
 72
    11
 73
     7
 74
     0
 42
0.000000001
 43
0.0000000001
 40
0.0
 40
0.0
 40
0.0
 40
0.0
 40
1.0
 40
1.0
 40
1.0
 40
2.0
 40
2.0
 40
2.0
 40
2.0
 10
15.03566017778202
 20
2.746963372076526
 30
0.0
 10
15.00197578137001
 20
2.796805080863274
 30
0.0
 10
14.97060430394844
 20
2.848329629447332
 30
0.0
 10
14.94164747294646
 20
2.901354066173241
 30
0.0
 10
14.9705972066859
 20
2.848317800676538
 30
0.0
 10
15.00198051287833
 20
2.796816909634132
 30
0.0
 10
15.03566017778202
 20
2.746963372076526
 30
0.0
  0
SPLINE
  5
171
330
70
100
AcDbEntity
  8
Livello 2
100
AcDbSpline
210
0.0
220
0.0
230
1.0
 70
     9
 71
     3
 72
    11
 73
     7
 74
     0
 42
0.000000001
 43
0.0000000001
 40
0.0
 40
0.0
 40
0.0
 40
0.0
 40
1.0
 40
1.0
 40
1.0
 40
2.0
 40
2.0
 40
2.0
 40
2.0
 10
14.93804758368922
 20
2.908001835382009
 30
0.0
 10
14.91793551893235
 20
2.945178873529007
 30
0.0
 10
14.8990481262491
 20
2.983106644331618
 30
0.0
 10
14.88138225130066
 20
3.021707866486939
 30
0.0
 10
14.89904181757134
 20
2.983099547069078
 30
0.0
 10
14.9179418276101
 20
2.945185970791484
 30
0.0
 10
14.93804758368922
 20
2.908001835382009
 30
0.0
  0
SPLINE
  5
172
330
70
100
AcDbEntity
  8
Livello 2
100
AcDbSpline
210
0.0
220
0.0
230
1.0
 70
     9
 71
     3
 72
    20
 73
    16
 74
     0
 42
0.000000001
 43
0.0000000001
 40
0.0
 40
0.0
 40
0.0
 40
0.0
 40
1.0
 40
1.0
 40
1.0
 40
2.0
 40
2.0
 40
2.0
 40
3.0
 40
3.0
 40
3.0
 40
4.0
 40
4.0
 40
4.0
 40
5.0
 40
5.0
 40
5.0
 40
5.0
 10
16.67839255614441
 20
1.723014499250891
 30
0.0
 10
16.67519090217198
 20
1.722926177762041
 30
0.0
 10
16.67196243631902
 20
1.722949046718973
 30
0.0
 10
16.66875762800765
 20
1.722872554000916
 30
0.0
 10
16.68983097754104
 20
1.722400980336999
 30
0.0
 10
16.71094927640357
 20
1.722149421810553
 30
0.0
 10
16.73211646751897
 20
1.722149421810553
 30
0.0
 10
16.81280761064113
 20
1.722149421810553
 30
0.0
 10
16.89419191973424
 20
1.725601845724711
 30
0.0
 10
16.97605647692312
 20
1.732514579400159
 30
0.0
 10
16.89516818762043
 20
1.725763505592739
 30
0.0
 10
16.81475147198158
 20
1.722396248828617
 30
0.0
 10
16.73501215061917
 20
1.722396248828617
 30
0.0
 10
16.71609873464005
 20
1.722396248828617
 30
0.0
 10
16.69723184515964
 20
1.722638344338365
 30
0.0
 10
16.67839255614441
 20
1.723014499250891
 30
0.0
  0
SPLINE
  5
173
330
70
100
AcDbEntity
  8
Livello 2
100
AcDbSpline
210
0.0
220
0.0
230
1.0
 70
     9
 71
     3
 72
    11
 73
     7
 74
     0
 42
0.000000001
 43
0.0000000001
 40
0.0
 40
0.0
 40
0.0
 40
0.0
 40
1.0
 40
1.0
 40
1.0
 40
2.0
 40
2.0
 40
2.0
 40
2.0
 10
14.71881314504926
 20
2.942397535213527
 30
0.0
 10
14.71600105192965
 20
2.948508278226396
 30
0.0
 10
14.71317791862391
 20
2.954612712561573
 30
0.0
 10
14.71042260360424
 20
2.960754210378634
 30
0.0
 10
14.71317791862391
 20
2.954611923976853
 30
0.0
 10
14.71599947476021
 20
2.948507489641741
 30
0.0
 10
14.71881314504926
 20
2.942397535213527
 30
0.0
  0
SPLINE
  5
174
330
70
100
AcDbEntity
  8
Livello 2
100
AcDbSpline
210
0.0
220
0.0
230
1.0
 70
     9
 71
     3
 72
   284
 73
   280
 74
     0
 42
0.000000001
 43
0.0000000001
 40
0.0
 40
0.0
 40
0.0
 40
0.0
 40
1.0
 40
1.0
 40
1.0
 40
2.0
 40
2.0
 40
2.0
 40
3.0
 40
3.0
 40
3.0
 40
4.0
 40
4.0
 40
4.0
 40
5.0
 40
5.0
 40
5.0
 40
6.0
 40
6.0
 40
6.0
 40
7.0
 40
7.0
 40
7.0
 40
8.0
 40
8.0
 40
8.0
 40
9.0
 40
9.0
 40
9.0
 40
10.0
 40
10.0
 40
10.0
 40
11.0
 40
11.0
 40
11.0
 40
12.0
 40
12.0
 40
12.0
 40
13.0
 40
13.0
 40
13.0
 40
14.0
 40
14.0
 40
14.0
 40
15.0
 40
15.0
 40
15.0
 40
16.0
 40
16.0
 40
16.0
 40
17.0
 40
17.0
 40
17.0
 40
18.0
 40
18.0
 40
18.0
 40
19.0
 40
19.0
 40
19.0
 40
20.0
 40
20.0
 40
20.0
 40
21.0
 40
21.0
 40
21.0
 40
22.0
 40
22.0
 40
22.0
 40
23.0
 40
23.0
 40
23.0
 40
24.0
 40
24.0
 40
24.0
 40
25.0
 40
25.0
 40
25.0
 40
26.0
 40
26.0
 40
26.0
 40
27.0
 40
27.0
 40
27.0
 40
28.0
 40
28.0
 40
28.0
 40
29.0
 40
29.0
 40
29.0
 40
30.0
 40
30.0
 40
30.0
 40
31.0
 40
31.0
 40
31.0
 40
32.0
 40
32.0
 40
32.0
 40
33.0
 40
33.0
 40
33.0
 40
34.0
 40
34.0
 40
34.0
 40
35.0
 40
35.0
 40
35.0
 40
36.0
 40
36.0
 40
36.0
 40
37.0
 40
37.0
 40
37.0
 40
38.0
 40
38.0
 40
38.0
 40
39.0
 40
39.0
 40
39.0
 40
40.0
 40
40.0
 40
40.0
 40
41.0
 40
41.0
 40
41.0
 40
42.0
 40
42.0
 40
42.0
 40
43.0
 40
43.0
 40
43.0
 40
44.0
 40
44.0
 40
44.0
 40
45.0
 40
45.0
 40
45.0
 40
46.0
 40
46.0
 40
46.0
 40
47.0
 40
47.0
 40
47.0
 40
48.0
 40
48.0
 40
48.0
 40
49.0
 40
49.0
 40
49.0
 40
50.0
 40
50.0
 40
50.0
 40
51.0
 40
51.0
 40
51.0
 40
52.0
 40
52.0
 40
52.0
 40
53.0
 40
53.0
 40
53.0
 40
54.0
 40
54.0
 40
54.0
 40
55.0
 40
55.0
 40
55.0
 40
56.0
 40
56.0
 40
56.0
 40
57.0
 40
57.0
 40
57.0
 40
58.0
 40
58.0
 40
58.0
 40
59.0
 40
59.0
 40
59.0
 40
60.0
 40
60.0
 40
60.0
 40
61.0
 40
61.0
 40
61.0
 40
62.0
 40
62.0
 40
62.0
 40
63.0
 40
63.0
 40
63.0
 40
64.0
 40
64.0
 40
64.0
 40
65.0
 40
65.0
 40
65.0
 40
66.0
 40
66.0
 40
66.0
 40
67.0
 40
67.0
 40
67.0
 40
68.0
 40
68.0
 40
68.0
 40
69.0
 40
69.0
 40
69.0
 40
70.0
 40
70.0
 40
70.0
 40
71.0
 40
71.0
 40
71.0
 40
72.0
 40
72.0
 40
72.0
 40
73.0
 40
73.0
 40
73.0
 40
74.0
 40
74.0
 40
74.0
 40
75.0
 40
75.0
 40
75.0
 40
76.0
 40
76.0
 40
76.0
 40
77.0
 40
77.0
 40
77.0
 40
78.0
 40
78.0
 40
78.0
 40
79.0
 40
79.0
 40
79.0
 40
80.0
 40
80.0
 40
80.0
 40
81.0
 40
81.0
 40
81.0
 40
82.0
 40
82.0
 40
82.0
 40
83.0
 40
83.0
 40
83.0
 40
84.0
 40
84.0
 40
84.0
 40
85.0
 40
85.0
 40
85.0
 40
86.0
 40
86.0
 40
86.0
 40
87.0
 40
87.0
 40
87.0
 40
88.0
 40
88.0
 40
88.0
 40
89.0
 40
89.0
 40
89.0
 40
90.0
 40
90.0
 40
90.0
 40
91.0
 40
91.0
 40
91.0
 40
92.0
 40
92.0
 40
92.0
 40
93.0
 40
93.0
 40
93.0
 40
93.0
 10
14.69765226261168
 20
2.989897935959865
 30
0.0
 10
14.69475105941844
 20
2.996636392411643
 30
0.0
 10
14.69187509093635
 20
3.003385889049623
 30
0.0
 10
14.68904407178334
 20
3.010160620398694
 30
0.0
 10
14.68509089657058
 20
3.019623637066012
 30
0.0
 10
14.68120159672029
 20
3.02911583136802
 30
0.0
 10
14.67738405807975
 20
3.038648243490919
 30
0.0
 10
14.6745175526143
 20
3.045802284091459
 30
0.0
 10
14.67170861383357
 20
3.052983925157184
 30
0.0
 10
14.66891938967089
 20
3.060176606409048
 30
0.0
 10
14.66528401410115
 20
3.069552878756955
 30
0.0
 10
14.66167939333559
 20
3.078941768460377
 30
0.0
 10
14.65817571141454
 20
3.088382704755418
 30
0.0
 10
14.65542512790325
 20
3.095793823975378
 30
0.0
 10
14.65276365446553
 20
3.103245161016164
 30
0.0
 10
14.6500950837654
 20
3.110694920887512
 30
0.0
 10
14.6467325585096
 20
3.120083022006213
 30
0.0
 10
14.64336687891491
 20
3.129468757370755
 30
0.0
 10
14.64013525872308
 20
3.138918368097777
 30
0.0
 10
14.63755264375757
 20
3.146471432567775
 30
0.0
 10
14.63509068225468
 20
3.154078120798834
 30
0.0
 10
14.63259244585443
 20
3.161669037335436
 30
0.0
 10
14.62947122752366
 20
3.171151768620809
 30
0.0
 10
14.62631215712627
 20
3.18061715104235
 30
0.0
 10
14.62332342102884
 20
3.19015902618182
 30
0.0
 10
14.62099078742034
 20
3.197607208883729
 30
0.0
 10
14.61881035066324
 20
3.2051200555329
 30
0.0
 10
14.61655894128112
 20
3.212602935962534
 30
0.0
 10
14.61361042300457
 20
3.222402678306335
 30
0.0
 10
14.61059250927245
 20
3.232172454430536
 30
0.0
 10
14.6077851476611
 20
3.242032917797938
 30
0.0
 10
14.60669059206659
 20
3.245876479734294
 30
0.0
 10
14.60571116984152
 20
3.249766568169299
 30
0.0
 10
14.60463790603451
 20
3.253619593122355
 30
0.0
 10
14.59838994927985
 20
3.27605325130165
 30
0.0
 10
14.5925496908267
 20
3.298650146518412
 30
0.0
 10
14.58703984937221
 20
3.32137794679914
 30
0.0
 10
14.58517563508869
 20
3.329069013595515
 30
0.0
 10
14.58322940799414
 20
3.336729325587698
 30
0.0
 10
14.58145036086066
 20
3.344453512942424
 30
0.0
 10
14.57922891769801
 20
3.354099481265264
 30
0.0
 10
14.57719594628398
 20
3.363814056459029
 30
0.0
 10
14.57510856252418
 20
3.373510494204116
 30
0.0
 10
14.57335317293235
 20
3.381662883062989
 30
0.0
 10
14.57155283401137
 20
3.389797134473248
 30
0.0
 10
14.56989365175571
 20
3.397984221059976
 30
0.0
 10
14.56795057900004
 20
3.407571045528655
 30
0.0
 10
14.56616049168048
 20
3.417209916589019
 30
0.0
 10
14.56434990115815
 20
3.426844056141129
 30
0.0
 10
14.56277352029831
 20
3.435229866077835
 30
0.0
 10
14.56118609925239
 20
3.443608578751936
 30
0.0
 10
14.55971065723697
 20
3.452029086416431
 30
0.0
 10
14.55803097177854
 20
3.461611179376857
 30
0.0
 10
14.55646878544371
 20
3.471232701573326
 30
0.0
 10
14.55492079363384
 20
3.480858955278112
 30
0.0
 10
14.5535431361241
 20
3.489426928285684
 30
0.0
 10
14.55218992474067
 20
3.497999632801509
 30
0.0
 10
14.55091636041417
 20
3.506601514952087
 30
0.0
 10
14.54950242800708
 20
3.516157584616638
 30
0.0
 10
14.54816735407233
 20
3.52573731182284
 30
0.0
 10
14.54688353814448
 20
3.535334387893002
 30
0.0
 10
14.54570539256931
 20
3.544143667825538
 30
0.0
 10
14.54458796801793
 20
3.552971873791407
 30
0.0
 10
14.54351943571917
 20
3.561815851451732
 30
0.0
 10
14.54237598787192
 20
3.571283599627368
 30
0.0
 10
14.54127196926071
 20
3.580760810819704
 30
0.0
 10
14.5402570607232
 20
3.590267199646728
 30
0.0
 10
14.53928000425229
 20
3.599405319408486
 30
0.0
 10
14.53840388662582
 20
3.608571039635494
 30
0.0
 10
14.53754590644796
 20
3.617743068540258
 30
0.0
 10
14.53667925183818
 20
3.627016036289515
 30
0.0
 10
14.53580944288952
 20
3.636285849699893
 30
0.0
 10
14.53506501891166
 20
3.645592726592156
 30
0.0
 10
14.53428826296024
 20
3.655285221413708
 30
0.0
 10
14.53365502942823
 20
3.665014779717146
 30
0.0
 10
14.53301154429487
 20
3.674743549435864
 30
0.0
 10
14.53242641443094
 20
3.68361197322256
 30
0.0
 10
14.531793180899
 20
3.692465413899521
 30
0.0
 10
14.53131924148086
 20
3.70136380390569
 30
0.0
 10
14.53073568878638
 20
3.712296742495324
 30
0.0
 10
14.53034533934883
 20
3.723278573337764
 30
0.0
 10
14.52993054378492
 20
3.734254884087103
 30
0.0
 10
14.52963955602243
 20
3.741984591534867
 30
0.0
 10
14.52925314950848
 20
3.7496874871021
 30
0.0
 10
14.52904654031131
 20
3.757437697752637
 30
0.0
 10
14.52858521824875
 20
3.774680102705181
 30
0.0
 10
14.52835495150986
 20
3.791979285757792
 30
0.0
 10
14.5283163108584
 20
3.809321840970045
 30
0.0
 10
14.52831315651953
 20
3.810772048274306
 30
0.0
 10
14.52825558983487
 20
3.812208849638334
 30
0.0
 10
14.52825558983487
 20
3.813659056942595
 30
0.0
 10
14.52825558983487
 20
3.813737126830091
 30
0.0
 10
14.52825874417374
 20
3.813814408132867
 30
0.0
 10
14.52825874417374
 20
3.813892478020363
 30
0.0
 10
14.52825874417374
 20
3.813970547907859
 30
0.0
 10
14.52825558983487
 20
3.814047829210699
 30
0.0
 10
14.52825558983487
 20
3.814125899098195
 30
0.0
 10
14.52825558983487
 20
3.814047829210699
 30
0.0
 10
14.52825874417374
 20
3.813970547907859
 30
0.0
 10
14.52825874417374
 20
3.813892478020363
 30
0.0
 10
14.5283864948987
 20
4.967043860328468
 30
0.0
 10
15.46657914493095
 20
5.905162383396785
 30
0.0
 10
16.61976522496678
 20
5.905162383396785
 30
0.0
 10
17.77295130500268
 20
5.905162383396785
 30
0.0
 10
18.7111376463571
 20
4.967043860328468
 30
0.0
 10
18.71126539708219
 20
3.813892478020363
 30
0.0
 10
18.71126539708219
 20
3.813970547907859
 30
0.0
 10
18.71126855142107
 20
3.814047829210699
 30
0.0
 10
18.71126855142107
 20
3.814125899098195
 30
0.0
 10
18.71126855142107
 20
3.814047829210699
 30
0.0
 10
18.71126539708219
 20
3.813970547907859
 30
0.0
 10
18.71126539708219
 20
3.813892478020363
 30
0.0
 10
18.71126539708219
 20
3.813814408132867
 30
0.0
 10
18.71126855142107
 20
3.813737126830091
 30
0.0
 10
18.71126855142107
 20
3.813659056942595
 30
0.0
 10
18.71126855142107
 20
3.813006897377251
 30
0.0
 10
18.7112385852016
 20
3.812361835074447
 30
0.0
 10
18.71123779661688
 20
3.811709675509039
 30
0.0
 10
18.7112157162446
 20
3.792149620057736
 30
0.0
 10
18.71087662481402
 20
3.772663691570331
 30
0.0
 10
18.71031751824597
 20
3.753231386843987
 30
0.0
 10
18.71010854329458
 20
3.745919629299016
 30
0.0
 10
18.70976629752512
 20
3.73864335806662
 30
0.0
 10
18.70948319560977
 20
3.731349737970264
 30
0.0
 10
18.70897850138756
 20
3.718466629362482
 30
0.0
 10
18.70839652586252
 20
3.70560560112685
 30
0.0
 10
18.7076591991472
 20
3.692782424957886
 30
0.0
 10
18.7071789510513
 20
3.684400557944842
 30
0.0
 10
18.70664271344019
 20
3.676035251210974
 30
0.0
 10
18.70606389225402
 20
3.667679407493678
 30
0.0
 10
18.70523666688035
 20
3.655785972712314
 30
0.0
 10
18.70428169078166
 20
3.643930389997684
 30
0.0
 10
18.70325653064273
 20
3.632091367562101
 30
0.0
 10
18.70252551260517
 20
3.623631430661562
 30
0.0
 10
18.7018291922954
 20
3.615163607913699
 30
0.0
 10
18.70099723541342
 20
3.606732060063129
 30
0.0
 10
18.6997268254258
 20
3.593882072013634
 30
0.0
 10
18.69825296057988
 20
3.581091227818302
 30
0.0
 10
18.6967491295145
 20
3.568309058054949
 30
0.0
 10
18.69539276379219
 20
3.556762600551423
 30
0.0
 10
18.6939630596907
 20
3.545242954928427
 30
0.0
 10
18.69241901080449
 20
3.53375485269428
 30
0.0
 10
18.69057451113908
 20
3.520050038805801
 30
0.0
 10
18.6886874278987
 20
3.506358630857684
 30
0.0
 10
18.68657796376662
 20
3.492738984119242
 30
0.0
 10
18.68508044137899
 20
3.483055952314389
 30
0.0
 10
18.68339996733577
 20
3.473436007287359
 30
0.0
 10
18.68176917413015
 20
3.463796347642276
 30
0.0
 10
18.68015494120363
 20
3.454263935519377
 30
0.0
 10
18.67853203384521
 20
3.444736254904795
 30
0.0
 10
18.67678847302423
 20
3.435248003526385
 30
0.0
 10
18.67490927563111
 20
3.425009019492363
 30
0.0
 10
18.67293387090174
 20
3.414806310355505
 30
0.0
 10
18.67090484241131
 20
3.404620161497951
 30
0.0
 10
18.66916759026816
 20
3.395903934562583
 30
0.0
 10
18.66735857691526
 20
3.38721451950781
 30
0.0
 10
18.66551250008042
 20
3.378537721808615
 30
0.0
 10
18.66327765097748
 20
3.368021155952335
 30
0.0
 10
18.66103491602734
 20
3.357510110189156
 30
0.0
 10
18.65864156139518
 20
3.347052688187038
 30
0.0
 10
18.65684437681315
 20
3.339204693030951
 30
0.0
 10
18.65491234424355
 20
3.33140953305127
 30
0.0
 10
18.6530268381726
 20
3.32359465845347
 30
0.0
 10
18.64698075910693
 20
3.298518452869856
 30
0.0
 10
18.64054433060372
 20
3.273596021307011
 30
0.0
 10
18.63360084212407
 20
3.248877833187245
 30
0.0
 10
18.63295104831295
 20
3.246565702781524
 30
0.0
 10
18.63236434127953
 20
3.244229126249431
 30
0.0
 10
18.63170666162115
 20
3.241920150182652
 30
0.0
 10
18.6283465021195
 20
3.230115825474859
 30
0.0
 10
18.62476475031095
 20
3.21840849668796
 30
0.0
 10
18.62120350170516
 20
3.206690127714923
 30
0.0
 10
18.61925490885646
 20
3.200282876846399
 30
0.0
 10
18.61733785939659
 20
3.193863008622361
 30
0.0
 10
18.61533012269366
 20
3.187481781049711
 30
0.0
 10
18.61169474712398
 20
3.175925071944767
 30
0.0
 10
18.60792925507512
 20
3.164428295278703
 30
0.0
 10
18.604099099079
 20
3.15295833049317
 30
0.0
 10
18.60202669842886
 20
3.14675374589835
 30
0.0
 10
18.59992038863566
 20
3.14056651016736
 30
0.0
 10
18.59779120988546
 20
3.13438794886835
 30
0.0
 10
18.59373157573523
 20
3.122602550193955
 30
0.0
 10
18.58962068357797
 20
3.110843963400027
 30
0.0
 10
18.58535680598467
 20
3.099153983477023
 30
0.0
 10
18.58362113101095
 20
3.094396451847521
 30
0.0
 10
18.58180502039552
 20
3.089677560869407
 30
0.0
 10
18.58003622486345
 20
3.084935800934361
 30
0.0
 10
18.56453501497772
 20
3.043384483332928
 30
0.0
 10
18.54776024076543
 20
3.002461667755123
 30
0.0
 10
18.52973634835309
 20
2.962201263344017
 30
0.0
 10
18.52816548758628
 20
2.958693638499359
 30
0.0
 10
18.52663563322508
 20
2.955163144697705
 30
0.0
 10
18.52504584642494
 20
2.951665771454402
 30
0.0
 10
18.519420871601
 20
2.939284991314666
 30
0.0
 10
18.51363817983251
 20
2.926994898418003
 30
0.0
 10
18.50778057251546
 20
2.914743446172729
 30
0.0
 10
18.50576731571949
 20
2.91053476950992
 30
0.0
 10
18.50374538449154
 20
2.906332401524933
 30
0.0
 10
18.50170531581504
 20
2.902139496556644
 30
0.0
 10
18.49568368287574
 20
2.889760293586283
 30
0.0
 10
18.48957688278647
 20
2.87743629154655
 30
0.0
 10
18.48331946301518
 20
2.865194302317974
 30
0.0
 10
18.48184717533864
 20
2.862315179496945
 30
0.0
 10
18.4803330926719
 20
2.859461291386942
 30
0.0
 10
18.47884818763991
 20
2.856590054413173
 30
0.0
 10
18.45693262962306
 20
2.814202837006154
 30
0.0
 10
18.433646511359
 20
2.772642844972742
 30
0.0
 10
18.40897800407676
 20
2.731999188386633
 30
0.0
 10
18.40858134596146
 20
2.731346240236569
 30
0.0
 10
18.40819888237112
 20
2.73068461765459
 30
0.0
 10
18.4078014356711
 20
2.730032458089246
 30
0.0
 10
18.40004412775808
 20
2.717283408884179
 30
0.0
 10
18.39211175403668
 20
2.704656590311162
 30
0.0
 10
18.38409105882649
 20
2.692087338422803
 30
0.0
 10
18.38240664185968
 20
2.689447945357362
 30
0.0
 10
18.38072616781646
 20
2.686807763707138
 30
0.0
 10
18.37903071066358
 20
2.684176256488893
 30
0.0
 10
18.3710305186561
 20
2.671760778621431
 30
0.0
 10
18.36291992478749
 20
2.659428102149718
 30
0.0
 10
18.35466580849947
 20
2.647193998768339
 30
0.0
 10
18.35351920631321
 20
2.645494598691854
 30
0.0
 10
18.35235131233952
 20
2.643810970309761
 30
0.0
 10
18.35119997864501
 20
2.64211551315681
 30
0.0
 10
18.31482729691475
 20
2.588543798633775
 30
0.0
 10
18.2760439116885
 20
2.536755074167694
 30
0.0
 10
18.23499255680095
 20
2.486877879068436
 30
0.0
 10
18.2339137729009
 20
2.485567251260055
 30
0.0
 10
18.23284129767854
 20
2.484251891943228
 30
0.0
 10
18.23175935943968
 20
2.482943629889006
 30
0.0
 10
18.22176562525422
 20
2.470860934774301
 30
0.0
 10
18.21164650609795
 20
2.458891007274881
 30
0.0
 10
18.20138938461532
 20
2.447038578899065
 30
0.0
 10
18.20067650402637
 20
2.446215296448993
 30
0.0
 10
18.19995652617495
 20
2.445399899846181
 30
0.0
 10
18.19924285700128
 20
2.444578194565548
 30
0.0
 10
18.15582101643857
 20
2.394558265631596
 30
0.0
 10
18.11008231396183
 20
2.346621777533851
 30
0.0
 10
18.06217027199052
 20
2.30092092712377
 30
0.0
 10
18.06211585964467
 20
2.300868091947366
 30
0.0
 10
18.06206065871411
 20
2.300816045355744
 30
0.0
 10
18.06200624636833
 20
2.300763998764059
 30
0.0
 10
18.04994642021049
 20
2.289263279174398
 30
0.0
 10
18.03774938031106
 20
2.277911602097252
 30
0.0
 10
18.02541828100879
 20
2.266697927346419
 30
0.0
 10
18.02533074810465
 20
2.266618280289484
 30
0.0
 10
18.02524242661581
 20
2.266539421817268
 30
0.0
 10
18.02515489371154
 20
2.266459774760333
 30
0.0
 10
17.95546923897348
 20
2.20311039826571
 30
0.0
 10
17.88163405142677
 20
2.144255166103348
 30
0.0
 10
17.80388117497974
 20
2.09065348536084
 30
0.0
 10
17.8568630281306
 20
2.108820900192604
 30
0.0
 10
17.90896245497729
 20
2.128108893914751
 30
0.0
 10
17.96012267741961
 20
2.148530872467514
 30
0.0
 10
17.90896245497729
 20
2.128108893914751
 30
0.0
 10
17.8568630281306
 20
2.108820900192604
 30
0.0
 10
17.80388117497974
 20
2.09065348536084
 30
0.0
 10
17.80316356288248
 20
2.090159042739927
 30
0.0
 10
17.80246881974221
 20
2.089634633899605
 30
0.0
 10
17.80175041906023
 20
2.089140979863475
 30
0.0
 10
19.24637612066183
 20
2.581974887897158
 30
0.0
 10
20.01729102506592
 20
3.930621942950584
 30
0.0
 10
20.01729102506592
 20
5.128482924672816
 30
0.0
 10
20.01729102506592
 20
6.765313534973702
 30
0.0
 10
18.6856300849304
 20
8.096968166431464
 30
0.0
 10
17.04880578330724
 20
8.096968166431464
 30
0.0
 10
15.41198148168414
 20
8.096968166431464
 30
0.0
 10
14.08032685022644
 20
6.765313534973702
 30
0.0
 10
14.08032685022644
 20
5.128482924672816
 30
0.0
 10
14.08032685022644
 20
4.254986553840836
 30
0.0
 10
14.30754965210309
 20
3.490915776241333
 30
0.0
 10
14.72828247039434
 20
2.921681414559268
 30
0.0
 10
14.72503665567748
 20
2.928537370134777
 30
0.0
 10
14.72198640997172
 20
2.935501361817191
 30
0.0
 10
14.71881314504926
 20
2.942397535213527
 30
0.0
 10
14.71599947476021
 20
2.948507489641741
 30
0.0
 10
14.71317791862391
 20
2.954611923976853
 30
0.0
 10
14.71042260360424
 20
2.960754210378634
 30
0.0
 10
14.70608459904697
 20
2.970426201997413
 30
0.0
 10
14.70184753333425
 20
2.980149451623029
 30
0.0
 10
14.69765226261168
 20
2.989897935959865
 30
0.0
  0
SPLINE
  5
175
330
70
100
AcDbEntity
  8
Livello 2
100
AcDbSpline
210
0.0
220
0.0
230
1.0
 70
     9
 71
     3
 72
    11
 73
     7
 74
     0
 42
0.000000001
 43
0.0000000001
 40
0.0
 40
0.0
 40
0.0
 40
0.0
 40
1.0
 40
1.0
 40
1.0
 40
2.0
 40
2.0
 40
2.0
 40
2.0
 10
14.87672644710037
 20
3.031873512141848
 30
0.0
 10
14.87142715776665
 20
3.04363683044403
 30
0.0
 10
14.86624773331069
 20
3.055464024108755
 30
0.0
 10
14.86118028788543
 20
3.067351150212362
 30
0.0
 10
14.86624615614125
 20
3.055461658354596
 30
0.0
 10
14.87142794635137
 20
3.043639196198253
 30
0.0
 10
14.87672644710037
 20
3.031873512141848
 30
0.0
  0
SPLINE
  5
176
330
70
100
AcDbEntity
  8
Livello 2
100
AcDbSpline
210
0.0
220
0.0
230
1.0
 70
     9
 71
     3
 72
    11
 73
     7
 74
     0
 42
0.000000001
 43
0.0000000001
 40
0.0
 40
0.0
 40
0.0
 40
0.0
 40
1.0
 40
1.0
 40
1.0
 40
2.0
 40
2.0
 40
2.0
 40
2.0
 10
14.7547126759461
 20
3.398907653769756
 30
0.0
 10
14.75267891594736
 20
3.408048927870393
 30
0.0
 10
14.7506207098223
 20
3.41718152753905
 30
0.0
 10
14.74871864347212
 20
3.426370905307709
 30
0.0
 10
14.75061834406808
 20
3.417179161784891
 30
0.0
 10
14.75268049311686
 20
3.408050505039832
 30
0.0
 10
14.7547126759461
 20
3.398907653769756
 30
0.0
  0
SPLINE
  5
177
330
70
100
AcDbEntity
  8
Livello 2
100
AcDbSpline
210
0.0
220
0.0
230
1.0
 70
     9
 71
     3
 72
    11
 73
     7
 74
     0
 42
0.000000001
 43
0.0000000001
 40
0.0
 40
0.0
 40
0.0
 40
0.0
 40
1.0
 40
1.0
 40
1.0
 40
2.0
 40
2.0
 40
2.0
 40
2.0
 10
14.56989365175571
 20
3.397984221059976
 30
0.0
 10
14.57155283401137
 20
3.389797134473248
 30
0.0
 10
14.57335317293235
 20
3.381662883062989
 30
0.0
 10
14.57510856252418
 20
3.373510494204116
 30
0.0
 10
14.57335317293235
 20
3.38166209447827
 30
0.0
 10
14.57155283401137
 20
3.389797134473248
 30
0.0
 10
14.56989365175571
 20
3.397984221059976
 30
0.0
  0
SPLINE
  5
178
330
70
100
AcDbEntity
  8
Livello 2
100
AcDbSpline
210
0.0
220
0.0
230
1.0
 70
     9
 71
     3
 72
    11
 73
     7
 74
     0
 42
0.000000001
 43
0.0000000001
 40
0.0
 40
0.0
 40
0.0
 40
0.0
 40
1.0
 40
1.0
 40
1.0
 40
2.0
 40
2.0
 40
2.0
 40
2.0
 10
14.54351943571917
 20
3.561815851451732
 30
0.0
 10
14.54458796801793
 20
3.552971873791407
 30
0.0
 10
14.54570539256931
 20
3.544143667825538
 30
0.0
 10
14.54688353814448
 20
3.535334387893002
 30
0.0
 10
14.54570539256931
 20
3.544144456410257
 30
0.0
 10
14.54458717943321
 20
3.552971873791407
 30
0.0
 10
14.54351943571917
 20
3.561815851451732
 30
0.0
  0
SPLINE
  5
179
330
70
100
AcDbEntity
  8
Livello 2
100
AcDbSpline
210
0.0
220
0.0
230
1.0
 70
     9
 71
     3
 72
    11
 73
     7
 74
     0
 42
0.000000001
 43
0.0000000001
 40
0.0
 40
0.0
 40
0.0
 40
0.0
 40
1.0
 40
1.0
 40
1.0
 40
2.0
 40
2.0
 40
2.0
 40
2.0
 10
14.76815331395262
 20
3.342264401753407
 30
0.0
 10
14.76569844971214
 20
3.351890655458194
 30
0.0
 10
14.76337054761202
 20
3.361566590000507
 30
0.0
 10
14.76106314871462
 20
3.37124962180536
 30
0.0
 10
14.76336897044259
 20
3.361564224246348
 30
0.0
 10
14.76570081546636
 20
3.351892232627633
 30
0.0
 10
14.76815331395262
 20
3.342264401753407
 30
0.0
  0
SPLINE
  5
17A
330
70
100
AcDbEntity
  8
Livello 2
100
AcDbSpline
210
0.0
220
0.0
230
1.0
 70
     9
 71
     3
 72
    11
 73
     7
 74
     0
 42
0.000000001
 43
0.0000000001
 40
0.0
 40
0.0
 40
0.0
 40
0.0
 40
1.0
 40
1.0
 40
1.0
 40
2.0
 40
2.0
 40
2.0
 40
2.0
 10
14.58145036086066
 20
3.344453512942424
 30
0.0
 10
14.58322940799414
 20
3.336729325587698
 30
0.0
 10
14.58517563508869
 20
3.329069013595515
 30
0.0
 10
14.58703984937221
 20
3.32137794679914
 30
0.0
 10
14.58517563508869
 20
3.329069802180234
 30
0.0
 10
14.58322940799414
 20
3.336729325587698
 30
0.0
 10
14.58145036086066
 20
3.344453512942424
 30
0.0
  0
SPLINE
  5
17B
330
70
100
AcDbEntity
  8
Livello 2
100
AcDbSpline
210
0.0
220
0.0
230
1.0
 70
     9
 71
     3
 72
    11
 73
     7
 74
     0
 42
0.000000001
 43
0.0000000001
 40
0.0
 40
0.0
 40
0.0
 40
0.0
 40
1.0
 40
1.0
 40
1.0
 40
2.0
 40
2.0
 40
2.0
 40
2.0
 10
14.55091636041417
 20
3.506601514952087
 30
0.0
 10
14.55218992474067
 20
3.497999632801509
 30
0.0
 10
14.5535431361241
 20
3.489426928285684
 30
0.0
 10
14.55492079363384
 20
3.480858955278112
 30
0.0
 10
14.5535431361241
 20
3.489426139700964
 30
0.0
 10
14.55218913615595
 20
3.498000421386229
 30
0.0
 10
14.55091636041417
 20
3.506601514952087
 30
0.0
  0
SPLINE
  5
17C
330
70
100
AcDbEntity
  8
Livello 2
100
AcDbSpline
210
0.0
220
0.0
230
1.0
 70
     9
 71
     3
 72
    11
 73
     7
 74
     0
 42
0.000000001
 43
0.0000000001
 40
0.0
 40
0.0
 40
0.0
 40
0.0
 40
1.0
 40
1.0
 40
1.0
 40
2.0
 40
2.0
 40
2.0
 40
2.0
 10
14.55971065723697
 20
3.452029086416431
 30
0.0
 10
14.56118609925239
 20
3.443608578751936
 30
0.0
 10
14.56277352029831
 20
3.435229866077835
 30
0.0
 10
14.56434990115815
 20
3.426844056141129
 30
0.0
 10
14.56277352029831
 20
3.435228288908396
 30
0.0
 10
14.56118609925239
 20
3.44360936733672
 30
0.0
 10
14.55971065723697
 20
3.452029086416431
 30
0.0
  0
SPLINE
  5
17D
330
70
100
AcDbEntity
  8
Livello 2
100
AcDbSpline
210
0.0
220
0.0
230
1.0
 70
     9
 71
     3
 72
    11
 73
     7
 74
     0
 42
0.000000001
 43
0.0000000001
 40
0.0
 40
0.0
 40
0.0
 40
0.0
 40
1.0
 40
1.0
 40
1.0
 40
2.0
 40
2.0
 40
2.0
 40
2.0
 10
14.78990642351666
 20
3.264281258567488
 30
0.0
 10
14.78471674745935
 20
3.281519720596434
 30
0.0
 10
14.77977153266588
 20
3.298860698639248
 30
0.0
 10
14.77506052753503
 20
3.316299461187739
 30
0.0
 10
14.77976837832701
 20
3.29885754430037
 30
0.0
 10
14.78471990179823
 20
3.281522086350593
 30
0.0
 10
14.78990642351666
 20
3.264281258567488
 30
0.0
  0
SPLINE
  5
17E
330
70
100
AcDbEntity
  8
Livello 2
100
AcDbSpline
210
0.0
220
0.0
230
1.0
 70
     9
 71
     3
 72
    11
 73
     7
 74
     0
 42
0.000000001
 43
0.0000000001
 40
0.0
 40
0.0
 40
0.0
 40
0.0
 40
1.0
 40
1.0
 40
1.0
 40
2.0
 40
2.0
 40
2.0
 40
2.0
 10
14.60463790603451
 20
3.253619593122355
 30
0.0
 10
14.60571116984152
 20
3.249766568169299
 30
0.0
 10
14.60669059206659
 20
3.245876479734294
 30
0.0
 10
14.6077851476611
 20
3.242032917797938
 30
0.0
 10
14.60669059206659
 20
3.245875691149575
 30
0.0
 10
14.6057103812568
 20
3.249767356754019
 30
0.0
 10
14.60463790603451
 20
3.253619593122355
 30
0.0
  0
SPLINE
  5
17F
330
70
100
AcDbEntity
  8
Livello 2
370
    35
100
AcDbSpline
210
0.0
220
0.0
230
1.0
 70
     9
 71
     3
 72
    11
 73
     7
 74
     0
 42
0.000000001
 43
0.0000000001
 40
0.0
 40
0.0
 40
0.0
 40
0.0
 40
1.0
 40
1.0
 40
1.0
 40
2.0
 40
2.0
 40
2.0
 40
2.0
 10
14.94164747294646
 20
2.901354066173241
 30
0.0
 10
14.94044093832138
 20
2.90356525773447
 30
0.0
 10
14.9392462324671
 20
2.905785123727678
 30
0.0
 10
14.93804758368922
 20
2.908001835382009
 30
0.0
 10
14.93924702105182
 20
2.905785123727678
 30
0.0
 10
14.94044014973666
 20
2.90356525773447
 30
0.0
 10
14.94164747294646
 20
2.901354066173241
 30
0.0
  0
SPLINE
  5
180
330
70
100
AcDbEntity
  8
Livello 2
370
    35
100
AcDbSpline
210
0.0
220
0.0
230
1.0
 70
     9
 71
     3
 72
    11
 73
     7
 74
     0
 42
0.000000001
 43
0.0000000001
 40
0.0
 40
0.0
 40
0.0
 40
0.0
 40
1.0
 40
1.0
 40
1.0
 40
2.0
 40
2.0
 40
2.0
 40
2.0
 10
14.73514394606282
 20
3.499766851164135
 30
0.0
 10
14.73322137650998
 20
3.511350372149673
 30
0.0
 10
14.73135400788765
 20
3.522952030583827
 30
0.0
 10
14.7296412018708
 20
3.534604158440098
 30
0.0
 10
14.73135637364181
 20
3.522952819168482
 30
0.0
 10
14.73321822217104
 20
3.511349583564954
 30
0.0
 10
14.73514394606282
 20
3.499766851164135
 30
0.0
  0
SPLINE
  5
181
330
70
100
AcDbEntity
  8
Livello 2
370
    35
100
AcDbSpline
210
0.0
220
0.0
230
1.0
 70
     9
 71
     3
 72
    14
 73
    10
 74
     0
 42
0.000000001
 43
0.0000000001
 40
0.0
 40
0.0
 40
0.0
 40
0.0
 40
1.0
 40
1.0
 40
1.0
 40
2.0
 40
2.0
 40
2.0
 40
3.0
 40
3.0
 40
3.0
 40
3.0
 10
17.80261865083945
 20
2.090210300746893
 30
0.0
 10
17.80304212083528
 20
2.090355400335746
 30
0.0
 10
17.80345849356863
 20
2.090508385771859
 30
0.0
 10
17.80388117497974
 20
2.09065348536084
 30
0.0
 10
17.88163405142677
 20
2.144255166103348
 30
0.0
 10
17.95546923897348
 20
2.20311039826571
 30
0.0
 10
18.02515489371154
 20
2.266459774760333
 30
0.0
 10
17.955155382254
 20
2.202836759367051
 30
0.0
 10
17.88075714521557
 20
2.143992567390827
 30
0.0
 10
17.80261865083945
 20
2.090210300746893
 30
0.0
  0
SPLINE
  5
182
330
70
100
AcDbEntity
  8
Livello 2
370
    35
100
AcDbSpline
210
0.0
220
0.0
230
1.0
 70
     9
 71
     3
 72
    11
 73
     7
 74
     0
 42
0.000000001
 43
0.0000000001
 40
0.0
 40
0.0
 40
0.0
 40
0.0
 40
1.0
 40
1.0
 40
1.0
 40
2.0
 40
2.0
 40
2.0
 40
2.0
 10
18.20138938461532
 20
2.447038578899065
 30
0.0
 10
18.21164650609795
 20
2.458891007274881
 30
0.0
 10
18.22176562525422
 20
2.470860934774301
 30
0.0
 10
18.23175935943968
 20
2.482943629889006
 30
0.0
 10
18.22176562525422
 20
2.470863300528459
 30
0.0
 10
18.21164650609795
 20
2.458889430105442
 30
0.0
 10
18.20138938461532
 20
2.447038578899065
 30
0.0
  0
SPLINE
  5
183
330
70
100
AcDbEntity
  8
Livello 2
370
    35
100
AcDbSpline
210
0.0
220
0.0
230
1.0
 70
     9
 71
     3
 72
    14
 73
    10
 74
     0
 42
0.000000001
 43
0.0000000001
 40
0.0
 40
0.0
 40
0.0
 40
0.0
 40
1.0
 40
1.0
 40
1.0
 40
2.0
 40
2.0
 40
2.0
 40
3.0
 40
3.0
 40
3.0
 40
3.0
 10
16.61976522496678
 20
1.903498673223015
 30
0.0
 10
16.63457248029703
 20
1.903498673223015
 30
0.0
 10
16.64932768903552
 20
1.903724208453587
 30
0.0
 10
16.66405529730871
 20
1.904060934129942
 30
0.0
 10
16.41147476510253
 20
1.910635364959596
 30
0.0
 10
16.16650959555945
 20
1.953412143219438
 30
0.0
 10
15.93475874020747
 20
2.030572003955286
 30
0.0
 10
16.14751574393867
 20
1.948579696041319
 30
0.0
 10
16.37845987711976
 20
1.903498673223015
 30
0.0
 10
16.61976522496678
 20
1.903498673223015
 30
0.0
  0
SPLINE
  5
184
330
70
100
AcDbEntity
  8
Livello 2
370
    35
100
AcDbSpline
210
0.0
220
0.0
230
1.0
 70
     9
 71
     3
 72
    11
 73
     7
 74
     0
 42
0.000000001
 43
0.0000000001
 40
0.0
 40
0.0
 40
0.0
 40
0.0
 40
1.0
 40
1.0
 40
1.0
 40
2.0
 40
2.0
 40
2.0
 40
2.0
 10
14.74871864347212
 20
3.426370905307709
 30
0.0
 10
14.74526700814274
 20
3.443066032463063
 30
0.0
 10
14.74199201579113
 20
3.459825034980833
 30
0.0
 10
14.73898041073676
 20
3.476675513326459
 30
0.0
 10
14.74199517013001
 20
3.459826612150336
 30
0.0
 10
14.7452638538038
 20
3.44306524387828
 30
0.0
 10
14.74871864347212
 20
3.426370905307709
 30
0.0
  0
SPLINE
  5
185
330
70
100
AcDbEntity
  8
Livello 2
370
    35
100
AcDbSpline
210
0.0
220
0.0
230
1.0
 70
     9
 71
     3
 72
    11
 73
     7
 74
     0
 42
0.000000001
 43
0.0000000001
 40
0.0
 40
0.0
 40
0.0
 40
0.0
 40
1.0
 40
1.0
 40
1.0
 40
2.0
 40
2.0
 40
2.0
 40
2.0
 10
15.03617275785155
 20
2.746207119327876
 30
0.0
 10
15.03600242355148
 20
2.746459466439042
 30
0.0
 10
15.0358305120821
 20
2.74671102496536
 30
0.0
 10
15.03566017778202
 20
2.746963372076526
 30
0.0
 10
15.03583130066681
 20
2.74671102496536
 30
0.0
 10
15.03600242355148
 20
2.746459466439042
 30
0.0
 10
15.03617275785155
 20
2.746207119327876
 30
0.0
  0
SPLINE
  5
186
330
70
100
AcDbEntity
  8
Livello 2
370
    35
100
AcDbSpline
210
0.0
220
0.0
230
1.0
 70
     9
 71
     3
 72
    11
 73
     7
 74
     0
 42
0.000000001
 43
0.0000000001
 40
0.0
 40
0.0
 40
0.0
 40
0.0
 40
1.0
 40
1.0
 40
1.0
 40
2.0
 40
2.0
 40
2.0
 40
2.0
 10
18.02541828100879
 20
2.266697927346419
 30
0.0
 10
18.03774938031106
 20
2.277911602097252
 30
0.0
 10
18.04994642021049
 20
2.289263279174398
 30
0.0
 10
18.06200624636833
 20
2.300763998764059
 30
0.0
 10
18.04994563162577
 20
2.289265644928557
 30
0.0
 10
18.03774938031106
 20
2.277909236343029
 30
0.0
 10
18.02541828100879
 20
2.266697927346419
 30
0.0
  0
SPLINE
  5
187
330
70
100
AcDbEntity
  8
Livello 2
370
    35
100
AcDbSpline
210
0.0
220
0.0
230
1.0
 70
     9
 71
     3
 72
    11
 73
     7
 74
     0
 42
0.000000001
 43
0.0000000001
 40
0.0
 40
0.0
 40
0.0
 40
0.0
 40
1.0
 40
1.0
 40
1.0
 40
2.0
 40
2.0
 40
2.0
 40
2.0
 10
14.79642801916985
 20
3.242754472818734
 30
0.0
 10
14.79418528421964
 20
3.249900627572078
 30
0.0
 10
14.79206635707093
 20
3.257099617501698
 30
0.0
 10
14.78990642351666
 20
3.264281258567488
 30
0.0
 10
14.79206872282509
 20
3.257099617501698
 30
0.0
 10
14.79418370705027
 20
3.249899838987358
 30
0.0
 10
14.79642801916985
 20
3.242754472818734
 30
0.0
  0
SPLINE
  5
188
330
70
100
AcDbEntity
  8
Livello 2
370
    35
100
AcDbSpline
210
0.0
220
0.0
230
1.0
 70
     9
 71
     3
 72
    11
 73
     7
 74
     0
 42
0.000000001
 43
0.0000000001
 40
0.0
 40
0.0
 40
0.0
 40
0.0
 40
1.0
 40
1.0
 40
1.0
 40
2.0
 40
2.0
 40
2.0
 40
2.0
 10
14.77506052753503
 20
3.316299461187739
 30
0.0
 10
14.77272789392653
 20
3.324942349743864
 30
0.0
 10
14.77036687126807
 20
3.333573409529195
 30
0.0
 10
14.76815331395262
 20
3.342264401753407
 30
0.0
 10
14.77036844843751
 20
3.333573409529195
 30
0.0
 10
14.77272552817238
 20
3.324942349743864
 30
0.0
 10
14.77506052753503
 20
3.316299461187739
 30
0.0
  0
SPLINE
  5
189
330
70
100
AcDbEntity
  8
Livello 2
370
    35
100
AcDbSpline
210
0.0
220
0.0
230
1.0
 70
     9
 71
     3
 72
    11
 73
     7
 74
     0
 42
0.000000001
 43
0.0000000001
 40
0.0
 40
0.0
 40
0.0
 40
0.0
 40
1.0
 40
1.0
 40
1.0
 40
2.0
 40
2.0
 40
2.0
 40
2.0
 10
14.8260890563288
 20
3.155695508064225
 30
0.0
 10
14.82580122290519
 20
3.156477784108686
 30
0.0
 10
14.82549052052458
 20
3.157249808551856
 30
0.0
 10
14.82520347568575
 20
3.158032873181037
 30
0.0
 10
14.82549052052458
 20
3.157250597136576
 30
0.0
 10
14.82580043432047
 20
3.156477784108686
 30
0.0
 10
14.8260890563288
 20
3.155695508064225
 30
0.0
  0
SPLINE
  5
18A
330
70
100
AcDbEntity
  8
Livello 2
370
    35
100
AcDbSpline
210
0.0
220
0.0
230
1.0
 70
     9
 71
     3
 72
    11
 73
     7
 74
     0
 42
0.000000001
 43
0.0000000001
 40
0.0
 40
0.0
 40
0.0
 40
0.0
 40
1.0
 40
1.0
 40
1.0
 40
2.0
 40
2.0
 40
2.0
 40
2.0
 10
14.71017893092505
 20
3.753986851007982
 30
0.0
 10
14.70957960653611
 20
3.773398652531489
 30
0.0
 10
14.70917269681939
 20
3.792856980553644
 30
0.0
 10
14.70916007946388
 20
3.812409150157815
 30
0.0
 10
14.70917742832771
 20
3.792858557723083
 30
0.0
 10
14.70957487502779
 20
3.773397863946769
 30
0.0
 10
14.71017893092505
 20
3.753986851007982
 30
0.0
  0
SPLINE
  5
18B
330
70
100
AcDbEntity
  8
Livello 2
370
    35
100
AcDbSpline
210
0.0
220
0.0
230
1.0
 70
     9
 71
     3
 72
    11
 73
     7
 74
     0
 42
0.000000001
 43
0.0000000001
 40
0.0
 40
0.0
 40
0.0
 40
0.0
 40
1.0
 40
1.0
 40
1.0
 40
2.0
 40
2.0
 40
2.0
 40
2.0
 10
14.71314322089612
 20
3.692141305578744
 30
0.0
 10
14.71225290874462
 20
3.706260915031008
 30
0.0
 10
14.71149902175013
 20
3.72041601079591
 30
0.0
 10
14.71091783480981
 20
3.734616055889958
 30
0.0
 10
14.71150217608901
 20
3.72041679938063
 30
0.0
 10
14.71224896582103
 20
3.706260126446353
 30
0.0
 10
14.71314322089612
 20
3.692141305578744
 30
0.0
  0
SPLINE
  5
18C
330
70
100
AcDbEntity
  8
Livello 2
370
    35
100
AcDbSpline
210
0.0
220
0.0
230
1.0
 70
     9
 71
     3
 72
    11
 73
     7
 74
     0
 42
0.000000001
 43
0.0000000001
 40
0.0
 40
0.0
 40
0.0
 40
0.0
 40
1.0
 40
1.0
 40
1.0
 40
2.0
 40
2.0
 40
2.0
 40
2.0
 10
14.71924923240067
 20
3.617061731340225
 30
0.0
 10
14.71734401171167
 20
3.635617129855437
 30
0.0
 10
14.71572977878515
 20
3.654256906935838
 30
0.0
 10
14.71436158429199
 20
3.67296450230238
 30
0.0
 10
14.71573451029347
 20
3.654258484105277
 30
0.0
 10
14.71733928020328
 20
3.635616341270654
 30
0.0
 10
14.71924923240067
 20
3.617061731340225
 30
0.0
  0
SPLINE
  5
18D
330
70
100
AcDbEntity
  8
Livello 2
370
    35
100
AcDbSpline
210
0.0
220
0.0
230
1.0
 70
     9
 71
     3
 72
    11
 73
     7
 74
     0
 42
0.000000001
 43
0.0000000001
 40
0.0
 40
0.0
 40
0.0
 40
0.0
 40
1.0
 40
1.0
 40
1.0
 40
2.0
 40
2.0
 40
2.0
 40
2.0
 10
14.76106314871462
 20
3.37124962180536
 30
0.0
 10
14.75887561469505
 20
3.380442153912898
 30
0.0
 10
14.75676693914768
 20
3.389664652239973
 30
0.0
 10
14.7547126759461
 20
3.398907653769756
 30
0.0
 10
14.75676851631712
 20
3.389664652239973
 30
0.0
 10
14.75887324894089
 20
3.380442153912898
 30
0.0
 10
14.76106314871462
 20
3.37124962180536
 30
0.0
  0
SPLINE
  5
18E
330
70
100
AcDbEntity
  8
Livello 2
370
    35
100
AcDbSpline
210
0.0
220
0.0
230
1.0
 70
     9
 71
     3
 72
    11
 73
     7
 74
     0
 42
0.000000001
 43
0.0000000001
 40
0.0
 40
0.0
 40
0.0
 40
0.0
 40
1.0
 40
1.0
 40
1.0
 40
2.0
 40
2.0
 40
2.0
 40
2.0
 10
14.72617773777057
 20
3.559281340154317
 30
0.0
 10
14.72447124043161
 20
3.572050103977374
 30
0.0
 10
14.72291930569814
 20
3.584866971468581
 30
0.0
 10
14.72146752122444
 20
3.597713016594477
 30
0.0
 10
14.72292246003708
 20
3.584866971468581
 30
0.0
 10
14.72446808609273
 20
3.572049315392718
 30
0.0
 10
14.72617773777057
 20
3.559281340154317
 30
0.0
  0
SPLINE
  5
18F
330
70
100
AcDbEntity
  8
Livello 2
370
    35
100
AcDbSpline
210
0.0
220
0.0
230
1.0
 70
     9
 71
     3
 72
    11
 73
     7
 74
     0
 42
0.000000001
 43
0.0000000001
 40
0.0
 40
0.0
 40
0.0
 40
0.0
 40
1.0
 40
1.0
 40
1.0
 40
2.0
 40
2.0
 40
2.0
 40
2.0
 10
14.88138225130066
 20
3.021707866486939
 30
0.0
 10
14.87983189373663
 20
3.025097203623338
 30
0.0
 10
14.878257878631
 20
3.028473923404159
 30
0.0
 10
14.87672644710037
 20
3.031873512141848
 30
0.0
 10
14.87825866721572
 20
3.028473923404159
 30
0.0
 10
14.87983110515191
 20
3.025097203623338
 30
0.0
 10
14.88138225130066
 20
3.021707866486939
 30
0.0
  0
SPLINE
  5
190
330
70
100
AcDbEntity
  8
Livello 2
370
    35
100
AcDbSpline
210
0.0
220
0.0
230
1.0
 70
     9
 71
     3
 72
    29
 73
    25
 74
     0
 42
0.000000001
 43
0.0000000001
 40
0.0
 40
0.0
 40
0.0
 40
0.0
 40
1.0
 40
1.0
 40
1.0
 40
2.0
 40
2.0
 40
2.0
 40
3.0
 40
3.0
 40
3.0
 40
4.0
 40
4.0
 40
4.0
 40
5.0
 40
5.0
 40
5.0
 40
6.0
 40
6.0
 40
6.0
 40
7.0
 40
7.0
 40
7.0
 40
8.0
 40
8.0
 40
8.0
 40
8.0
 10
16.61472774576093
 20
1.906145163550933
 30
0.0
 10
17.41498352192679
 20
1.955934825745995
 30
0.0
 10
18.04865787277432
 20
2.620622636551255
 30
0.0
 10
18.04865787277432
 20
3.433424795648476
 30
0.0
 10
18.04865787277432
 20
4.278637786831343
 30
0.0
 10
17.36347711079128
 20
4.963817760229601
 30
0.0
 10
16.51826411960848
 20
4.963817760229601
 30
0.0
 10
15.6730519170104
 20
4.963817760229601
 30
0.0
 10
14.98787115502735
 20
4.278637786831343
 30
0.0
 10
14.98787115502735
 20
3.433424795648476
 30
0.0
 10
14.98787115502735
 20
2.887838512618105
 30
0.0
 10
15.27347998115667
 20
2.409094247817342
 30
0.0
 10
15.70322711140831
 20
2.138116034040446
 30
0.0
 10
15.77754648997452
 20
2.097310717586244
 30
0.0
 10
15.85487431925615
 20
2.061357562928215
 30
0.0
 10
15.93475874020747
 20
2.030572003955286
 30
0.0
 10
16.16650959555945
 20
1.953412143219438
 30
0.0
 10
16.41147476510253
 20
1.910635364959596
 30
0.0
 10
16.66405529730871
 20
1.904060934129942
 30
0.0
 10
16.66631222678387
 20
1.904112980721627
 30
0.0
 10
16.66857546493678
 20
1.904133483924464
 30
0.0
 10
16.67083002865778
 20
1.904193416363346
 30
0.0
 10
16.65209010131761
 20
1.904661047103665
 30
0.0
 10
16.63338329453578
 20
1.905287183373134
 30
0.0
 10
16.61472774576093
 20
1.906145163550933
 30
0.0
  0
SPLINE
  5
191
330
70
100
AcDbEntity
  8
Livello 2
370
    35
100
AcDbSpline
210
0.0
220
0.0
230
1.0
 70
     9
 71
     3
 72
    11
 73
     7
 74
     0
 42
0.000000001
 43
0.0000000001
 40
0.0
 40
0.0
 40
0.0
 40
0.0
 40
1.0
 40
1.0
 40
1.0
 40
2.0
 40
2.0
 40
2.0
 40
2.0
 10
14.86118028788543
 20
3.067351150212362
 30
0.0
 10
14.85939414348941
 20
3.071545632350089
 30
0.0
 10
14.85766004568513
 20
3.075767714953195
 30
0.0
 10
14.85590307892392
 20
3.079977180200723
 30
0.0
 10
14.85766162285457
 20
3.075768503537914
 30
0.0
 10
14.85939256631997
 20
3.071544843765434
 30
0.0
 10
14.86118028788543
 20
3.067351150212362
 30
0.0
  0
SPLINE
  5
192
330
70
100
AcDbEntity
  8
Livello 2
370
    35
100
AcDbSpline
210
0.0
220
0.0
230
1.0
 70
     9
 71
     3
 72
    11
 73
     7
 74
     0
 42
0.000000001
 43
0.0000000001
 40
0.0
 40
0.0
 40
0.0
 40
0.0
 40
1.0
 40
1.0
 40
1.0
 40
2.0
 40
2.0
 40
2.0
 40
2.0
 10
14.81342044276545
 20
3.191421550322178
 30
0.0
 10
14.81122186855973
 20
3.197786217615716
 30
0.0
 10
14.80903827746376
 20
3.204156405002292
 30
0.0
 10
14.80690594437474
 20
3.210551038515239
 30
0.0
 10
14.80904064321791
 20
3.204156405002292
 30
0.0
 10
14.8112202913903
 20
3.197785429030997
 30
0.0
 10
14.81342044276545
 20
3.191421550322178
 30
0.0
  0
SPLINE
  5
193
330
70
100
AcDbEntity
  8
Livello 2
370
    35
100
AcDbSpline
210
0.0
220
0.0
230
1.0
 70
     9
 71
     3
 72
    11
 73
     7
 74
     0
 42
0.000000001
 43
0.0000000001
 40
0.0
 40
0.0
 40
0.0
 40
0.0
 40
1.0
 40
1.0
 40
1.0
 40
2.0
 40
2.0
 40
2.0
 40
2.0
 10
14.6077851476611
 20
3.242032917797938
 30
0.0
 10
14.61059250927245
 20
3.232172454430536
 30
0.0
 10
14.61361042300457
 20
3.222402678306335
 30
0.0
 10
14.61655894128112
 20
3.212602935962534
 30
0.0
 10
14.61361042300457
 20
3.222403466890991
 30
0.0
 10
14.61059250927245
 20
3.232173243015319
 30
0.0
 10
14.6077851476611
 20
3.242032917797938
 30
0.0
  0
SPLINE
  5
194
330
70
100
AcDbEntity
  8
Livello 2
370
    35
100
AcDbSpline
210
0.0
220
0.0
230
1.0
 70
     9
 71
     3
 72
    11
 73
     7
 74
     0
 42
0.000000001
 43
0.0000000001
 40
0.0
 40
0.0
 40
0.0
 40
0.0
 40
1.0
 40
1.0
 40
1.0
 40
2.0
 40
2.0
 40
2.0
 40
2.0
 10
14.58703984937221
 20
3.32137794679914
 30
0.0
 10
14.5925496908267
 20
3.298650146518412
 30
0.0
 10
14.59838994927985
 20
3.27605325130165
 30
0.0
 10
14.60463790603451
 20
3.253619593122355
 30
0.0
 10
14.59839073786457
 20
3.276052462716866
 30
0.0
 10
14.5925496908267
 20
3.298650146518412
 30
0.0
 10
14.58703984937221
 20
3.32137794679914
 30
0.0
  0
SPLINE
  5
195
330
70
100
AcDbEntity
  8
Livello 2
370
    35
100
AcDbSpline
210
0.0
220
0.0
230
1.0
 70
     9
 71
     3
 72
    11
 73
     7
 74
     0
 42
0.000000001
 43
0.0000000001
 40
0.0
 40
0.0
 40
0.0
 40
0.0
 40
1.0
 40
1.0
 40
1.0
 40
2.0
 40
2.0
 40
2.0
 40
2.0
 10
14.67738405807975
 20
3.038648243490919
 30
0.0
 10
14.68120159672029
 20
3.02911583136802
 30
0.0
 10
14.68509089657058
 20
3.019623637066012
 30
0.0
 10
14.68904407178334
 20
3.010160620398694
 30
0.0
 10
14.68508931940108
 20
3.019622059896573
 30
0.0
 10
14.68120238530501
 20
3.029117408537459
 30
0.0
 10
14.67738405807975
 20
3.038648243490919
 30
0.0
  0
SPLINE
  5
196
330
70
100
AcDbEntity
  8
Livello 2
370
    35
100
AcDbSpline
210
0.0
220
0.0
230
1.0
 70
     9
 71
     3
 72
    11
 73
     7
 74
     0
 42
0.000000001
 43
0.0000000001
 40
0.0
 40
0.0
 40
0.0
 40
0.0
 40
1.0
 40
1.0
 40
1.0
 40
2.0
 40
2.0
 40
2.0
 40
2.0
 10
14.65817571141454
 20
3.088382704755418
 30
0.0
 10
14.66167939333559
 20
3.078941768460377
 30
0.0
 10
14.66528401410115
 20
3.069552878756955
 30
0.0
 10
14.66891938967089
 20
3.060176606409048
 30
0.0
 10
14.66528322551643
 20
3.069552090172236
 30
0.0
 10
14.66167939333559
 20
3.078943345629816
 30
0.0
 10
14.65817571141454
 20
3.088382704755418
 30
0.0
  0
SPLINE
  5
197
330
70
100
AcDbEntity
  8
Livello 2
370
    35
100
AcDbSpline
210
0.0
220
0.0
230
1.0
 70
     9
 71
     3
 72
    11
 73
     7
 74
     0
 42
0.000000001
 43
0.0000000001
 40
0.0
 40
0.0
 40
0.0
 40
0.0
 40
1.0
 40
1.0
 40
1.0
 40
2.0
 40
2.0
 40
2.0
 40
2.0
 10
14.64013525872308
 20
3.138918368097777
 30
0.0
 10
14.64336687891491
 20
3.129468757370755
 30
0.0
 10
14.6467325585096
 20
3.120083022006213
 30
0.0
 10
14.6500950837654
 20
3.110694920887512
 30
0.0
 10
14.64673176992488
 20
3.120083022006213
 30
0.0
 10
14.64336687891491
 20
3.129469545955475
 30
0.0
 10
14.64013525872308
 20
3.138918368097777
 30
0.0
  0
SPLINE
  5
198
330
70
100
AcDbEntity
  8
Livello 2
370
    35
100
AcDbSpline
210
0.0
220
0.0
230
1.0
 70
     9
 71
     3
 72
    11
 73
     7
 74
     0
 42
0.000000001
 43
0.0000000001
 40
0.0
 40
0.0
 40
0.0
 40
0.0
 40
1.0
 40
1.0
 40
1.0
 40
2.0
 40
2.0
 40
2.0
 40
2.0
 10
14.62332342102884
 20
3.19015902618182
 30
0.0
 10
14.62631215712627
 20
3.18061715104235
 30
0.0
 10
14.62947122752366
 20
3.171151768620809
 30
0.0
 10
14.63259244585443
 20
3.161669037335436
 30
0.0
 10
14.62947043893893
 20
3.171151768620809
 30
0.0
 10
14.62631215712627
 20
3.18061715104235
 30
0.0
 10
14.62332342102884
 20
3.19015902618182
 30
0.0
  0
SPLINE
  5
199
330
70
100
AcDbEntity
  8
Livello 2
370
    35
100
AcDbSpline
210
0.0
220
0.0
230
1.0
 70
     9
 71
     3
 72
    11
 73
     7
 74
     0
 42
0.000000001
 43
0.0000000001
 40
0.0
 40
0.0
 40
0.0
 40
0.0
 40
1.0
 40
1.0
 40
1.0
 40
2.0
 40
2.0
 40
2.0
 40
2.0
 10
14.54688353814448
 20
3.535334387893002
 30
0.0
 10
14.54816735407233
 20
3.52573731182284
 30
0.0
 10
14.54950242800708
 20
3.516157584616638
 30
0.0
 10
14.55091636041417
 20
3.506601514952087
 30
0.0
 10
14.54950242800708
 20
3.516156796031918
 30
0.0
 10
14.54816814265704
 20
3.52573731182284
 30
0.0
 10
14.54688353814448
 20
3.535334387893002
 30
0.0
  0
SPLINE
  5
19A
330
70
100
AcDbEntity
  8
Livello 2
370
    35
100
AcDbSpline
210
0.0
220
0.0
230
1.0
 70
     9
 71
     3
 72
    11
 73
     7
 74
     0
 42
0.000000001
 43
0.0000000001
 40
0.0
 40
0.0
 40
0.0
 40
0.0
 40
1.0
 40
1.0
 40
1.0
 40
2.0
 40
2.0
 40
2.0
 40
2.0
 10
14.55492079363384
 20
3.480858955278112
 30
0.0
 10
14.55646878544371
 20
3.471232701573326
 30
0.0
 10
14.55803097177854
 20
3.461611179376857
 30
0.0
 10
14.55971065723697
 20
3.452029086416431
 30
0.0
 10
14.55803097177854
 20
3.461611179376857
 30
0.0
 10
14.55646878544371
 20
3.471233490158045
 30
0.0
 10
14.55492079363384
 20
3.480858955278112
 30
0.0
  0
SPLINE
  5
19B
330
70
100
AcDbEntity
  8
Livello 2
370
    35
100
AcDbSpline
210
0.0
220
0.0
230
1.0
 70
     9
 71
     3
 72
    11
 73
     7
 74
     0
 42
0.000000001
 43
0.0000000001
 40
0.0
 40
0.0
 40
0.0
 40
0.0
 40
1.0
 40
1.0
 40
1.0
 40
2.0
 40
2.0
 40
2.0
 40
2.0
 10
14.56434990115815
 20
3.426844056141129
 30
0.0
 10
14.56616049168048
 20
3.417209916589019
 30
0.0
 10
14.56795057900004
 20
3.407571045528655
 30
0.0
 10
14.56989365175571
 20
3.397984221059976
 30
0.0
 10
14.56794979041532
 20
3.407571045528655
 30
0.0
 10
14.5661612802652
 20
3.417211493758458
 30
0.0
 10
14.56434990115815
 20
3.426844056141129
 30
0.0
  0
SPLINE
  5
19C
330
70
100
AcDbEntity
  8
Livello 2
370
    35
100
AcDbSpline
210
0.0
220
0.0
230
1.0
 70
     9
 71
     3
 72
    11
 73
     7
 74
     0
 42
0.000000001
 43
0.0000000001
 40
0.0
 40
0.0
 40
0.0
 40
0.0
 40
1.0
 40
1.0
 40
1.0
 40
2.0
 40
2.0
 40
2.0
 40
2.0
 10
14.57510856252418
 20
3.373510494204116
 30
0.0
 10
14.57719594628398
 20
3.363814056459029
 30
0.0
 10
14.57922891769801
 20
3.354099481265264
 30
0.0
 10
14.58145036086066
 20
3.344453512942424
 30
0.0
 10
14.57922812911329
 20
3.354098692680609
 30
0.0
 10
14.57719594628398
 20
3.363815633628469
 30
0.0
 10
14.57510856252418
 20
3.373510494204116
 30
0.0
  0
SPLINE
  5
19D
330
70
100
AcDbEntity
  8
Livello 2
370
    35
100
AcDbSpline
210
0.0
220
0.0
230
1.0
 70
     9
 71
     3
 72
    11
 73
     7
 74
     0
 42
0.000000001
 43
0.0000000001
 40
0.0
 40
0.0
 40
0.0
 40
0.0
 40
1.0
 40
1.0
 40
1.0
 40
2.0
 40
2.0
 40
2.0
 40
2.0
 10
18.19924285700128
 20
2.444578194565548
 30
0.0
 10
18.15582022785386
 20
2.394565362894072
 30
0.0
 10
18.11008310254655
 20
2.346612314517216
 30
0.0
 10
18.06217027199052
 20
2.30092092712377
 30
0.0
 10
18.11008231396183
 20
2.346621777533851
 30
0.0
 10
18.15582101643857
 20
2.394558265631596
 30
0.0
 10
18.19924285700128
 20
2.444578194565548
 30
0.0
  0
SPLINE
  5
19E
330
70
100
AcDbEntity
  8
Livello 2
370
    35
100
AcDbSpline
210
0.0
220
0.0
230
1.0
 70
     8
 71
     3
 72
    11
 73
     7
 74
     0
 42
0.000000001
 43
0.0000000001
 40
0.0
 40
0.0
 40
0.0
 40
0.0
 40
1.0
 40
1.0
 40
1.0
 40
2.0
 40
2.0
 40
2.0
 40
2.0
 10
15.87922187255643
 20
1.858173189140742
 30
0.0
 10
16.12769230119007
 20
1.775628083336484
 30
0.0
 10
16.39018140043167
 20
1.729960353484754
 30
0.0
 10
16.6607156410099
 20
1.723135941298157
 30
0.0
 10
17.08380080752769
 20
1.731307256190364
 30
0.0
 10
17.4764663183838
 20
1.865721522102358
 30
0.0
 10
17.80261865083945
 20
2.090210300746893
 30
0.0
  0
SPLINE
  5
19F
330
70
100
AcDbEntity
  8
Livello 2
370
    35
100
AcDbSpline
210
0.0
220
0.0
230
1.0
 70
     8
 71
     3
 72
    17
 73
    13
 74
     0
 42
0.000000001
 43
0.0000000001
 40
0.0
 40
0.0
 40
0.0
 40
0.0
 40
1.0
 40
1.0
 40
1.0
 40
2.0
 40
2.0
 40
2.0
 40
3.0
 40
3.0
 40
3.0
 40
4.0
 40
4.0
 40
4.0
 40
4.0
 10
16.66405529730871
 20
1.904060934129942
 30
0.0
 10
16.64932768903552
 20
1.903724208453587
 30
0.0
 10
16.63457248029703
 20
1.903498673223015
 30
0.0
 10
16.61976522496678
 20
1.903498673223015
 30
0.0
 10
16.37845987711976
 20
1.903498673223015
 30
0.0
 10
16.14751574393867
 20
1.948579696041319
 30
0.0
 10
15.93475874020747
 20
2.030572003955286
 30
0.0
 10
15.62381189836668
 20
2.134098983465138
 30
0.0
 10
15.336659811936
 20
2.299454948125053
 30
0.0
 10
15.08708457610644
 20
2.522695397154182
 30
0.0
 10
14.95763050809752
 20
2.638489600603829
 30
0.0
 10
14.83994843282283
 20
2.768050127550211
 30
0.0
 10
14.73414165488089
 20
2.909619222647336
 30
0.0
  0
SPLINE
  5
1A0
330
70
100
AcDbEntity
  8
Livello 2
370
    35
100
AcDbSpline
210
0.0
220
0.0
230
1.0
 70
     9
 71
     3
 72
    14
 73
    10
 74
     0
 42
0.000000001
 43
0.0000000001
 40
0.0
 40
0.0
 40
0.0
 40
0.0
 40
1.0
 40
1.0
 40
1.0
 40
2.0
 40
2.0
 40
2.0
 40
3.0
 40
3.0
 40
3.0
 40
3.0
 10
16.6607156410099
 20
1.723135941298157
 30
0.0
 10
16.39018140043167
 20
1.729960353484754
 30
0.0
 10
16.12769230119007
 20
1.775628083336484
 30
0.0
 10
15.87922187255643
 20
1.858173189140742
 30
0.0
 10
16.10954538956108
 20
1.77067892561948
 30
0.0
 10
16.35913008840734
 20
1.722616263966152
 30
0.0
 10
16.61976522496678
 20
1.722616263966152
 30
0.0
 10
16.63345584433024
 20
1.722616263966152
 30
0.0
 10
16.64708653125482
 20
1.722872554000916
 30
0.0
 10
16.6607156410099
 20
1.723135941298157
 30
0.0
  0
SPLINE
  5
1A1
330
70
100
AcDbEntity
  8
Livello 2
370
    35
100
AcDbSpline
210
0.0
220
0.0
230
1.0
 70
     9
 71
     3
 72
    11
 73
     7
 74
     0
 42
0.000000001
 43
0.0000000001
 40
0.0
 40
0.0
 40
0.0
 40
0.0
 40
1.0
 40
1.0
 40
1.0
 40
2.0
 40
2.0
 40
2.0
 40
2.0
 10
14.69765226261168
 20
2.989897935959865
 30
0.0
 10
14.70184753333425
 20
2.980149451623029
 30
0.0
 10
14.70608459904697
 20
2.970426201997413
 30
0.0
 10
14.71042260360424
 20
2.960754210378634
 30
0.0
 10
14.70608302187753
 20
2.970424624827974
 30
0.0
 10
14.70184753333425
 20
2.980150240207749
 30
0.0
 10
14.69765226261168
 20
2.989897935959865
 30
0.0
  0
SPLINE
  5
1A2
330
70
100
AcDbEntity
  8
Livello 2
370
    35
100
AcDbSpline
210
0.0
220
0.0
230
1.0
 70
     8
 71
     3
 72
   101
 73
    97
 74
     0
 42
0.000000001
 43
0.0000000001
 40
0.0
 40
0.0
 40
0.0
 40
0.0
 40
1.0
 40
1.0
 40
1.0
 40
2.0
 40
2.0
 40
2.0
 40
3.0
 40
3.0
 40
3.0
 40
4.0
 40
4.0
 40
4.0
 40
5.0
 40
5.0
 40
5.0
 40
6.0
 40
6.0
 40
6.0
 40
7.0
 40
7.0
 40
7.0
 40
8.0
 40
8.0
 40
8.0
 40
9.0
 40
9.0
 40
9.0
 40
10.0
 40
10.0
 40
10.0
 40
11.0
 40
11.0
 40
11.0
 40
12.0
 40
12.0
 40
12.0
 40
13.0
 40
13.0
 40
13.0
 40
14.0
 40
14.0
 40
14.0
 40
15.0
 40
15.0
 40
15.0
 40
16.0
 40
16.0
 40
16.0
 40
17.0
 40
17.0
 40
17.0
 40
18.0
 40
18.0
 40
18.0
 40
19.0
 40
19.0
 40
19.0
 40
20.0
 40
20.0
 40
20.0
 40
21.0
 40
21.0
 40
21.0
 40
22.0
 40
22.0
 40
22.0
 40
23.0
 40
23.0
 40
23.0
 40
24.0
 40
24.0
 40
24.0
 40
25.0
 40
25.0
 40
25.0
 40
26.0
 40
26.0
 40
26.0
 40
27.0
 40
27.0
 40
27.0
 40
28.0
 40
28.0
 40
28.0
 40
29.0
 40
29.0
 40
29.0
 40
30.0
 40
30.0
 40
30.0
 40
31.0
 40
31.0
 40
31.0
 40
32.0
 40
32.0
 40
32.0
 40
32.0
 10
14.73414165488089
 20
2.909619222647336
 30
0.0
 10
14.30779411336693
 20
3.480071159140614
 30
0.0
 10
14.07743116712624
 20
4.248689704833438
 30
0.0
 10
14.07743116712624
 20
5.128236097654752
 30
0.0
 10
14.07743116712624
 20
4.248689704833438
 30
0.0
 10
14.30779411336693
 20
3.480071159140614
 30
0.0
 10
14.73414165488089
 20
2.909619222647336
 30
0.0
 10
14.72891176100275
 20
2.920478034273136
 30
0.0
 10
14.72385929868709
 20
2.93143620757386
 30
0.0
 10
14.71881314504926
 20
2.942397535213527
 30
0.0
 10
14.72198640997172
 20
2.935501361817191
 30
0.0
 10
14.72503665567748
 20
2.928537370134777
 30
0.0
 10
14.72828247039434
 20
2.921681414559268
 30
0.0
 10
14.30754965210309
 20
3.490915776241333
 30
0.0
 10
14.08032685022644
 20
4.254986553840836
 30
0.0
 10
14.08032685022644
 20
5.128482924672816
 30
0.0
 10
14.08032685022644
 20
6.765313534973702
 30
0.0
 10
15.41198148168414
 20
8.096968166431464
 30
0.0
 10
17.04880578330724
 20
8.096968166431464
 30
0.0
 10
18.6856300849304
 20
8.096968166431464
 30
0.0
 10
20.01729102506592
 20
6.765313534973702
 30
0.0
 10
20.01729102506592
 20
5.128482924672816
 30
0.0
 10
20.01729102506592
 20
3.930621942950584
 30
0.0
 10
19.24637612066183
 20
2.581974887897158
 30
0.0
 10
17.80175041906023
 20
2.089140979863475
 30
0.0
 10
17.80246881974221
 20
2.089634633899605
 30
0.0
 10
17.80316356288248
 20
2.090159042739927
 30
0.0
 10
17.80388117497974
 20
2.09065348536084
 30
0.0
 10
17.80345849356863
 20
2.090508385771859
 30
0.0
 10
17.80304212083528
 20
2.090355400335746
 30
0.0
 10
17.80261865083945
 20
2.090210300746893
 30
0.0
 10
17.4764663183838
 20
1.865721522102358
 30
0.0
 10
17.08380080752769
 20
1.731307256190364
 30
0.0
 10
16.6607156410099
 20
1.723135941298157
 30
0.0
 10
16.66340077198927
 20
1.723068123012015
 30
0.0
 10
16.66607091985891
 20
1.722932486439797
 30
0.0
 10
16.66875762800765
 20
1.722872554000916
 30
0.0
 10
16.67196243631902
 20
1.722949046718973
 30
0.0
 10
16.67519090217198
 20
1.722926177762041
 30
0.0
 10
16.67839255614441
 20
1.723014499250891
 30
0.0
 10
16.69723184515964
 20
1.722638344338365
 30
0.0
 10
16.71609873464005
 20
1.722396248828617
 30
0.0
 10
16.73501215061917
 20
1.722396248828617
 30
0.0
 10
16.81475147198158
 20
1.722396248828617
 30
0.0
 10
16.89516818762043
 20
1.725763505592739
 30
0.0
 10
16.97605647692312
 20
1.732514579400159
 30
0.0
 10
17.00264124508057
 20
1.734759680104523
 30
0.0
 10
17.02927411690597
 20
1.737349392332437
 30
0.0
 10
17.05595351522996
 20
1.740331031167397
 30
0.0
 10
17.51819033603946
 20
1.791973867459778
 30
0.0
 10
17.95468775151374
 20
1.925579045446716
 30
0.0
 10
18.35334571767432
 20
2.137424445238993
 30
0.0
 10
17.95468775151374
 20
1.925579045446716
 30
0.0
 10
17.51819033603946
 20
1.791973867459778
 30
0.0
 10
17.05595351522996
 20
1.740331031167397
 30
0.0
 10
17.02927411690597
 20
1.737349392332437
 30
0.0
 10
17.00264124508057
 20
1.734759680104523
 30
0.0
 10
16.97605647692312
 20
1.732514579400159
 30
0.0
 10
17.00360252985695
 20
1.734813303865583
 30
0.0
 10
17.03120062938253
 20
1.737488183243597
 30
0.0
 10
17.05884919833016
 20
1.740577858185462
 30
0.0
 10
17.5210860191396
 20
1.792220694477842
 30
0.0
 10
17.95758343461395
 20
1.925825872464781
 30
0.0
 10
18.35624140077453
 20
2.137671272257058
 30
0.0
 10
18.73192316246694
 20
2.33730307187073
 30
0.0
 10
19.06488255824523
 20
2.601043655066554
 30
0.0
 10
19.3458710664867
 20
2.921537103555134
 30
0.0
 10
19.6173713233497
 20
3.231230095687421
 30
0.0
 10
19.82954477438642
 20
3.581071513200248
 30
0.0
 10
19.9764864971965
 20
3.961345992315194
 30
0.0
 10
20.12359224562878
 20
4.342030535485672
 30
0.0
 10
20.19817343432278
 20
4.734714183790324
 30
0.0
 10
20.19817343432278
 20
5.128482924672816
 30
0.0
 10
20.19817343432278
 20
5.969707254330377
 30
0.0
 10
19.87057641465591
 20
6.760582026640043
 30
0.0
 10
19.27574380430413
 20
7.355420945669642
 30
0.0
 10
18.68091119395229
 20
7.950259864699209
 30
0.0
 10
17.8900301129649
 20
8.277850575688296
 30
0.0
 10
17.04880578330724
 20
8.277850575688296
 30
0.0
 10
16.20758145364971
 20
8.277850575688296
 30
0.0
 10
15.41670668134007
 20
7.950259864699209
 30
0.0
 10
14.82187407098823
 20
7.355420945669642
 30
0.0
 10
14.22703515195864
 20
6.760582026640043
 30
0.0
 10
13.89944444096958
 20
5.969707254330377
 30
0.0
 10
13.89944444096958
 20
5.128482924672816
 30
0.0
 10
13.89944444096958
 20
3.978499287194168
 30
0.0
 10
14.27942241222887
 20
3.005284801060869
 30
0.0
 10
14.9693898834761
 20
2.388125780051981
 30
0.0
 10
15.22850147435223
 20
2.156352844327789
 30
0.0
 10
15.52498015229329
 20
1.982550348707568
 30
0.0
 10
15.84560608301521
 20
1.870737709520719
 30
0.0
 10
15.85387202807416
 20
1.867431962364982
 30
0.0
 10
15.86222708320667
 20
1.864303646771729
 30
0.0
 10
15.87054428627251
 20
1.861101204214514
 30
0.0
 10
15.87343760361856
 20
1.860128879251926
 30
0.0
 10
15.87632382370206
 20
1.85913605108663
 30
0.0
 10
15.87922187255643
 20
1.858173189140742
 30
0.0
  0
SPLINE
  5
1A3
330
70
100
AcDbEntity
  8
Livello 2
370
    35
100
AcDbSpline
210
0.0
220
0.0
230
1.0
 70
     9
 71
     3
 72
    23
 73
    19
 74
     0
 42
0.000000001
 43
0.0000000001
 40
0.0
 40
0.0
 40
0.0
 40
0.0
 40
1.0
 40
1.0
 40
1.0
 40
2.0
 40
2.0
 40
2.0
 40
3.0
 40
3.0
 40
3.0
 40
4.0
 40
4.0
 40
4.0
 40
5.0
 40
5.0
 40
5.0
 40
6.0
 40
6.0
 40
6.0
 40
6.0
 10
16.61976522496678
 20
1.722616263966152
 30
0.0
 10
16.35913008840734
 20
1.722616263966152
 30
0.0
 10
16.10954538956108
 20
1.77067892561948
 30
0.0
 10
15.87922187255643
 20
1.858173189140742
 30
0.0
 10
15.87632382370206
 20
1.85913605108663
 30
0.0
 10
15.87343760361856
 20
1.860128879251926
 30
0.0
 10
15.87054428627251
 20
1.861101204214514
 30
0.0
 10
16.10327692960371
 20
1.771488013544536
 30
0.0
 10
16.355840112946
 20
1.722149421810553
 30
0.0
 10
16.61976522496678
 20
1.722149421810553
 30
0.0
 10
16.63615280408047
 20
1.722149421810553
 30
0.0
 10
16.65246231330653
 20
1.722482204563373
 30
0.0
 10
16.66875762800765
 20
1.722872554000916
 30
0.0
 10
16.66607091985891
 20
1.722932486439797
 30
0.0
 10
16.66340077198927
 20
1.723068123012015
 30
0.0
 10
16.6607156410099
 20
1.723135941298157
 30
0.0
 10
16.64708653125482
 20
1.722872554000916
 30
0.0
 10
16.63345584433024
 20
1.722616263966152
 30
0.0
 10
16.61976522496678
 20
1.722616263966152
 30
0.0
  0
SPLINE
  5
1A4
330
70
100
AcDbEntity
  8
Livello 2
370
    35
100
AcDbSpline
210
0.0
220
0.0
230
1.0
 70
     9
 71
     3
 72
    14
 73
    10
 74
     0
 42
0.000000001
 43
0.0000000001
 40
0.0
 40
0.0
 40
0.0
 40
0.0
 40
1.0
 40
1.0
 40
1.0
 40
2.0
 40
2.0
 40
2.0
 40
3.0
 40
3.0
 40
3.0
 40
3.0
 10
14.5283163108584
 20
3.809321840970045
 30
0.0
 10
14.52831236793481
 20
3.810849329577082
 30
0.0
 10
14.52825874417374
 20
3.812364200828606
 30
0.0
 10
14.52825874417374
 20
3.813892478020363
 30
0.0
 10
14.52825874417374
 20
3.813814408132867
 30
0.0
 10
14.52825558983487
 20
3.813737126830091
 30
0.0
 10
14.52825558983487
 20
3.813659056942595
 30
0.0
 10
14.52825558983487
 20
3.812208849638334
 30
0.0
 10
14.52831315651953
 20
3.810772048274306
 30
0.0
 10
14.5283163108584
 20
3.809321840970045
 30
0.0
  0
SPLINE
  5
1A5
330
70
100
AcDbEntity
  8
Livello 2
370
    35
100
AcDbSpline
210
0.0
220
0.0
230
1.0
 70
     8
 71
     3
 72
   383
 73
   379
 74
     0
 42
0.000000001
 43
0.0000000001
 40
0.0
 40
0.0
 40
0.0
 40
0.0
 40
1.0
 40
1.0
 40
1.0
 40
2.0
 40
2.0
 40
2.0
 40
3.0
 40
3.0
 40
3.0
 40
4.0
 40
4.0
 40
4.0
 40
5.0
 40
5.0
 40
5.0
 40
6.0
 40
6.0
 40
6.0
 40
7.0
 40
7.0
 40
7.0
 40
8.0
 40
8.0
 40
8.0
 40
9.0
 40
9.0
 40
9.0
 40
10.0
 40
10.0
 40
10.0
 40
11.0
 40
11.0
 40
11.0
 40
12.0
 40
12.0
 40
12.0
 40
13.0
 40
13.0
 40
13.0
 40
14.0
 40
14.0
 40
14.0
 40
15.0
 40
15.0
 40
15.0
 40
16.0
 40
16.0
 40
16.0
 40
17.0
 40
17.0
 40
17.0
 40
18.0
 40
18.0
 40
18.0
 40
19.0
 40
19.0
 40
19.0
 40
20.0
 40
20.0
 40
20.0
 40
21.0
 40
21.0
 40
21.0
 40
22.0
 40
22.0
 40
22.0
 40
23.0
 40
23.0
 40
23.0
 40
24.0
 40
24.0
 40
24.0
 40
25.0
 40
25.0
 40
25.0
 40
26.0
 40
26.0
 40
26.0
 40
27.0
 40
27.0
 40
27.0
 40
28.0
 40
28.0
 40
28.0
 40
29.0
 40
29.0
 40
29.0
 40
30.0
 40
30.0
 40
30.0
 40
31.0
 40
31.0
 40
31.0
 40
32.0
 40
32.0
 40
32.0
 40
33.0
 40
33.0
 40
33.0
 40
34.0
 40
34.0
 40
34.0
 40
35.0
 40
35.0
 40
35.0
 40
36.0
 40
36.0
 40
36.0
 40
37.0
 40
37.0
 40
37.0
 40
38.0
 40
38.0
 40
38.0
 40
39.0
 40
39.0
 40
39.0
 40
40.0
 40
40.0
 40
40.0
 40
41.0
 40
41.0
 40
41.0
 40
42.0
 40
42.0
 40
42.0
 40
43.0
 40
43.0
 40
43.0
 40
44.0
 40
44.0
 40
44.0
 40
45.0
 40
45.0
 40
45.0
 40
46.0
 40
46.0
 40
46.0
 40
47.0
 40
47.0
 40
47.0
 40
48.0
 40
48.0
 40
48.0
 40
49.0
 40
49.0
 40
49.0
 40
50.0
 40
50.0
 40
50.0
 40
51.0
 40
51.0
 40
51.0
 40
52.0
 40
52.0
 40
52.0
 40
53.0
 40
53.0
 40
53.0
 40
54.0
 40
54.0
 40
54.0
 40
55.0
 40
55.0
 40
55.0
 40
56.0
 40
56.0
 40
56.0
 40
57.0
 40
57.0
 40
57.0
 40
58.0
 40
58.0
 40
58.0
 40
59.0
 40
59.0
 40
59.0
 40
60.0
 40
60.0
 40
60.0
 40
61.0
 40
61.0
 40
61.0
 40
62.0
 40
62.0
 40
62.0
 40
63.0
 40
63.0
 40
63.0
 40
64.0
 40
64.0
 40
64.0
 40
65.0
 40
65.0
 40
65.0
 40
66.0
 40
66.0
 40
66.0
 40
67.0
 40
67.0
 40
67.0
 40
68.0
 40
68.0
 40
68.0
 40
69.0
 40
69.0
 40
69.0
 40
70.0
 40
70.0
 40
70.0
 40
71.0
 40
71.0
 40
71.0
 40
72.0
 40
72.0
 40
72.0
 40
73.0
 40
73.0
 40
73.0
 40
74.0
 40
74.0
 40
74.0
 40
75.0
 40
75.0
 40
75.0
 40
76.0
 40
76.0
 40
76.0
 40
77.0
 40
77.0
 40
77.0
 40
78.0
 40
78.0
 40
78.0
 40
79.0
 40
79.0
 40
79.0
 40
80.0
 40
80.0
 40
80.0
 40
81.0
 40
81.0
 40
81.0
 40
82.0
 40
82.0
 40
82.0
 40
83.0
 40
83.0
 40
83.0
 40
84.0
 40
84.0
 40
84.0
 40
85.0
 40
85.0
 40
85.0
 40
86.0
 40
86.0
 40
86.0
 40
87.0
 40
87.0
 40
87.0
 40
88.0
 40
88.0
 40
88.0
 40
89.0
 40
89.0
 40
89.0
 40
90.0
 40
90.0
 40
90.0
 40
91.0
 40
91.0
 40
91.0
 40
92.0
 40
92.0
 40
92.0
 40
93.0
 40
93.0
 40
93.0
 40
94.0
 40
94.0
 40
94.0
 40
95.0
 40
95.0
 40
95.0
 40
96.0
 40
96.0
 40
96.0
 40
97.0
 40
97.0
 40
97.0
 40
98.0
 40
98.0
 40
98.0
 40
99.0
 40
99.0
 40
99.0
 40
100.0
 40
100.0
 40
100.0
 40
101.0
 40
101.0
 40
101.0
 40
102.0
 40
102.0
 40
102.0
 40
103.0
 40
103.0
 40
103.0
 40
104.0
 40
104.0
 40
104.0
 40
105.0
 40
105.0
 40
105.0
 40
106.0
 40
106.0
 40
106.0
 40
107.0
 40
107.0
 40
107.0
 40
108.0
 40
108.0
 40
108.0
 40
109.0
 40
109.0
 40
109.0
 40
110.0
 40
110.0
 40
110.0
 40
111.0
 40
111.0
 40
111.0
 40
112.0
 40
112.0
 40
112.0
 40
113.0
 40
113.0
 40
113.0
 40
114.0
 40
114.0
 40
114.0
 40
115.0
 40
115.0
 40
115.0
 40
116.0
 40
116.0
 40
116.0
 40
117.0
 40
117.0
 40
117.0
 40
118.0
 40
118.0
 40
118.0
 40
119.0
 40
119.0
 40
119.0
 40
120.0
 40
120.0
 40
120.0
 40
121.0
 40
121.0
 40
121.0
 40
122.0
 40
122.0
 40
122.0
 40
123.0
 40
123.0
 40
123.0
 40
124.0
 40
124.0
 40
124.0
 40
125.0
 40
125.0
 40
125.0
 40
126.0
 40
126.0
 40
126.0
 40
126.0
 10
17.80261865083945
 20
2.090210300746893
 30
0.0
 10
17.88075714521557
 20
2.143992567390827
 30
0.0
 10
17.955155382254
 20
2.202836759367051
 30
0.0
 10
18.02515489371154
 20
2.266459774760333
 30
0.0
 10
18.02524242661581
 20
2.266539421817268
 30
0.0
 10
18.02533074810465
 20
2.266618280289484
 30
0.0
 10
18.02541828100879
 20
2.266697927346419
 30
0.0
 10
18.03774938031106
 20
2.277909236343029
 30
0.0
 10
18.04994563162577
 20
2.289265644928557
 30
0.0
 10
18.06200624636833
 20
2.300763998764059
 30
0.0
 10
18.06206144729883
 20
2.300816045355744
 30
0.0
 10
18.06211585964467
 20
2.300868880532149
 30
0.0
 10
18.06217027199052
 20
2.30092092712377
 30
0.0
 10
18.11008310254655
 20
2.346612314517216
 30
0.0
 10
18.15582022785386
 20
2.394565362894072
 30
0.0
 10
18.19924285700128
 20
2.444578194565548
 30
0.0
 10
18.19995652617495
 20
2.445399899846181
 30
0.0
 10
18.20067729261109
 20
2.446215296448993
 30
0.0
 10
18.20138938461532
 20
2.447038578899065
 30
0.0
 10
18.21164650609795
 20
2.458889430105442
 30
0.0
 10
18.22176562525422
 20
2.470863300528459
 30
0.0
 10
18.23175935943968
 20
2.482943629889006
 30
0.0
 10
18.23284129767854
 20
2.484251891943228
 30
0.0
 10
18.2339137729009
 20
2.485567251260055
 30
0.0
 10
18.23499255680095
 20
2.486877879068436
 30
0.0
 10
18.27604470027322
 20
2.536747976905218
 30
0.0
 10
18.31482571974531
 20
2.588550107311532
 30
0.0
 10
18.35119997864501
 20
2.64211551315681
 30
0.0
 10
18.35235131233952
 20
2.64381175889448
 30
0.0
 10
18.35351920631321
 20
2.645495387276509
 30
0.0
 10
18.35466580849947
 20
2.647193998768339
 30
0.0
 10
18.36292071337221
 20
2.659426524980279
 30
0.0
 10
18.37102973007137
 20
2.671763144375526
 30
0.0
 10
18.37903071066358
 20
2.684176256488893
 30
0.0
 10
18.38072616781646
 20
2.686807763707138
 30
0.0
 10
18.3824074304444
 20
2.689447945357362
 30
0.0
 10
18.38409105882649
 20
2.692087338422803
 30
0.0
 10
18.39211175403668
 20
2.704655013141723
 30
0.0
 10
18.40004412775808
 20
2.717284986053682
 30
0.0
 10
18.4078014356711
 20
2.730032458089246
 30
0.0
 10
18.40819888237112
 20
2.730685406239309
 30
0.0
 10
18.40858134596146
 20
2.731346240236569
 30
0.0
 10
18.40897800407676
 20
2.731999188386633
 30
0.0
 10
18.43364808852844
 20
2.772638902049143
 30
0.0
 10
18.4569302638689
 20
2.814206779929753
 30
0.0
 10
18.47884818763991
 20
2.856590054413173
 30
0.0
 10
18.4803330926719
 20
2.859462079971726
 30
0.0
 10
18.48184796392336
 20
2.862315179496945
 30
0.0
 10
18.48331946301518
 20
2.865194302317974
 30
0.0
 10
18.48957688278647
 20
2.877433925792391
 30
0.0
 10
18.49568289429102
 20
2.889762659340442
 30
0.0
 10
18.50170531581504
 20
2.902139496556644
 30
0.0
 10
18.50374459590682
 20
2.906332401524933
 30
0.0
 10
18.50576810430421
 20
2.91053476950992
 30
0.0
 10
18.50778057251546
 20
2.914743446172729
 30
0.0
 10
18.51363896841723
 20
2.926993321248565
 30
0.0
 10
18.51942008301628
 20
2.939286568484106
 30
0.0
 10
18.52504584642494
 20
2.951665771454402
 30
0.0
 10
18.52663563322508
 20
2.955163933282425
 30
0.0
 10
18.528166276171
 20
2.958693638499359
 30
0.0
 10
18.52973634835309
 20
2.962201263344017
 30
0.0
 10
18.54776260651959
 20
3.002456936246805
 30
0.0
 10
18.56453107205406
 20
3.043389214841246
 30
0.0
 10
18.58003622486345
 20
3.084935800934361
 30
0.0
 10
18.58180502039552
 20
3.089677560869407
 30
0.0
 10
18.58362113101095
 20
3.094396451847521
 30
0.0
 10
18.58535680598467
 20
3.099153983477023
 30
0.0
 10
18.58962147216269
 20
3.110842386230588
 30
0.0
 10
18.59373078715051
 20
3.12260412736333
 30
0.0
 10
18.59779120988546
 20
3.13438794886835
 30
0.0
 10
18.59991960005094
 20
3.14056651016736
 30
0.0
 10
18.60202748701358
 20
3.14675374589835
 30
0.0
 10
18.604099099079
 20
3.15295833049317
 30
0.0
 10
18.60793004365984
 20
3.164426718109264
 30
0.0
 10
18.61169316995454
 20
3.175926649114206
 30
0.0
 10
18.61533012269366
 20
3.187481781049711
 30
0.0
 10
18.61733785939659
 20
3.193863008622361
 30
0.0
 10
18.61925569744117
 20
3.200282088261743
 30
0.0
 10
18.62120350170516
 20
3.206690127714923
 30
0.0
 10
18.62476632748039
 20
3.218406919518457
 30
0.0
 10
18.62834492495006
 20
3.230117402644298
 30
0.0
 10
18.63170666162115
 20
3.241920150182652
 30
0.0
 10
18.63236355269481
 20
3.244228337664711
 30
0.0
 10
18.63295183689761
 20
3.246566491366243
 30
0.0
 10
18.63360084212407
 20
3.248877833187245
 30
0.0
 10
18.64054748494259
 20
3.273593655552788
 30
0.0
 10
18.64697760476799
 20
3.298520818624015
 30
0.0
 10
18.6530268381726
 20
3.32359465845347
 30
0.0
 10
18.65491155565883
 20
3.33140953305127
 30
0.0
 10
18.65684595398265
 20
3.339203904446232
 30
0.0
 10
18.65864156139518
 20
3.347052688187038
 30
0.0
 10
18.66103570461206
 20
3.357509321604372
 30
0.0
 10
18.66327607380804
 20
3.368022733121838
 30
0.0
 10
18.66551250008042
 20
3.378537721808615
 30
0.0
 10
18.66735621116111
 20
3.38721451950781
 30
0.0
 10
18.66916916743759
 20
3.395903934562583
 30
0.0
 10
18.67090484241131
 20
3.404620161497951
 30
0.0
 10
18.67293544807118
 20
3.414805521770849
 30
0.0
 10
18.67490769846166
 20
3.425010596661802
 30
0.0
 10
18.67678847302423
 20
3.435248003526385
 30
0.0
 10
18.67853045667577
 20
3.444736254904795
 30
0.0
 10
18.68015651837308
 20
3.454263935519377
 30
0.0
 10
18.68176917413015
 20
3.463796347642276
 30
0.0
 10
18.68340154450521
 20
3.47343443011792
 30
0.0
 10
18.68507807562483
 20
3.483056740899109
 30
0.0
 10
18.68657796376662
 20
3.492738984119242
 30
0.0
 10
18.68868506214454
 20
3.50635941944234
 30
0.0
 10
18.69057687689324
 20
3.520049250221146
 30
0.0
 10
18.69241901080449
 20
3.53375485269428
 30
0.0
 10
18.69396542544486
 20
3.545242166343644
 30
0.0
 10
18.69539118662275
 20
3.556764177720798
 30
0.0
 10
18.6967491295145
 20
3.568309058054949
 30
0.0
 10
18.698249806241
 20
3.581091227818302
 30
0.0
 10
18.69972840259524
 20
3.593881283428915
 30
0.0
 10
18.70099723541342
 20
3.606732060063129
 30
0.0
 10
18.70183155804956
 20
3.615162819328979
 30
0.0
 10
18.70252314685101
 20
3.623633007831001
 30
0.0
 10
18.70325653064273
 20
3.632091367562101
 30
0.0
 10
18.70428011361222
 20
3.6439296014129
 30
0.0
 10
18.70523903263451
 20
3.655785184127595
 30
0.0
 10
18.70606389225402
 20
3.667679407493678
 30
0.0
 10
18.70664429060963
 20
3.676034462626191
 30
0.0
 10
18.70717737388186
 20
3.684401346529562
 30
0.0
 10
18.7076591991472
 20
3.692782424957886
 30
0.0
 10
18.70839337152364
 20
3.70560560112685
 30
0.0
 10
18.70898165572644
 20
3.718466629362482
 30
0.0
 10
18.70948319560977
 20
3.731349737970264
 30
0.0
 10
18.70976787469456
 20
3.738641780897181
 30
0.0
 10
18.71010775470986
 20
3.745919629299016
 30
0.0
 10
18.71031751824597
 20
3.753231386843987
 30
0.0
 10
18.71087189330571
 20
3.772665268739706
 30
0.0
 10
18.71121965916826
 20
3.792148831473017
 30
0.0
 10
18.71123779661688
 20
3.811709675509039
 30
0.0
 10
18.7112385852016
 20
3.812439116377223
 30
0.0
 10
18.71126539708219
 20
3.813163037152307
 30
0.0
 10
18.71126539708219
 20
3.813892478020363
 30
0.0
 10
18.7111376463571
 20
4.967043860328468
 30
0.0
 10
17.77295130500268
 20
5.905162383396785
 30
0.0
 10
16.61976522496678
 20
5.905162383396785
 30
0.0
 10
15.46657914493095
 20
5.905162383396785
 30
0.0
 10
14.5283864948987
 20
4.967043860328468
 30
0.0
 10
14.52825874417374
 20
3.813892478020363
 30
0.0
 10
14.52825874417374
 20
3.812364200828606
 30
0.0
 10
14.52831236793481
 20
3.810849329577082
 30
0.0
 10
14.5283163108584
 20
3.809321840970045
 30
0.0
 10
14.52835179717092
 20
3.791978497173008
 30
0.0
 10
14.52858916117234
 20
3.774680891289901
 30
0.0
 10
14.52904654031131
 20
3.757437697752637
 30
0.0
 10
14.5292539380932
 20
3.749688275686756
 30
0.0
 10
14.52963876743771
 20
3.741983802950211
 30
0.0
 10
14.52993054378492
 20
3.734254884087103
 30
0.0
 10
14.53034297359467
 20
3.723278573337764
 30
0.0
 10
14.53073726595581
 20
3.712296742495324
 30
0.0
 10
14.53131924148086
 20
3.70136380390569
 30
0.0
 10
14.53179475806844
 20
3.692466991069024
 30
0.0
 10
14.53242483726151
 20
3.683611184637841
 30
0.0
 10
14.53301154429487
 20
3.674743549435864
 30
0.0
 10
14.53365345225879
 20
3.665015568301801
 30
0.0
 10
14.53428905154496
 20
3.655285221413708
 30
0.0
 10
14.53506501891166
 20
3.645592726592156
 30
0.0
 10
14.53581023147418
 20
3.636286638284548
 30
0.0
 10
14.53667846325346
 20
3.627014459120076
 30
0.0
 10
14.53754590644796
 20
3.617743068540258
 30
0.0
 10
14.53840309804103
 20
3.608571039635494
 30
0.0
 10
14.53928079283695
 20
3.599404530823766
 30
0.0
 10
14.5402570607232
 20
3.590267199646728
 30
0.0
 10
14.54127354643021
 20
3.580762387989143
 30
0.0
 10
14.54237598787192
 20
3.571282811042649
 30
0.0
 10
14.54351943571917
 20
3.561815851451732
 30
0.0
 10
14.54458717943321
 20
3.552971873791407
 30
0.0
 10
14.54570539256931
 20
3.544144456410257
 30
0.0
 10
14.54688353814448
 20
3.535334387893002
 30
0.0
 10
14.54816814265704
 20
3.52573731182284
 30
0.0
 10
14.54950242800708
 20
3.516156796031918
 30
0.0
 10
14.55091636041417
 20
3.506601514952087
 30
0.0
 10
14.55218913615595
 20
3.498000421386229
 30
0.0
 10
14.5535431361241
 20
3.489426139700964
 30
0.0
 10
14.55492079363384
 20
3.480858955278112
 30
0.0
 10
14.55646878544371
 20
3.471233490158045
 30
0.0
 10
14.55803097177854
 20
3.461611179376857
 30
0.0
 10
14.55971065723697
 20
3.452029086416431
 30
0.0
 10
14.56118609925239
 20
3.44360936733672
 30
0.0
 10
14.56277352029831
 20
3.435228288908396
 30
0.0
 10
14.56434990115815
 20
3.426844056141129
 30
0.0
 10
14.5661612802652
 20
3.417211493758458
 30
0.0
 10
14.56794979041532
 20
3.407571045528655
 30
0.0
 10
14.56989365175571
 20
3.397984221059976
 30
0.0
 10
14.57155283401137
 20
3.389797134473248
 30
0.0
 10
14.57335317293235
 20
3.38166209447827
 30
0.0
 10
14.57510856252418
 20
3.373510494204116
 30
0.0
 10
14.57719594628398
 20
3.363815633628469
 30
0.0
 10
14.57922812911329
 20
3.354098692680609
 30
0.0
 10
14.58145036086066
 20
3.344453512942424
 30
0.0
 10
14.58322940799414
 20
3.336729325587698
 30
0.0
 10
14.58517563508869
 20
3.329069802180234
 30
0.0
 10
14.58703984937221
 20
3.32137794679914
 30
0.0
 10
14.5925496908267
 20
3.298650146518412
 30
0.0
 10
14.59839073786457
 20
3.276052462716866
 30
0.0
 10
14.60463790603451
 20
3.253619593122355
 30
0.0
 10
14.6057103812568
 20
3.249767356754019
 30
0.0
 10
14.60669059206659
 20
3.245875691149575
 30
0.0
 10
14.6077851476611
 20
3.242032917797938
 30
0.0
 10
14.61059250927245
 20
3.232173243015319
 30
0.0
 10
14.61361042300457
 20
3.222403466890991
 30
0.0
 10
14.61655894128112
 20
3.212602935962534
 30
0.0
 10
14.61881035066324
 20
3.20511926694818
 30
0.0
 10
14.62099078742034
 20
3.197607208883729
 30
0.0
 10
14.62332342102884
 20
3.19015902618182
 30
0.0
 10
14.62631215712627
 20
3.18061715104235
 30
0.0
 10
14.62947043893893
 20
3.171151768620809
 30
0.0
 10
14.63259244585443
 20
3.161669037335436
 30
0.0
 10
14.6350914708394
 20
3.154078120798834
 30
0.0
 10
14.63755264375757
 20
3.146471432567775
 30
0.0
 10
14.64013525872308
 20
3.138918368097777
 30
0.0
 10
14.64336687891491
 20
3.129469545955475
 30
0.0
 10
14.64673176992488
 20
3.120083022006213
 30
0.0
 10
14.6500950837654
 20
3.110694920887512
 30
0.0
 10
14.65276365446553
 20
3.103245161016164
 30
0.0
 10
14.65542591648797
 20
3.095793035390658
 30
0.0
 10
14.65817571141454
 20
3.088382704755418
 30
0.0
 10
14.66167939333559
 20
3.078943345629816
 30
0.0
 10
14.66528322551643
 20
3.069552090172236
 30
0.0
 10
14.66891938967089
 20
3.060176606409048
 30
0.0
 10
14.67170782524885
 20
3.052983925157184
 30
0.0
 10
14.67451834119902
 20
3.045802284091459
 30
0.0
 10
14.67738405807975
 20
3.038648243490919
 30
0.0
 10
14.68120238530501
 20
3.029117408537459
 30
0.0
 10
14.68508931940108
 20
3.019622059896573
 30
0.0
 10
14.68904407178334
 20
3.010160620398694
 30
0.0
 10
14.69187509093635
 20
3.003385889049623
 30
0.0
 10
14.69475263658788
 20
2.996636392411643
 30
0.0
 10
14.69765226261168
 20
2.989897935959865
 30
0.0
 10
14.70184753333425
 20
2.980150240207749
 30
0.0
 10
14.70608302187753
 20
2.970424624827974
 30
0.0
 10
14.71042260360424
 20
2.960754210378634
 30
0.0
 10
14.71317791862391
 20
2.954612712561573
 30
0.0
 10
14.71600105192965
 20
2.948508278226396
 30
0.0
 10
14.71881314504926
 20
2.942397535213527
 30
0.0
 10
14.72385929868709
 20
2.93143620757386
 30
0.0
 10
14.72891176100275
 20
2.920478034273136
 30
0.0
 10
14.73414165488089
 20
2.909619222647336
 30
0.0
 10
14.83994843282283
 20
2.768050127550211
 30
0.0
 10
14.95763050809752
 20
2.638489600603829
 30
0.0
 10
15.08708457610644
 20
2.522695397154182
 30
0.0
 10
15.336659811936
 20
2.299454948125053
 30
0.0
 10
15.62381189836668
 20
2.134098983465138
 30
0.0
 10
15.93475874020747
 20
2.030572003955286
 30
0.0
 10
15.85487431925615
 20
2.061357562928215
 30
0.0
 10
15.77754648997452
 20
2.097310717586244
 30
0.0
 10
15.70322711140831
 20
2.138116034040446
 30
0.0
 10
15.70503139325289
 20
2.136978106286167
 30
0.0
 10
15.70678836001403
 20
2.135773937415252
 30
0.0
 10
15.70859816195171
 20
2.134643106923514
 30
0.0
 10
15.4384534822263
 20
2.281833233921104
 30
0.0
 10
15.20776248474104
 20
2.492477619181344
 30
0.0
 10
15.03617275785155
 20
2.746207119327876
 30
0.0
 10
15.03600242355148
 20
2.746459466439042
 30
0.0
 10
15.03583130066681
 20
2.74671102496536
 30
0.0
 10
15.03566017778202
 20
2.746963372076526
 30
0.0
 10
15.00198051287833
 20
2.796816909634132
 30
0.0
 10
14.9705972066859
 20
2.848317800676538
 30
0.0
 10
14.94164747294646
 20
2.901354066173241
 30
0.0
 10
14.94044014973666
 20
2.90356525773447
 30
0.0
 10
14.93924702105182
 20
2.905785123727678
 30
0.0
 10
14.93804758368922
 20
2.908001835382009
 30
0.0
 10
14.9179418276101
 20
2.945185970791484
 30
0.0
 10
14.89904181757134
 20
2.983099547069078
 30
0.0
 10
14.88138225130066
 20
3.021707866486939
 30
0.0
 10
14.87983110515191
 20
3.025097203623338
 30
0.0
 10
14.87825866721572
 20
3.028473923404159
 30
0.0
 10
14.87672644710037
 20
3.031873512141848
 30
0.0
 10
14.87142794635137
 20
3.043639196198253
 30
0.0
 10
14.86624615614125
 20
3.055461658354596
 30
0.0
 10
14.86118028788543
 20
3.067351150212362
 30
0.0
 10
14.85939256631997
 20
3.071544843765434
 30
0.0
 10
14.85766162285457
 20
3.075768503537914
 30
0.0
 10
14.85590307892392
 20
3.079977180200723
 30
0.0
 10
14.84546852587874
 20
3.104968218634365
 30
0.0
 10
14.83547794603228
 20
3.130183215129075
 30
0.0
 10
14.8260890563288
 20
3.155695508064225
 30
0.0
 10
14.82580043432047
 20
3.156477784108686
 30
0.0
 10
14.82549052052458
 20
3.157250597136576
 30
0.0
 10
14.82520347568575
 20
3.158032873181037
 30
0.0
 10
14.82114620728961
 20
3.169102236927673
 30
0.0
 10
14.8172774106421
 20
3.180257556408935
 30
0.0
 10
14.81342044276545
 20
3.191421550322178
 30
0.0
 10
14.8112202913903
 20
3.197785429030997
 30
0.0
 10
14.80904064321791
 20
3.204156405002292
 30
0.0
 10
14.80690594437474
 20
3.210551038515239
 30
0.0
 10
14.80333602133698
 20
3.22125213319648
 30
0.0
 10
14.79981183621315
 20
3.23196978815696
 30
0.0
 10
14.79642801916985
 20
3.242754472818734
 30
0.0
 10
14.79418370705027
 20
3.249899838987358
 30
0.0
 10
14.79206872282509
 20
3.257099617501698
 30
0.0
 10
14.78990642351666
 20
3.264281258567488
 30
0.0
 10
14.78471990179823
 20
3.281522086350593
 30
0.0
 10
14.77976837832701
 20
3.29885754430037
 30
0.0
 10
14.77506052753503
 20
3.316299461187739
 30
0.0
 10
14.77272552817238
 20
3.324942349743864
 30
0.0
 10
14.77036844843751
 20
3.333573409529195
 30
0.0
 10
14.76815331395262
 20
3.342264401753407
 30
0.0
 10
14.76570081546636
 20
3.351892232627633
 30
0.0
 10
14.76336897044259
 20
3.361564224246348
 30
0.0
 10
14.76106314871462
 20
3.37124962180536
 30
0.0
 10
14.75887324894089
 20
3.380442153912898
 30
0.0
 10
14.75676851631712
 20
3.389664652239973
 30
0.0
 10
14.7547126759461
 20
3.398907653769756
 30
0.0
 10
14.75268049311686
 20
3.408050505039832
 30
0.0
 10
14.75061834406808
 20
3.417179161784891
 30
0.0
 10
14.74871864347212
 20
3.426370905307709
 30
0.0
 10
14.7452638538038
 20
3.44306524387828
 30
0.0
 10
14.74199517013001
 20
3.459826612150336
 30
0.0
 10
14.73898041073676
 20
3.476675513326459
 30
0.0
 10
14.73761063907416
 20
3.484342133996399
 30
0.0
 10
14.73642224189769
 20
3.492068687105283
 30
0.0
 10
14.73514394606282
 20
3.499766851164135
 30
0.0
 10
14.73321822217104
 20
3.511349583564954
 30
0.0
 10
14.73135637364181
 20
3.522952819168482
 30
0.0
 10
14.7296412018708
 20
3.534604158440098
 30
0.0
 10
14.72843387866101
 20
3.542814113983758
 30
0.0
 10
14.72727939062762
 20
3.551038264052435
 30
0.0
 10
14.72617773777057
 20
3.559281340154317
 30
0.0
 10
14.72446808609273
 20
3.572049315392718
 30
0.0
 10
14.72292246003708
 20
3.584866971468581
 30
0.0
 10
14.72146752122444
 20
3.597713016594477
 30
0.0
 10
14.72073808035638
 20
3.604166793961586
 30
0.0
 10
14.71991400932159
 20
3.610589027939782
 30
0.0
 10
14.71924923240067
 20
3.617061731340225
 30
0.0
 10
14.71733928020328
 20
3.635616341270654
 30
0.0
 10
14.71573451029347
 20
3.654258484105277
 30
0.0
 10
14.71436158429199
 20
3.67296450230238
 30
0.0
 10
14.71389553072117
 20
3.679340998366712
 30
0.0
 10
14.71354697627389
 20
3.685747460650516
 30
0.0
 10
14.71314322089612
 20
3.692141305578744
 30
0.0
 10
14.71224896582103
 20
3.706260126446353
 30
0.0
 10
14.71150217608901
 20
3.72041679938063
 30
0.0
 10
14.71091783480981
 20
3.734616055889958
 30
0.0
 10
14.71065365892784
 20
3.741069044672347
 30
0.0
 10
14.71037844285975
 20
3.747518090531073
 30
0.0
 10
14.71017893092505
 20
3.753986851007982
 30
0.0
 10
14.70957487502779
 20
3.773397863946769
 30
0.0
 10
14.70917742832771
 20
3.792858557723083
 30
0.0
 10
14.70916007946388
 20
3.812409150157815
 30
0.0
 10
14.70916007946388
 20
3.812827100060608
 30
0.0
 10
14.70913799909167
 20
3.813241107039802
 30
0.0
 10
14.70913799909167
 20
3.813659056942595
 30
0.0
 10
14.70913799909167
 20
3.813737126830091
 30
0.0
 10
14.70914115343054
 20
3.813814408132867
 30
0.0
 10
14.70914115343054
 20
3.813892478020363
 30
0.0
 10
14.70914115343054
 20
3.813970547907859
 30
0.0
 10
14.70913799909167
 20
3.814047829210699
 30
0.0
 10
14.70913799909167
 20
3.814125899098195
 30
0.0
 10
14.70913799909167
 20
3.814047829210699
 30
0.0
 10
14.70914115343054
 20
3.813970547907859
 30
0.0
 10
14.70914115343054
 20
3.813892478020363
 30
0.0
 10
14.70926890415557
 20
4.867303664654905
 30
0.0
 10
15.56631934060451
 20
5.724279974139954
 30
0.0
 10
16.61976522496678
 20
5.724279974139954
 30
0.0
 10
17.67321110932918
 20
5.724279974139954
 30
0.0
 10
18.53025523710037
 20
4.867303664654905
 30
0.0
 10
18.53038298782533
 20
3.813892478020363
 30
0.0
 10
18.53038298782533
 20
3.813970547907859
 30
0.0
 10
18.53038614216421
 20
3.814047829210699
 30
0.0
 10
18.53038614216421
 20
3.814125899098195
 30
0.0
 10
18.53038614216421
 20
3.814047829210699
 30
0.0
 10
18.53038298782533
 20
3.813970547907859
 30
0.0
 10
18.53038298782533
 20
3.813892478020363
 30
0.0
 10
18.53038298782533
 20
3.813814408132867
 30
0.0
 10
18.53038614216421
 20
3.813737126830091
 30
0.0
 10
18.53038614216421
 20
3.813659056942595
 30
0.0
 10
18.53038614216421
 20
2.779363952560688
 30
0.0
 10
17.7042703072007
 20
1.934471915359848
 30
0.0
 10
16.67723018226383
 20
1.903971035471588
 30
0.0
 10
16.67509075191227
 20
1.904018350554956
 30
0.0
 10
16.6729678818399
 20
1.904139792602157
 30
0.0
 10
16.67083002865778
 20
1.904193416363346
 30
0.0
 10
16.66857546493678
 20
1.904133483924464
 30
0.0
 10
16.66631222678387
 20
1.904112980721627
 30
0.0
 10
16.66405529730871
 20
1.904060934129942
 30
0.0
  0
SPLINE
  5
1A6
330
70
100
AcDbEntity
  8
Livello 2
370
    35
100
AcDbSpline
210
0.0
220
0.0
230
1.0
 70
     9
 71
     3
 72
    14
 73
    10
 74
     0
 42
0.000000001
 43
0.0000000001
 40
0.0
 40
0.0
 40
0.0
 40
0.0
 40
1.0
 40
1.0
 40
1.0
 40
2.0
 40
2.0
 40
2.0
 40
3.0
 40
3.0
 40
3.0
 40
3.0
 10
18.71126539708219
 20
3.813892478020363
 30
0.0
 10
18.71126539708219
 20
3.813163037152307
 30
0.0
 10
18.7112385852016
 20
3.812439116377223
 30
0.0
 10
18.71123779661688
 20
3.811709675509039
 30
0.0
 10
18.7112385852016
 20
3.812361835074447
 30
0.0
 10
18.71126855142107
 20
3.813006897377251
 30
0.0
 10
18.71126855142107
 20
3.813659056942595
 30
0.0
 10
18.71126855142107
 20
3.813737126830091
 30
0.0
 10
18.71126539708219
 20
3.813814408132867
 30
0.0
 10
18.71126539708219
 20
3.813892478020363
 30
0.0
  0
SPLINE
  5
1A7
330
70
100
AcDbEntity
  8
Livello 2
370
    35
100
AcDbSpline
210
0.0
220
0.0
230
1.0
 70
     9
 71
     3
 72
    11
 73
     7
 74
     0
 42
0.000000001
 43
0.0000000001
 40
0.0
 40
0.0
 40
0.0
 40
0.0
 40
1.0
 40
1.0
 40
1.0
 40
2.0
 40
2.0
 40
2.0
 40
2.0
 10
14.5402570607232
 20
3.590267199646728
 30
0.0
 10
14.54127196926071
 20
3.580760810819704
 30
0.0
 10
14.54237598787192
 20
3.571283599627368
 30
0.0
 10
14.54351943571917
 20
3.561815851451732
 30
0.0
 10
14.54237598787192
 20
3.571282811042649
 30
0.0
 10
14.54127354643021
 20
3.580762387989143
 30
0.0
 10
14.5402570607232
 20
3.590267199646728
 30
0.0
  0
SPLINE
  5
1A8
330
70
100
AcDbEntity
  8
Livello 2
370
    35
100
AcDbSpline
210
0.0
220
0.0
230
1.0
 70
     9
 71
     3
 72
    11
 73
     7
 74
     0
 42
0.000000001
 43
0.0000000001
 40
0.0
 40
0.0
 40
0.0
 40
0.0
 40
1.0
 40
1.0
 40
1.0
 40
2.0
 40
2.0
 40
2.0
 40
2.0
 10
18.69241901080449
 20
3.53375485269428
 30
0.0
 10
18.6939630596907
 20
3.545242954928427
 30
0.0
 10
18.69539276379219
 20
3.556762600551423
 30
0.0
 10
18.6967491295145
 20
3.568309058054949
 30
0.0
 10
18.69539118662275
 20
3.556764177720798
 30
0.0
 10
18.69396542544486
 20
3.545242166343644
 30
0.0
 10
18.69241901080449
 20
3.53375485269428
 30
0.0
  0
SPLINE
  5
1A9
330
70
100
AcDbEntity
  8
Livello 2
370
    35
100
AcDbSpline
210
0.0
220
0.0
230
1.0
 70
     9
 71
     3
 72
    11
 73
     7
 74
     0
 42
0.000000001
 43
0.0000000001
 40
0.0
 40
0.0
 40
0.0
 40
0.0
 40
1.0
 40
1.0
 40
1.0
 40
2.0
 40
2.0
 40
2.0
 40
2.0
 10
14.53506501891166
 20
3.645592726592156
 30
0.0
 10
14.53580944288952
 20
3.636285849699893
 30
0.0
 10
14.53667925183818
 20
3.627016036289515
 30
0.0
 10
14.53754590644796
 20
3.617743068540258
 30
0.0
 10
14.53667846325346
 20
3.627014459120076
 30
0.0
 10
14.53581023147418
 20
3.636286638284548
 30
0.0
 10
14.53506501891166
 20
3.645592726592156
 30
0.0
  0
SPLINE
  5
1AA
330
70
100
AcDbEntity
  8
Livello 2
370
    35
100
AcDbSpline
210
0.0
220
0.0
230
1.0
 70
     9
 71
     3
 72
    11
 73
     7
 74
     0
 42
0.000000001
 43
0.0000000001
 40
0.0
 40
0.0
 40
0.0
 40
0.0
 40
1.0
 40
1.0
 40
1.0
 40
2.0
 40
2.0
 40
2.0
 40
2.0
 10
18.52973634835309
 20
2.962201263344017
 30
0.0
 10
18.54776024076543
 20
3.002461667755123
 30
0.0
 10
18.56453501497772
 20
3.043384483332928
 30
0.0
 10
18.58003622486345
 20
3.084935800934361
 30
0.0
 10
18.56453107205406
 20
3.043389214841246
 30
0.0
 10
18.54776260651959
 20
3.002456936246805
 30
0.0
 10
18.52973634835309
 20
2.962201263344017
 30
0.0
  0
SPLINE
  5
1AB
330
70
100
AcDbEntity
  8
Livello 2
370
    35
100
AcDbSpline
210
0.0
220
0.0
230
1.0
 70
     9
 71
     3
 72
    11
 73
     7
 74
     0
 42
0.000000001
 43
0.0000000001
 40
0.0
 40
0.0
 40
0.0
 40
0.0
 40
1.0
 40
1.0
 40
1.0
 40
2.0
 40
2.0
 40
2.0
 40
2.0
 10
18.50778057251546
 20
2.914743446172729
 30
0.0
 10
18.51363817983251
 20
2.926994898418003
 30
0.0
 10
18.519420871601
 20
2.939284991314666
 30
0.0
 10
18.52504584642494
 20
2.951665771454402
 30
0.0
 10
18.51942008301628
 20
2.939286568484106
 30
0.0
 10
18.51363896841723
 20
2.926993321248565
 30
0.0
 10
18.50778057251546
 20
2.914743446172729
 30
0.0
  0
SPLINE
  5
1AC
330
70
100
AcDbEntity
  8
Livello 2
370
    35
100
AcDbSpline
210
0.0
220
0.0
230
1.0
 70
     9
 71
     3
 72
    11
 73
     7
 74
     0
 42
0.000000001
 43
0.0000000001
 40
0.0
 40
0.0
 40
0.0
 40
0.0
 40
1.0
 40
1.0
 40
1.0
 40
2.0
 40
2.0
 40
2.0
 40
2.0
 10
18.62120350170516
 20
3.206690127714923
 30
0.0
 10
18.62476475031095
 20
3.21840849668796
 30
0.0
 10
18.6283465021195
 20
3.230115825474859
 30
0.0
 10
18.63170666162115
 20
3.241920150182652
 30
0.0
 10
18.62834492495006
 20
3.230117402644298
 30
0.0
 10
18.62476632748039
 20
3.218406919518457
 30
0.0
 10
18.62120350170516
 20
3.206690127714923
 30
0.0
  0
SPLINE
  5
1AD
330
70
100
AcDbEntity
  8
Livello 2
370
    35
100
AcDbSpline
210
0.0
220
0.0
230
1.0
 70
     9
 71
     3
 72
    11
 73
     7
 74
     0
 42
0.000000001
 43
0.0000000001
 40
0.0
 40
0.0
 40
0.0
 40
0.0
 40
1.0
 40
1.0
 40
1.0
 40
2.0
 40
2.0
 40
2.0
 40
2.0
 10
18.604099099079
 20
3.15295833049317
 30
0.0
 10
18.60792925507512
 20
3.164428295278703
 30
0.0
 10
18.61169474712398
 20
3.175925071944767
 30
0.0
 10
18.61533012269366
 20
3.187481781049711
 30
0.0
 10
18.61169316995454
 20
3.175926649114206
 30
0.0
 10
18.60793004365984
 20
3.164426718109264
 30
0.0
 10
18.604099099079
 20
3.15295833049317
 30
0.0
  0
SPLINE
  5
1AE
330
70
100
AcDbEntity
  8
Livello 2
370
    35
100
AcDbSpline
210
0.0
220
0.0
230
1.0
 70
     9
 71
     3
 72
    11
 73
     7
 74
     0
 42
0.000000001
 43
0.0000000001
 40
0.0
 40
0.0
 40
0.0
 40
0.0
 40
1.0
 40
1.0
 40
1.0
 40
2.0
 40
2.0
 40
2.0
 40
2.0
 10
18.63360084212407
 20
3.248877833187245
 30
0.0
 10
18.64054433060372
 20
3.273596021307011
 30
0.0
 10
18.64698075910693
 20
3.298518452869856
 30
0.0
 10
18.6530268381726
 20
3.32359465845347
 30
0.0
 10
18.64697760476799
 20
3.298520818624015
 30
0.0
 10
18.64054748494259
 20
3.273593655552788
 30
0.0
 10
18.63360084212407
 20
3.248877833187245
 30
0.0
  0
SPLINE
  5
1AF
330
70
100
AcDbEntity
  8
Livello 2
370
    35
100
AcDbSpline
210
0.0
220
0.0
230
1.0
 70
     9
 71
     3
 72
    11
 73
     7
 74
     0
 42
0.000000001
 43
0.0000000001
 40
0.0
 40
0.0
 40
0.0
 40
0.0
 40
1.0
 40
1.0
 40
1.0
 40
2.0
 40
2.0
 40
2.0
 40
2.0
 10
18.38409105882649
 20
2.692087338422803
 30
0.0
 10
18.39211175403668
 20
2.704656590311162
 30
0.0
 10
18.40004412775808
 20
2.717283408884179
 30
0.0
 10
18.4078014356711
 20
2.730032458089246
 30
0.0
 10
18.40004412775808
 20
2.717284986053682
 30
0.0
 10
18.39211175403668
 20
2.704655013141723
 30
0.0
 10
18.38409105882649
 20
2.692087338422803
 30
0.0
  0
SPLINE
  5
1B0
330
70
100
AcDbEntity
  8
Livello 2
370
    35
100
AcDbSpline
210
0.0
220
0.0
230
1.0
 70
     9
 71
     3
 72
    11
 73
     7
 74
     0
 42
0.000000001
 43
0.0000000001
 40
0.0
 40
0.0
 40
0.0
 40
0.0
 40
1.0
 40
1.0
 40
1.0
 40
2.0
 40
2.0
 40
2.0
 40
2.0
 10
18.48331946301518
 20
2.865194302317974
 30
0.0
 10
18.48957688278647
 20
2.87743629154655
 30
0.0
 10
18.49568368287574
 20
2.889760293586283
 30
0.0
 10
18.50170531581504
 20
2.902139496556644
 30
0.0
 10
18.49568289429102
 20
2.889762659340442
 30
0.0
 10
18.48957688278647
 20
2.877433925792391
 30
0.0
 10
18.48331946301518
 20
2.865194302317974
 30
0.0
  0
SPLINE
  5
1B1
330
70
100
AcDbEntity
  8
Livello 2
370
    35
100
AcDbSpline
210
0.0
220
0.0
230
1.0
 70
     9
 71
     3
 72
    11
 73
     7
 74
     0
 42
0.000000001
 43
0.0000000001
 40
0.0
 40
0.0
 40
0.0
 40
0.0
 40
1.0
 40
1.0
 40
1.0
 40
2.0
 40
2.0
 40
2.0
 40
2.0
 10
18.35466580849947
 20
2.647193998768339
 30
0.0
 10
18.36291992478749
 20
2.659428102149718
 30
0.0
 10
18.3710305186561
 20
2.671760778621431
 30
0.0
 10
18.37903071066358
 20
2.684176256488893
 30
0.0
 10
18.37102973007137
 20
2.671763144375526
 30
0.0
 10
18.36292071337221
 20
2.659426524980279
 30
0.0
 10
18.35466580849947
 20
2.647193998768339
 30
0.0
  0
SPLINE
  5
1B2
330
70
100
AcDbEntity
  8
Livello 2
370
    35
100
AcDbSpline
210
0.0
220
0.0
230
1.0
 70
     9
 71
     3
 72
    11
 73
     7
 74
     0
 42
0.000000001
 43
0.0000000001
 40
0.0
 40
0.0
 40
0.0
 40
0.0
 40
1.0
 40
1.0
 40
1.0
 40
2.0
 40
2.0
 40
2.0
 40
2.0
 10
18.40897800407676
 20
2.731999188386633
 30
0.0
 10
18.433646511359
 20
2.772642844972742
 30
0.0
 10
18.45693262962306
 20
2.814202837006154
 30
0.0
 10
18.47884818763991
 20
2.856590054413173
 30
0.0
 10
18.4569302638689
 20
2.814206779929753
 30
0.0
 10
18.43364808852844
 20
2.772638902049143
 30
0.0
 10
18.40897800407676
 20
2.731999188386633
 30
0.0
  0
SPLINE
  5
1B3
330
70
100
AcDbEntity
  8
Livello 2
370
    35
100
AcDbSpline
210
0.0
220
0.0
230
1.0
 70
     9
 71
     3
 72
    11
 73
     7
 74
     0
 42
0.000000001
 43
0.0000000001
 40
0.0
 40
0.0
 40
0.0
 40
0.0
 40
1.0
 40
1.0
 40
1.0
 40
2.0
 40
2.0
 40
2.0
 40
2.0
 10
18.58535680598467
 20
3.099153983477023
 30
0.0
 10
18.58962068357797
 20
3.110843963400027
 30
0.0
 10
18.59373157573523
 20
3.122602550193955
 30
0.0
 10
18.59779120988546
 20
3.13438794886835
 30
0.0
 10
18.59373078715051
 20
3.12260412736333
 30
0.0
 10
18.58962147216269
 20
3.110842386230588
 30
0.0
 10
18.58535680598467
 20
3.099153983477023
 30
0.0
  0
SPLINE
  5
1B4
330
70
100
AcDbEntity
  8
Livello 2
370
    35
100
AcDbSpline
210
0.0
220
0.0
230
1.0
 70
     9
 71
     3
 72
    11
 73
     7
 74
     0
 42
0.000000001
 43
0.0000000001
 40
0.0
 40
0.0
 40
0.0
 40
0.0
 40
1.0
 40
1.0
 40
1.0
 40
2.0
 40
2.0
 40
2.0
 40
2.0
 10
18.70948319560977
 20
3.731349737970264
 30
0.0
 10
18.70976629752512
 20
3.73864335806662
 30
0.0
 10
18.71010854329458
 20
3.745919629299016
 30
0.0
 10
18.71031751824597
 20
3.753231386843987
 30
0.0
 10
18.71010775470986
 20
3.745919629299016
 30
0.0
 10
18.70976787469456
 20
3.738641780897181
 30
0.0
 10
18.70948319560977
 20
3.731349737970264
 30
0.0
  0
SPLINE
  5
1B5
330
70
100
AcDbEntity
  8
Livello 2
370
    35
100
AcDbSpline
210
0.0
220
0.0
230
1.0
 70
     9
 71
     3
 72
    11
 73
     7
 74
     0
 42
0.000000001
 43
0.0000000001
 40
0.0
 40
0.0
 40
0.0
 40
0.0
 40
1.0
 40
1.0
 40
1.0
 40
2.0
 40
2.0
 40
2.0
 40
2.0
 10
14.52904654031131
 20
3.757437697752637
 30
0.0
 10
14.52925314950848
 20
3.7496874871021
 30
0.0
 10
14.52963955602243
 20
3.741984591534867
 30
0.0
 10
14.52993054378492
 20
3.734254884087103
 30
0.0
 10
14.52963876743771
 20
3.741983802950211
 30
0.0
 10
14.5292539380932
 20
3.749688275686756
 30
0.0
 10
14.52904654031131
 20
3.757437697752637
 30
0.0
  0
SPLINE
  5
1B6
330
70
100
AcDbEntity
  8
Livello 2
370
    35
100
AcDbSpline
210
0.0
220
0.0
230
1.0
 70
     9
 71
     3
 72
    11
 73
     7
 74
     0
 42
0.000000001
 43
0.0000000001
 40
0.0
 40
0.0
 40
0.0
 40
0.0
 40
1.0
 40
1.0
 40
1.0
 40
2.0
 40
2.0
 40
2.0
 40
2.0
 10
18.70606389225402
 20
3.667679407493678
 30
0.0
 10
18.70664271344019
 20
3.676035251210974
 30
0.0
 10
18.7071789510513
 20
3.684400557944842
 30
0.0
 10
18.7076591991472
 20
3.692782424957886
 30
0.0
 10
18.70717737388186
 20
3.684401346529562
 30
0.0
 10
18.70664429060963
 20
3.676034462626191
 30
0.0
 10
18.70606389225402
 20
3.667679407493678
 30
0.0
  0
SPLINE
  5
1B7
330
70
100
AcDbEntity
  8
Livello 2
370
    35
100
AcDbSpline
210
0.0
220
0.0
230
1.0
 70
     9
 71
     3
 72
    11
 73
     7
 74
     0
 42
0.000000001
 43
0.0000000001
 40
0.0
 40
0.0
 40
0.0
 40
0.0
 40
1.0
 40
1.0
 40
1.0
 40
2.0
 40
2.0
 40
2.0
 40
2.0
 10
14.53131924148086
 20
3.70136380390569
 30
0.0
 10
14.531793180899
 20
3.692465413899521
 30
0.0
 10
14.53242641443094
 20
3.68361197322256
 30
0.0
 10
14.53301154429487
 20
3.674743549435864
 30
0.0
 10
14.53242483726151
 20
3.683611184637841
 30
0.0
 10
14.53179475806844
 20
3.692466991069024
 30
0.0
 10
14.53131924148086
 20
3.70136380390569
 30
0.0
  0
SPLINE
  5
1B8
330
70
100
AcDbEntity
  8
Livello 2
370
    35
100
AcDbSpline
210
0.0
220
0.0
230
1.0
 70
     9
 71
     3
 72
    11
 73
     7
 74
     0
 42
0.000000001
 43
0.0000000001
 40
0.0
 40
0.0
 40
0.0
 40
0.0
 40
1.0
 40
1.0
 40
1.0
 40
2.0
 40
2.0
 40
2.0
 40
2.0
 10
18.65864156139518
 20
3.347052688187038
 30
0.0
 10
18.66103491602734
 20
3.357510110189156
 30
0.0
 10
18.66327765097748
 20
3.368021155952335
 30
0.0
 10
18.66551250008042
 20
3.378537721808615
 30
0.0
 10
18.66327607380804
 20
3.368022733121838
 30
0.0
 10
18.66103570461206
 20
3.357509321604372
 30
0.0
 10
18.65864156139518
 20
3.347052688187038
 30
0.0
  0
SPLINE
  5
1B9
330
70
100
AcDbEntity
  8
Livello 2
370
    35
100
AcDbSpline
210
0.0
220
0.0
230
1.0
 70
     9
 71
     3
 72
    11
 73
     7
 74
     0
 42
0.000000001
 43
0.0000000001
 40
0.0
 40
0.0
 40
0.0
 40
0.0
 40
1.0
 40
1.0
 40
1.0
 40
2.0
 40
2.0
 40
2.0
 40
2.0
 10
18.67090484241131
 20
3.404620161497951
 30
0.0
 10
18.67293387090174
 20
3.414806310355505
 30
0.0
 10
18.67490927563111
 20
3.425009019492363
 30
0.0
 10
18.67678847302423
 20
3.435248003526385
 30
0.0
 10
18.67490769846166
 20
3.425010596661802
 30
0.0
 10
18.67293544807118
 20
3.414805521770849
 30
0.0
 10
18.67090484241131
 20
3.404620161497951
 30
0.0
  0
SPLINE
  5
1BA
330
70
100
AcDbEntity
  8
Livello 2
370
    35
100
AcDbSpline
210
0.0
220
0.0
230
1.0
 70
     9
 71
     3
 72
    11
 73
     7
 74
     0
 42
0.000000001
 43
0.0000000001
 40
0.0
 40
0.0
 40
0.0
 40
0.0
 40
1.0
 40
1.0
 40
1.0
 40
2.0
 40
2.0
 40
2.0
 40
2.0
 10
18.68176917413015
 20
3.463796347642276
 30
0.0
 10
18.68339996733577
 20
3.473436007287359
 30
0.0
 10
18.68508044137899
 20
3.483055952314389
 30
0.0
 10
18.68657796376662
 20
3.492738984119242
 30
0.0
 10
18.68507807562483
 20
3.483056740899109
 30
0.0
 10
18.68340154450521
 20
3.47343443011792
 30
0.0
 10
18.68176917413015
 20
3.463796347642276
 30
0.0
  0
SPLINE
  5
1BB
330
70
100
AcDbEntity
  8
Livello 2
370
    35
100
AcDbSpline
210
0.0
220
0.0
230
1.0
 70
     9
 71
     3
 72
    11
 73
     7
 74
     0
 42
0.000000001
 43
0.0000000001
 40
0.0
 40
0.0
 40
0.0
 40
0.0
 40
1.0
 40
1.0
 40
1.0
 40
2.0
 40
2.0
 40
2.0
 40
2.0
 10
18.70099723541342
 20
3.606732060063129
 30
0.0
 10
18.7018291922954
 20
3.615163607913699
 30
0.0
 10
18.70252551260517
 20
3.623631430661562
 30
0.0
 10
18.70325653064273
 20
3.632091367562101
 30
0.0
 10
18.70252314685101
 20
3.623633007831001
 30
0.0
 10
18.70183155804956
 20
3.615162819328979
 30
0.0
 10
18.70099723541342
 20
3.606732060063129
 30
0.0
  0
SPLINE
  5
1BC
330
70
100
AcDbEntity
  8
Livello 2
370
    35
100
AcDbSpline
210
0.0
220
0.0
230
1.0
 70
     9
 71
     3
 72
    11
 73
     7
 74
     0
 42
0.000000001
 43
0.0000000001
 40
0.0
 40
0.0
 40
0.0
 40
0.0
 40
1.0
 40
1.0
 40
1.0
 40
2.0
 40
2.0
 40
2.0
 40
2.0
 10
18.23499255680095
 20
2.486877879068436
 30
0.0
 10
18.2760439116885
 20
2.536755074167694
 30
0.0
 10
18.31482729691475
 20
2.588543798633775
 30
0.0
 10
18.35119997864501
 20
2.64211551315681
 30
0.0
 10
18.31482571974531
 20
2.588550107311532
 30
0.0
 10
18.27604470027322
 20
2.536747976905218
 30
0.0
 10
18.23499255680095
 20
2.486877879068436
 30
0.0
  0
LINE
  5
1BD
330
70
100
AcDbEntity
  8
Livello 2
370
    35
100
AcDbLine
 10
22.98484492865711
 20
1.906673121022557
 30
0.0
 11
21.65140507968926
 21
1.906673121022557
 31
0.0
  0
LINE
  5
1BE
330
70
100
AcDbEntity
  8
Livello 2
370
    35
100
AcDbLine
 10
21.65140507968926
 20
1.906673121022557
 30
0.0
 11
21.65140507968926
 21
5.09305457314747
 31
0.0
  0
LINE
  5
1BF
330
70
100
AcDbEntity
  8
Livello 2
370
    35
100
AcDbLine
 10
21.65140507968926
 20
5.09305457314747
 30
0.0
 11
22.98484492865711
 21
5.09305457314747
 31
0.0
  0
LINE
  5
1C0
330
70
100
AcDbEntity
  8
Livello 2
370
    35
100
AcDbLine
 10
22.98484492865711
 20
5.09305457314747
 30
0.0
 11
22.98484492865711
 21
1.906673121022557
 31
0.0
  0
LINE
  5
1C1
330
70
100
AcDbEntity
  8
Livello 2
370
    35
100
AcDbLine
 10
24.28916512333732
 20
1.754985530337517
 30
0.0
 11
23.77001856358686
 21
1.712932098337106
 31
0.0
  0
LINE
  5
1C2
330
70
100
AcDbEntity
  8
Livello 2
370
    35
100
AcDbLine
 10
23.77001856358686
 20
1.712932098337106
 30
0.0
 11
23.18307054706818
 21
8.256063849875593
 31
0.0
  0
LINE
  5
1C3
330
70
100
AcDbEntity
  8
Livello 2
370
    35
100
AcDbLine
 10
23.18307054706818
 20
8.256063849875593
 30
0.0
 11
23.7022171068185
 21
8.298117281876036
 31
0.0
  0
LINE
  5
1C4
330
70
100
AcDbEntity
  8
Livello 2
370
    35
100
AcDbLine
 10
23.7022171068185
 20
8.298117281876036
 30
0.0
 11
24.28916512333732
 21
1.754985530337517
 31
0.0
  0
LINE
  5
1C5
330
70
100
AcDbEntity
  8
Livello 2
370
    35
100
AcDbLine
 10
22.952071320194
 20
1.797871228393401
 30
0.0
 11
22.43158159180672
 21
1.777240377561345
 31
0.0
  0
LINE
  5
1C6
330
70
100
AcDbEntity
  8
Livello 2
370
    35
100
AcDbLine
 10
22.43158159180672
 20
1.777240377561345
 30
0.0
 11
22.21679545229269
 21
5.88108210791909
 31
0.0
  0
LINE
  5
1C7
330
70
100
AcDbEntity
  8
Livello 2
370
    35
100
AcDbLine
 10
22.21679545229269
 20
5.88108210791909
 30
0.0
 11
22.73728518067991
 21
5.901712958751114
 31
0.0
  0
LINE
  5
1C8
330
70
100
AcDbEntity
  8
Livello 2
370
    35
100
AcDbLine
 10
22.73728518067991
 20
5.901712958751114
 30
0.0
 11
22.952071320194
 21
1.797871228393401
 31
0.0
  0
LINE
  5
1D0
330
70
100
AcDbEntity
  8
0
100
AcDbLine
 10
13.61944333997477
 20
0.3698856146173171
 30
0.0
 11
20.3180100689248
 21
0.3698856146173171
 31
0.0
  0
LINE
  5
1D1
330
70
100
AcDbEntity
  8
0
100
AcDbLine
 10
21.65140507968926
 20
0.3698856146173171
 30
0.0
 11
24.41341474554938
 21
0.3698856146173171
 31
0.0
  0
LINE
  5
1D2
330
70
100
AcDbEntity
  8
0
100
AcDbLine
 10
12.21593448707021
 20
8.499106896701903
 30
0.0
 11
12.21593448707021
 21
1.358143845293284
 31
0.0
  0
MTEXT
  5
1D4
330
70
100
AcDbEntity
  8
0
100
AcDbMText
 10
16.17127920057285
 20
-0.203941480881781
 30
0.0
 40
1.0
 41
42.58374700839397
 46
0.0
 71
     1
 72
     5
  1
290
 73
     1
 44
1.0
1001
ACAD
1000
ACAD_MTEXT_COLUMN_INFO_BEGIN
1070
    75
1070
     2
1070
    79
1070
     0
1070
    76
1070
     1
1070
    78
1070
     0
1070
    48
1040
42.58374700839397
1070
    49
1040
5.0
1070
    50
1070
     1
1040
0.0
1000
ACAD_MTEXT_COLUMN_INFO_END
  0
MTEXT
  5
1DD
330
70
100
AcDbEntity
  8
0
100
AcDbMText
 10
8.770957128934391
 20
5.48231527780473
 30
0.0
 40
1.0
 41
42.58374700839397
 46
0.0
 71
     1
 72
     5
  1
300
 73
     1
 44
1.0
1001
ACAD
1000
ACAD_MTEXT_COLUMN_INFO_BEGIN
1070
    75
1070
     2
1070
    79
1070
     0
1070
    76
1070
     1
1070
    78
1070
     0
1070
    48
1040
42.58374700839397
1070
    49
1040
5.0
1070
    50
1070
     1
1040
0.0
1000
ACAD_MTEXT_COLUMN_INFO_END
  0
MTEXT
  5
1E5
330
70
100
AcDbEntity
  8
0
100
AcDbMText
 10
22.19998843201532
 20
-0.224079449735143
 30
0.0
 40
1.0
 41
42.58374700839397
 46
0.0
 71
     1
 72
     5
  1
80
 73
     1
 44
1.0
1001
ACAD
1000
ACAD_MTEXT_COLUMN_INFO_BEGIN
1070
    75
1070
     2
1070
    79
1070
     0
1070
    76
1070
     1
1070
    78
1070
     0
1070
    48
1040
42.58374700839397
1070
    49
1040
5.0
1070
    50
1070
     1
1040
0.0
1000
ACAD_MTEXT_COLUMN_INFO_END
  0
ENDSEC
  0
SECTION
  2
OBJECTS
  0
DICTIONARY
  5
C
330
0
100
AcDbDictionary
281
     1
  3
ACAD_CIP_PREVIOUS_PRODUCT_INFO
350
13A
  3
ACAD_COLOR
350
63
  3
ACAD_DETAILVIEWSTYLE
350
6A
  3
ACAD_GROUP
350
D
  3
ACAD_LAYOUT
350
62
  3
ACAD_MATERIAL
350
10
  3
ACAD_MLEADERSTYLE
350
66
  3
ACAD_MLINESTYLE
350
5F
  3
ACAD_PLOTSETTINGS
350
61
  3
ACAD_PLOTSTYLENAME
350
E
  3
ACAD_SCALELIST
350
42
  3
ACAD_SECTIONVIEWSTYLE
350
68
  3
ACAD_TABLESTYLE
350
64
  3
ACAD_VISUALSTYLE
350
29
  3
ACDB_RECOMPOSE_DATA
350
1E8
  3
AcDbVariableDictionary
350
130
  0
DICTIONARY
  5
13B
330
70
100
AcDbDictionary
280
     1
281
     1
  3
ACAD_SORTENTS
360
13C
  0
XRECORD
  5
13A
102
{ACAD_REACTORS
330
C
102
}
330
C
100
AcDbXrecord
280
     1
300
ACD
300
2022
300

  0
DICTIONARY
  5
63
102
{ACAD_REACTORS
330
C
102
}
330
C
100
AcDbDictionary
281
     1
  0
DICTIONARY
  5
6A
102
{ACAD_REACTORS
330
C
102
}
330
C
100
AcDbDictionary
281
     1
  3
Imperial24
350
6B
  0
DICTIONARY
  5
D
102
{ACAD_REACTORS
330
C
102
}
330
C
100
AcDbDictionary
281
     1
  0
DICTIONARY
  5
62
102
{ACAD_REACTORS
330
C
102
}
330
C
100
AcDbDictionary
281
     1
  3
Layout1
350
6F
  3
Layout2
350
77
  3
Model
350
73
  0
DICTIONARY
  5
10
102
{ACAD_REACTORS
330
C
102
}
330
C
100
AcDbDictionary
281
     1
  3
ByBlock
350
19
  3
ByLayer
350
11
  3
Global
350
21
  0
DICTIONARY
  5
66
102
{ACAD_REACTORS
330
C
102
}
330
C
100
AcDbDictionary
281
     1
  3
Standard
350
67
  0
DICTIONARY
  5
5F
102
{ACAD_REACTORS
330
C
102
}
330
C
100
AcDbDictionary
281
     1
  3
Standard
350
60
  0
DICTIONARY
  5
61
102
{ACAD_REACTORS
330
C
102
}
330
C
100
AcDbDictionary
281
     1
  0
ACDBDICTIONARYWDFLT
  5
E
102
{ACAD_REACTORS
330
C
102
}
330
C
100
AcDbDictionary
281
     1
  3
Normal
350
F
100
AcDbDictionaryWithDefault
340
F
  0
DICTIONARY
  5
42
102
{ACAD_REACTORS
330
C
102
}
330
C
100
AcDbDictionary
281
     1
  3
A0
350
43
  3
A1
350
44
  3
A2
350
45
  3
A3
350
46
  3
A4
350
47
  3
A5
350
48
  3
A6
350
49
  3
A7
350
4A
  3
A8
350
4B
  3
A9
350
4C
  3
B0
350
4D
  3
B1
350
4E
  3
B2
350
4F
  3
B3
350
50
  3
B4
350
51
  3
B5
350
52
  3
B6
350
53
  0
DICTIONARY
  5
68
102
{ACAD_REACTORS
330
C
102
}
330
C
100
AcDbDictionary
281
     1
  3
Imperial24
350
69
  0
DICTIONARY
  5
64
102
{ACAD_REACTORS
330
C
102
}
330
C
100
AcDbDictionary
281
     1
  3
Standard
350
65
  0
DICTIONARY
  5
29
102
{ACAD_REACTORS
330
C
102
}
330
C
100
AcDbDictionary
281
     1
  3
2dWireframe
350
2F
  3
Basic
350
2E
  3
Brighten
350
35
  3
ColorChange
350
39
  3
Conceptual
350
32
  3
Dim
350
34
  3
EdgeColorOff
350
41
  3
Facepattern
350
38
  3
Flat
350
2A
  3
FlatWithEdges
350
2B
  3
Gouraud
350
2C
  3
GouraudWithEdges
350
2D
  3
Hidden
350
31
  3
JitterOff
350
3F
  3
Linepattern
350
37
  3
OverhangOff
350
40
  3
Realistic
350
33
  3
Shaded
350
3E
  3
Shaded with edges
350
3D
  3
Shades of Gray
350
3A
  3
Sketchy
350
3B
  3
Thicken
350
36
  3
Wireframe
350
30
  3
X-Ray
350
3C
  0
XRECORD
  5
1E8
102
{ACAD_REACTORS
330
C
102
}
330
C
100
AcDbXrecord
280
     1
 90
        1
330
65
330
1D4
330
1DD
330
1E5
  0
DICTIONARY
  5
130
102
{ACAD_REACTORS
330
C
102
}
330
C
100
AcDbDictionary
281
     1
  3
CANNOSCALE
350
135
  3
CMLEADERSTYLE
350
132
  3
CTABLESTYLE
350
131
  3
CVIEWDETAILSTYLE
350
133
  3
CVIEWSECTIONSTYLE
350
134
  0
SORTENTSTABLE
  5
13C
102
{ACAD_REACTORS
330
13B
102
}
330
13B
100
AcDbSortentsTable
330
70
  0
ACDBDETAILVIEWSTYLE
  5
6B
102
{ACAD_XDICTIONARY
360
1EB
102
}
102
{ACAD_REACTORS
330
6A
102
}
330
6A
100
AcDbModelDocViewStyle
 70
     0
  3
Imperial24
290
     0
100
AcDbDetailViewStyle
 70
     0
 71
     0
 90
        3
 71
     1
340
55
 62
   256
 40
0.24
340
0
 62
   256
 40
0.24
300

 40
0.36
280
     3
 71
     2
340
5D
 90
       25
 62
   256
 71
     3
340
55
 62
   256
 40
0.24
 90
        1
 40
0.75
 90
        1
300
%<\AcVar ViewType \f "%tc1">% %<\AcVar ViewDetailId>%\PSCALE %<\AcVar ViewScale \f "%sn">%
 71
     4
340
5D
 90
       25
 62
   256
340
5D
 90
       25
 62
   256
280
     0
  0
LAYOUT
  5
6F
102
{ACAD_REACTORS
330
62
102
}
330
62
100
AcDbPlotSettings
  1

  2

  4

  6

 40
0.0
 41
0.0
 42
0.0
 43
0.0
 44
0.0
 45
0.0
 46
0.0
 47
0.0
 48
0.0
 49
0.0
140
0.0
141
0.0
142
1.0
143
1.0
 70
   688
 72
     0
 73
     0
 74
     5
  7

 75
    16
147
1.0
 76
     0
 77
     2
 78
   300
148
0.0
149
0.0
100
AcDbLayout
  1
Layout1
 70
     1
 71
     1
 10
0.0
 20
0.0
 11
12.0
 21
9.0
 12
0.0
 22
0.0
 32
0.0
 14
1.000000000000000E+20
 24
1.000000000000000E+20
 34
1.000000000000000E+20
 15
-1.000000000000000E+20
 25
-1.000000000000000E+20
 35
-1.000000000000000E+20
146
0.0
 13
0.0
 23
0.0
 33
0.0
 16
1.0
 26
0.0
 36
0.0
 17
0.0
 27
1.0
 37
0.0
 76
     0
330
6C
  0
LAYOUT
  5
77
102
{ACAD_REACTORS
330
62
102
}
330
62
100
AcDbPlotSettings
  1

  2

  4

  6

 40
0.0
 41
0.0
 42
0.0
 43
0.0
 44
0.0
 45
0.0
 46
0.0
 47
0.0
 48
0.0
 49
0.0
140
0.0
141
0.0
142
1.0
143
1.0
 70
   688
 72
     0
 73
     0
 74
     5
  7

 75
    16
147
1.0
 76
     0
 77
     2
 78
   300
148
0.0
149
0.0
100
AcDbLayout
  1
Layout2
 70
     1
 71
     2
 10
0.0
 20
0.0
 11
12.0
 21
9.0
 12
0.0
 22
0.0
 32
0.0
 14
0.0
 24
0.0
 34
0.0
 15
0.0
 25
0.0
 35
0.0
146
0.0
 13
0.0
 23
0.0
 33
0.0
 16
1.0
 26
0.0
 36
0.0
 17
0.0
 27
1.0
 37
0.0
 76
     0
330
74
  0
LAYOUT
  5
73
102
{ACAD_REACTORS
330
62
102
}
330
62
100
AcDbPlotSettings
  1

  2

  4

  6

 40
0.0
 41
0.0
 42
0.0
 43
0.0
 44
0.0
 45
0.0
 46
0.0
 47
0.0
 48
0.0
 49
0.0
140
0.0
141
0.0
142
1.0
143
1.0
 70
  1712
 72
     0
 73
     0
 74
     0
  7

 75
     0
147
1.0
 76
     0
 77
     2
 78
   300
148
0.0
149
0.0
100
AcDbLayout
  1
Model
 70
     1
 71
     0
 10
0.0
 20
0.0
 11
12.0
 21
9.0
 12
0.0
 22
0.0
 32
0.0
 14
0.0
 24
0.0
 34
0.0
 15
0.0
 25
0.0
 35
0.0
146
0.0
 13
0.0
 23
0.0
 33
0.0
 16
1.0
 26
0.0
 36
0.0
 17
0.0
 27
1.0
 37
0.0
 76
     0
330
70
331
57
  0
MATERIAL
  5
19
102
{ACAD_XDICTIONARY
360
1A
102
}
102
{ACAD_REACTORS
330
10
102
}
330
10
100
AcDbMaterial
  1
ByBlock
 72
     0
 43
0.0208333333333333
 43
0.0
 43
0.0
 43
0.0
 43
0.0
 43
0.0208333333333333
 43
0.0
 43
0.0
 43
0.0
 43
0.0
 43
1.0
 43
0.0
 43
0.0
 43
0.0
 43
0.0
 43
1.0
 77
     0
 47
0.0208333333333333
 47
0.0
 47
0.0
 47
0.0
 47
0.0
 47
0.0208333333333333
 47
0.0
 47
0.0
 47
0.0
 47
0.0
 47
1.0
 47
0.0
 47
0.0
 47
0.0
 47
0.0
 47
1.0
171
     0
 49
0.0208333333333333
 49
0.0
 49
0.0
 49
0.0
 49
0.0
 49
0.0208333333333333
 49
0.0
 49
0.0
 49
0.0
 49
0.0
 49
1.0
 49
0.0
 49
0.0
 49
0.0
 49
0.0
 49
1.0
175
     0
142
0.0208333333333333
142
0.0
142
0.0
142
0.0
142
0.0
142
0.0208333333333333
142
0.0
142
0.0
142
0.0
142
0.0
142
1.0
142
0.0
142
0.0
142
0.0
142
0.0
142
1.0
179
     0
144
0.0208333333333333
144
0.0
144
0.0
144
0.0
144
0.0
144
0.0208333333333333
144
0.0
144
0.0
144
0.0
144
0.0
144
1.0
144
0.0
144
0.0
144
0.0
144
0.0
144
1.0
147
0.0208333333333333
147
0.0
147
0.0
147
0.0
147
0.0
147
0.0208333333333333
147
0.0
147
0.0
147
0.0
147
0.0
147
1.0
147
0.0
147
0.0
147
0.0
147
0.0
147
1.0
  0
MATERIAL
  5
11
102
{ACAD_XDICTIONARY
360
12
102
}
102
{ACAD_REACTORS
330
10
102
}
330
10
100
AcDbMaterial
  1
ByLayer
 72
     0
 43
0.0208333333333333
 43
0.0
 43
0.0
 43
0.0
 43
0.0
 43
0.0208333333333333
 43
0.0
 43
0.0
 43
0.0
 43
0.0
 43
1.0
 43
0.0
 43
0.0
 43
0.0
 43
0.0
 43
1.0
 77
     0
 47
0.0208333333333333
 47
0.0
 47
0.0
 47
0.0
 47
0.0
 47
0.0208333333333333
 47
0.0
 47
0.0
 47
0.0
 47
0.0
 47
1.0
 47
0.0
 47
0.0
 47
0.0
 47
0.0
 47
1.0
171
     0
 49
0.0208333333333333
 49
0.0
 49
0.0
 49
0.0
 49
0.0
 49
0.0208333333333333
 49
0.0
 49
0.0
 49
0.0
 49
0.0
 49
1.0
 49
0.0
 49
0.0
 49
0.0
 49
0.0
 49
1.0
175
     0
142
0.0208333333333333
142
0.0
142
0.0
142
0.0
142
0.0
142
0.0208333333333333
142
0.0
142
0.0
142
0.0
142
0.0
142
1.0
142
0.0
142
0.0
142
0.0
142
0.0
142
1.0
179
     0
144
0.0208333333333333
144
0.0
144
0.0
144
0.0
144
0.0
144
0.0208333333333333
144
0.0
144
0.0
144
0.0
144
0.0
144
1.0
144
0.0
144
0.0
144
0.0
144
0.0
144
1.0
147
0.0208333333333333
147
0.0
147
0.0
147
0.0
147
0.0
147
0.0208333333333333
147
0.0
147
0.0
147
0.0
147
0.0
147
1.0
147
0.0
147
0.0
147
0.0
147
0.0
147
1.0
  0
MATERIAL
  5
21
102
{ACAD_XDICTIONARY
360
22
102
}
102
{ACAD_REACTORS
330
10
102
}
330
10
100
AcDbMaterial
  1
Global
 72
     0
 43
0.0208333333333333
 43
0.0
 43
0.0
 43
0.0
 43
0.0
 43
0.0208333333333333
 43
0.0
 43
0.0
 43
0.0
 43
0.0
 43
1.0
 43
0.0
 43
0.0
 43
0.0
 43
0.0
 43
1.0
 77
     0
 47
0.0208333333333333
 47
0.0
 47
0.0
 47
0.0
 47
0.0
 47
0.0208333333333333
 47
0.0
 47
0.0
 47
0.0
 47
0.0
 47
1.0
 47
0.0
 47
0.0
 47
0.0
 47
0.0
 47
1.0
171
     0
 49
0.0208333333333333
 49
0.0
 49
0.0
 49
0.0
 49
0.0
 49
0.0208333333333333
 49
0.0
 49
0.0
 49
0.0
 49
0.0
 49
1.0
 49
0.0
 49
0.0
 49
0.0
 49
0.0
 49
1.0
175
     0
142
0.0208333333333333
142
0.0
142
0.0
142
0.0
142
0.0
142
0.0208333333333333
142
0.0
142
0.0
142
0.0
142
0.0
142
1.0
142
0.0
142
0.0
142
0.0
142
0.0
142
1.0
179
     0
144
0.0208333333333333
144
0.0
144
0.0
144
0.0
144
0.0
144
0.0208333333333333
144
0.0
144
0.0
144
0.0
144
0.0
144
1.0
144
0.0
144
0.0
144
0.0
144
0.0
144
1.0
147
0.0208333333333333
147
0.0
147
0.0
147
0.0
147
0.0
147
0.0208333333333333
147
0.0
147
0.0
147
0.0
147
0.0
147
1.0
147
0.0
147
0.0
147
0.0
147
0.0
147
1.0
  0
MLEADERSTYLE
  5
67
102
{ACAD_REACTORS
330
66
102
}
330
66
100
AcDbMLeaderStyle
179
     2
170
     2
171
     1
172
     0
 90
        2
 40
0.0
 41
0.0
173
     1
 91
-1056964608
340
5B
 92
       -2
290
     1
 42
0.09
291
     1
 43
0.36
  3
Standard
 44
0.18
300

342
55
174
     1
178
     6
175
     1
176
     0
 93
-1056964608
 45
0.18
292
     0
297
     0
 46
0.18
 94
-1056964608
 47
1.0
 49
1.0
140
1.0
293
     1
141
0.0
294
     1
177
     0
142
1.0
295
     0
296
     0
143
0.125
271
     0
272
     9
273
     9
298
     1
  0
MLINESTYLE
  5
60
102
{ACAD_REACTORS
330
5F
102
}
330
5F
100
AcDbMlineStyle
  2
STANDARD
 70
     0
  3

 62
   256
 51
90.0
 52
90.0
 71
     2
 49
0.5
 62
   256
  6
BYLAYER
 49
-0.5
 62
   256
  6
BYLAYER
  0
ACDBPLACEHOLDER
  5
F
102
{ACAD_REACTORS
330
E
102
}
330
E
  0
SCALE
  5
43
102
{ACAD_REACTORS
330
42
102
}
330
42
100
AcDbScale
 70
     0
300
1:1
140
1.0
141
1.0
290
     1
  0
SCALE
  5
44
102
{ACAD_REACTORS
330
42
102
}
330
42
100
AcDbScale
 70
     0
300
1/128" = 1'-0"
140
0.0078125
141
12.0
290
     0
  0
SCALE
  5
45
102
{ACAD_REACTORS
330
42
102
}
330
42
100
AcDbScale
 70
     0
300
1/64" = 1'-0"
140
0.015625
141
12.0
290
     0
  0
SCALE
  5
46
102
{ACAD_REACTORS
330
42
102
}
330
42
100
AcDbScale
 70
     0
300
1/32" = 1'-0"
140
0.03125
141
12.0
290
     0
  0
SCALE
  5
47
102
{ACAD_REACTORS
330
42
102
}
330
42
100
AcDbScale
 70
     0
300
1/16" = 1'-0"
140
0.0625
141
12.0
290
     0
  0
SCALE
  5
48
102
{ACAD_REACTORS
330
42
102
}
330
42
100
AcDbScale
 70
     0
300
3/32" = 1'-0"
140
0.09375
141
12.0
290
     0
  0
SCALE
  5
49
102
{ACAD_REACTORS
330
42
102
}
330
42
100
AcDbScale
 70
     0
300
1/8" = 1'-0"
140
0.125
141
12.0
290
     0
  0
SCALE
  5
4A
102
{ACAD_REACTORS
330
42
102
}
330
42
100
AcDbScale
 70
     0
300
3/16" = 1'-0"
140
0.1875
141
12.0
290
     0
  0
SCALE
  5
4B
102
{ACAD_REACTORS
330
42
102
}
330
42
100
AcDbScale
 70
     0
300
1/4" = 1'-0"
140
0.25
141
12.0
290
     0
  0
SCALE
  5
4C
102
{ACAD_REACTORS
330
42
102
}
330
42
100
AcDbScale
 70
     0
300
3/8" = 1'-0"
140
0.375
141
12.0
290
     0
  0
SCALE
  5
4D
102
{ACAD_REACTORS
330
42
102
}
330
42
100
AcDbScale
 70
     0
300
1/2" = 1'-0"
140
0.5
141
12.0
290
     0
  0
SCALE
  5
4E
102
{ACAD_REACTORS
330
42
102
}
330
42
100
AcDbScale
 70
     0
300
3/4" = 1'-0"
140
0.75
141
12.0
290
     0
  0
SCALE
  5
4F
102
{ACAD_REACTORS
330
42
102
}
330
42
100
AcDbScale
 70
     0
300
1" = 1'-0"
140
1.0
141
12.0
290
     0
  0
SCALE
  5
50
102
{ACAD_REACTORS
330
42
102
}
330
42
100
AcDbScale
 70
     0
300
1-1/2" = 1'-0"
140
1.5
141
12.0
290
     0
  0
SCALE
  5
51
102
{ACAD_REACTORS
330
42
102
}
330
42
100
AcDbScale
 70
     0
300
3" = 1'-0"
140
3.0
141
12.0
290
     0
  0
SCALE
  5
52
102
{ACAD_REACTORS
330
42
102
}
330
42
100
AcDbScale
 70
     0
300
6" = 1'-0"
140
6.0
141
12.0
290
     0
  0
SCALE
  5
53
102
{ACAD_REACTORS
330
42
102
}
330
42
100
AcDbScale
 70
     0
300
1'-0" = 1'-0"
140
12.0
141
12.0
290
     0
  0
ACDBSECTIONVIEWSTYLE
  5
69
102
{ACAD_XDICTIONARY
360
1E9
102
}
102
{ACAD_REACTORS
330
68
102
}
330
68
100
AcDbModelDocViewStyle
 70
     0
  3
Imperial24
290
     0
100
AcDbSectionViewStyle
 70
     0
 71
     0
 90
       78
 71
     1
340
55
 62
   256
 40
0.24
340
0
340
0
 62
   256
 40
0.24
300
I, O, Q, S, X, Z
 40
0.48
 90
        3
 40
0.18
 90
        1
 71
     2
340
5D
 90
       25
 62
   256
340
5D
 90
       50
 62
   256
 40
0.24
 40
0.0
 40
0.24
 71
     3
340
55
 62
   256
 40
0.24
 90
        1
 40
0.75
 90
        1
300
%<\AcVar ViewType \f "%tc1">% %<\AcVar ViewSectionStartId>%-%<\AcVar ViewSectionEndId>%\PSCALE %<\AcVar ViewScale \f "%sn">%
 71
     4
 62
   256
 62
   257
300
ANSI31
 40
1.0
 90
        0
290
     0
290
     0
 90
        6
 40
0.0
 40
1.570796326794896
 40
0.2617993877991494
 40
1.308996938995747
 40
-0.2617993877991494
 40
1.832595714594046
  0
TABLESTYLE
  5
65
102
{ACAD_XDICTIONARY
360
1E6
102
}
102
{ACAD_REACTORS
330
64
102
}
330
64
100
AcDbTableStyle
280
     0
  3
Standard
 70
     0
 71
     0
 40
0.06
 41
0.06
280
     0
281
     0
  7
Standard
140
0.18
170
     2
 62
     0
 63
     7
283
     0
 90
      512
 91
        0
  1

274
    -2
284
     1
 64
     0
275
    -2
285
     1
 65
     0
276
    -2
286
     1
 66
     0
277
    -2
287
     1
 67
     0
278
    -2
288
     1
 68
     0
279
    -2
289
     1
 69
     0
  7
Standard
140
0.25
170
     5
 62
     0
 63
     7
283
     0
 90
      512
 91
        0
  1

274
    -2
284
     1
 64
     0
275
    -2
285
     1
 65
     0
276
    -2
286
     1
 66
     0
277
    -2
287
     1
 67
     0
278
    -2
288
     1
 68
     0
279
    -2
289
     1
 69
     0
  7
Standard
140
0.18
170
     5
 62
     0
 63
     7
283
     0
 90
      512
 91
        0
  1

274
    -2
284
     1
 64
     0
275
    -2
285
     1
 65
     0
276
    -2
286
     1
 66
     0
277
    -2
287
     1
 67
     0
278
    -2
288
     1
 68
     0
279
    -2
289
     1
 69
     0
  0
VISUALSTYLE
  5
2F
102
{ACAD_REACTORS
330
29
102
}
330
29
100
AcDbVisualStyle
  2
2dWireframe
 70
     4
177
     3
291
     0
 70
    58
 90
        0
176
     1
 90
        2
176
     1
 90
        0
176
     1
 90
        0
176
     1
 40
0.6
176
     1
 40
30.0
176
     1
 62
     7
420
 16777215
176
     1
 90
        1
176
     1
 90
        4
176
     1
 62
     7
176
     1
 62
   257
176
     1
 90
        1
176
     1
 90
        1
176
     1
 40
1.0
176
     1
 90
        0
176
     1
 62
   257
176
     1
 40
1.0
176
     1
 90
        1
176
     1
 90
        6
176
     1
 90
        2
176
     1
 62
     7
176
     1
 90
        5
176
     1
 90
        0
176
     1
 90
        0
176
     1
290
     0
176
     1
 90
        1
176
     1
 40
0.0
176
     1
 90
        0
176
     1
290
     1
176
     1
290
     1
176
     1
290
     0
176
     1
290
     0
176
     1
290
     0
176
     1
290
     0
176
     1
290
     0
176
     1
290
     0
176
     1
290
     0
176
     1
 90
       50
176
     1
 40
0.0
176
     1
 40
1.0
176
     1
 90
        0
176
     1
 62
    18
420
        0
176
     1
 90
       50
176
     1
 90
        3
176
     1
 62
     5
420
      255
176
     1
290
     0
176
     1
 90
       50
176
     1
 90
       50
176
     1
 90
       50
176
     1
290
     0
176
     1
 90
       50
176
     1
 62
   256
176
     0
 40
1.0
176
     0
 90
        2
176
     1
  1
strokes_ogs.tif
176
     1
290
     0
176
     1
 40
1.0
176
     1
 40
1.0
176
     1
1001
ACAD
1000
AcDbSavedByObjectVersion
1070
     0
  0
VISUALSTYLE
  5
2E
102
{ACAD_REACTORS
330
29
102
}
330
29
100
AcDbVisualStyle
  2
Basic
 70
     7
177
     3
291
     1
 70
    58
 90
        1
176
     1
 90
        0
176
     1
 90
        1
176
     1
 90
        0
176
     1
 40
0.6
176
     1
 40
30.0
176
     1
 62
     7
420
 16777215
176
     1
 90
        0
176
     1
 90
        4
176
     1
 62
     7
176
     1
 62
   257
176
     1
 90
        1
176
     1
 90
        1
176
     1
 40
1.0
176
     1
 90
        8
176
     1
 62
     7
176
     1
 40
1.0
176
     1
 90
        1
176
     1
 90
        6
176
     1
 90
        2
176
     1
 62
     7
176
     1
 90
        5
176
     1
 90
        0
176
     1
 90
        0
176
     1
290
     0
176
     1
 90
        1
176
     1
 40
0.0
176
     1
 90
        0
176
     1
290
     0
176
     1
290
     1
176
     1
290
     1
176
     1
290
     0
176
     1
290
     0
176
     1
290
     0
176
     1
290
     0
176
     1
290
     0
176
     1
290
     0
176
     1
 90
       50
176
     1
 40
0.0
176
     1
 40
1.0
176
     1
 90
        0
176
     1
 62
    18
420
        0
176
     1
 90
       50
176
     1
 90
        3
176
     1
 62
     5
420
      255
176
     1
290
     0
176
     1
 90
       50
176
     1
 90
       50
176
     1
 90
       50
176
     1
290
     0
176
     1
 90
       50
176
     1
 62
   256
176
     0
 40
1.0
176
     0
 90
        2
176
     1
  1
strokes_ogs.tif
176
     1
290
     0
176
     1
 40
1.0
176
     1
 40
1.0
176
     1
1001
ACAD
1000
AcDbSavedByObjectVersion
1070
     0
  0
VISUALSTYLE
  5
35
102
{ACAD_REACTORS
330
29
102
}
330
29
100
AcDbVisualStyle
  2
Brighten
 70
    12
177
     3
291
     1
 70
    58
 90
        2
176
     1
 90
        2
176
     1
 90
        0
176
     1
 90
        0
176
     1
 40
0.6
176
     1
 40
30.0
176
     1
 62
     7
420
 16777215
176
     1
 90
        1
176
     1
 90
        4
176
     1
 62
     7
176
     1
 62
   257
176
     1
 90
        1
176
     1
 90
        1
176
     1
 40
1.0
176
     1
 90
        8
176
     1
 62
     7
176
     1
 40
1.0
176
     1
 90
        1
176
     1
 90
        6
176
     1
 90
        2
176
     1
 62
     7
176
     1
 90
        5
176
     1
 90
        0
176
     1
 90
        0
176
     1
290
     0
176
     1
 90
        1
176
     1
 40
50.0
176
     1
 90
        0
176
     1
290
     0
176
     1
290
     1
176
     1
290
     1
176
     1
290
     0
176
     1
290
     0
176
     1
290
     0
176
     1
290
     0
176
     1
290
     0
176
     1
290
     0
176
     1
 90
       50
176
     1
 40
0.0
176
     1
 40
1.0
176
     1
 90
        0
176
     1
 62
    18
420
        0
176
     1
 90
       50
176
     1
 90
        3
176
     1
 62
     5
420
      255
176
     1
290
     0
176
     1
 90
       50
176
     1
 90
       50
176
     1
 90
       50
176
     1
290
     0
176
     1
 90
       50
176
     1
 62
   256
176
     0
 40
1.0
176
     0
 90
        2
176
     1
  1
strokes_ogs.tif
176
     1
290
     0
176
     1
 40
1.0
176
     1
 40
1.0
176
     1
1001
ACAD
1000
AcDbSavedByObjectVersion
1070
     0
  0
VISUALSTYLE
  5
39
102
{ACAD_REACTORS
330
29
102
}
330
29
100
AcDbVisualStyle
  2
ColorChange
 70
    16
177
     3
291
     1
 70
    58
 90
        2
176
     1
 90
        2
176
     1
 90
        3
176
     1
 90
        0
176
     1
 40
0.6
176
     1
 40
30.0
176
     1
 62
     8
420
  8421504
176
     1
 90
        1
176
     1
 90
        4
176
     1
 62
     7
176
     1
 62
   257
176
     1
 90
        1
176
     1
 90
        1
176
     1
 40
1.0
176
     1
 90
        8
176
     1
 62
     8
420
  8421504
176
     1
 40
1.0
176
     1
 90
        1
176
     1
 90
        6
176
     1
 90
        2
176
     1
 62
     7
176
     1
 90
        5
176
     1
 90
        0
176
     1
 90
        0
176
     1
290
     0
176
     1
 90
        1
176
     1
 40
0.0
176
     1
 90
        0
176
     1
290
     0
176
     1
290
     1
176
     1
290
     1
176
     1
290
     0
176
     1
290
     0
176
     1
290
     0
176
     1
290
     0
176
     1
290
     0
176
     1
290
     0
176
     1
 90
       50
176
     1
 40
0.0
176
     1
 40
1.0
176
     1
 90
        0
176
     1
 62
    18
420
        0
176
     1
 90
       50
176
     1
 90
        3
176
     1
 62
     5
420
      255
176
     1
290
     0
176
     1
 90
       50
176
     1
 90
       50
176
     1
 90
       50
176
     1
290
     0
176
     1
 90
       50
176
     1
 62
   256
176
     0
 40
1.0
176
     0
 90
        2
176
     1
  1
strokes_ogs.tif
176
     1
290
     0
176
     1
 40
1.0
176
     1
 40
1.0
176
     1
1001
ACAD
1000
AcDbSavedByObjectVersion
1070
     0
  0
VISUALSTYLE
  5
32
102
{ACAD_REACTORS
330
29
102
}
330
29
100
AcDbVisualStyle
  2
Conceptual
 70
     9
177
     3
291
     0
 70
    58
 90
        3
176
     1
 90
        2
176
     1
 90
        0
176
     1
 90
        0
176
     1
 40
0.6
176
     1
 40
30.0
176
     1
 62
     7
420
 16777215
176
     1
 90
        2
176
     1
 90
        2
176
     1
 62
     7
176
     1
 62
   257
176
     1
 90
        1
176
     1
 90
        1
176
     1
 40
179.0
176
     1
 90
        8
176
     1
 62
     7
176
     1
 40
1.0
176
     1
 90
        1
176
     1
 90
        6
176
     1
 90
        2
176
     1
 62
     7
176
     1
 90
        3
176
     1
 90
        0
176
     1
 90
        0
176
     1
290
     0
176
     1
 90
        1
176
     1
 40
0.0
176
     1
 90
        0
176
     1
290
     0
176
     1
290
     1
176
     1
290
     1
176
     1
290
     0
176
     1
290
     0
176
     1
290
     0
176
     1
290
     0
176
     1
290
     0
176
     1
290
     0
176
     1
 90
       50
176
     1
 40
0.0
176
     1
 40
1.0
176
     1
 90
        0
176
     1
 62
    18
420
        0
176
     1
 90
       50
176
     1
 90
        3
176
     1
 62
     5
420
      255
176
     1
290
     0
176
     1
 90
       50
176
     1
 90
       50
176
     1
 90
       50
176
     1
290
     0
176
     1
 90
       50
176
     1
 62
   256
176
     0
 40
1.0
176
     0
 90
        2
176
     1
  1
strokes_ogs.tif
176
     1
290
     0
176
     1
 40
1.0
176
     1
 40
1.0
176
     1
1001
ACAD
1000
AcDbSavedByObjectVersion
1070
     0
  0
VISUALSTYLE
  5
34
102
{ACAD_REACTORS
330
29
102
}
330
29
100
AcDbVisualStyle
  2
Dim
 70
    11
177
     3
291
     1
 70
    58
 90
        2
176
     1
 90
        2
176
     1
 90
        0
176
     1
 90
        0
176
     1
 40
0.6
176
     1
 40
30.0
176
     1
 62
     7
420
 16777215
176
     1
 90
        1
176
     1
 90
        4
176
     1
 62
     7
176
     1
 62
   257
176
     1
 90
        1
176
     1
 90
        1
176
     1
 40
1.0
176
     1
 90
        8
176
     1
 62
     7
176
     1
 40
1.0
176
     1
 90
        1
176
     1
 90
        6
176
     1
 90
        2
176
     1
 62
     7
176
     1
 90
        5
176
     1
 90
        0
176
     1
 90
        0
176
     1
290
     0
176
     1
 90
        1
176
     1
 40
-50.0
176
     1
 90
        0
176
     1
290
     0
176
     1
290
     1
176
     1
290
     1
176
     1
290
     0
176
     1
290
     0
176
     1
290
     0
176
     1
290
     0
176
     1
290
     0
176
     1
290
     0
176
     1
 90
       50
176
     1
 40
0.0
176
     1
 40
1.0
176
     1
 90
        0
176
     1
 62
    18
420
        0
176
     1
 90
       50
176
     1
 90
        3
176
     1
 62
     5
420
      255
176
     1
290
     0
176
     1
 90
       50
176
     1
 90
       50
176
     1
 90
       50
176
     1
290
     0
176
     1
 90
       50
176
     1
 62
   256
176
     0
 40
1.0
176
     0
 90
        2
176
     1
  1
strokes_ogs.tif
176
     1
290
     0
176
     1
 40
1.0
176
     1
 40
1.0
176
     1
1001
ACAD
1000
AcDbSavedByObjectVersion
1070
     0
  0
VISUALSTYLE
  5
41
102
{ACAD_REACTORS
330
29
102
}
330
29
100
AcDbVisualStyle
  2
EdgeColorOff
 70
    22
177
     3
291
     1
 70
    58
 90
        2
176
     0
 90
        2
176
     0
 90
        0
176
     0
 90
        0
176
     0
 40
0.6
176
     0
 40
30.0
176
     0
 62
     7
420
 16777215
176
     0
 90
        1
176
     0
 90
        4
176
     0
 62
     7
176
     0
 62
   257
176
     0
 90
        1
176
     0
 90
        1
176
     0
 40
1.0
176
     0
 90
        8
176
     2
 62
     7
176
     0
 40
1.0
176
     0
 90
        1
176
     0
 90
        6
176
     0
 90
        2
176
     0
 62
     7
176
     0
 90
        5
176
     0
 90
        0
176
     0
 90
        0
176
     0
290
     0
176
     0
 90
        1
176
     0
 40
0.0
176
     0
 90
        0
176
     0
290
     0
176
     0
290
     1
176
     0
290
     1
176
     0
290
     0
176
     0
290
     0
176
     0
290
     0
176
     0
290
     0
176
     0
290
     0
176
     0
290
     0
176
     0
 90
       50
176
     0
 40
0.0
176
     0
 40
1.0
176
     0
 90
        0
176
     0
 62
    18
420
        0
176
     0
 90
       50
176
     0
 90
        3
176
     0
 62
     5
420
      255
176
     0
290
     0
176
     0
 90
       50
176
     0
 90
       50
176
     0
 90
       50
176
     0
290
     0
176
     0
 90
       50
176
     0
 62
   256
176
     0
 40
1.0
176
     0
 90
        2
176
     0
  1
strokes_ogs.tif
176
     0
290
     0
176
     0
 40
1.0
176
     0
 40
1.0
176
     0
1001
ACAD
1000
AcDbSavedByObjectVersion
1070
     0
  0
VISUALSTYLE
  5
38
102
{ACAD_REACTORS
330
29
102
}
330
29
100
AcDbVisualStyle
  2
Facepattern
 70
    15
177
     3
291
     1
 70
    58
 90
        2
176
     1
 90
        2
176
     1
 90
        0
176
     1
 90
        0
176
     1
 40
0.6
176
     1
 40
30.0
176
     1
 62
     7
420
 16777215
176
     1
 90
        1
176
     1
 90
        4
176
     1
 62
     7
176
     1
 62
   257
176
     1
 90
        1
176
     1
 90
        1
176
     1
 40
1.0
176
     1
 90
        8
176
     1
 62
     7
176
     1
 40
1.0
176
     1
 90
        1
176
     1
 90
        6
176
     1
 90
        2
176
     1
 62
     7
176
     1
 90
        5
176
     1
 90
        0
176
     1
 90
        0
176
     1
290
     0
176
     1
 90
        1
176
     1
 40
0.0
176
     1
 90
        0
176
     1
290
     0
176
     1
290
     1
176
     1
290
     1
176
     1
290
     0
176
     1
290
     0
176
     1
290
     0
176
     1
290
     0
176
     1
290
     0
176
     1
290
     0
176
     1
 90
       50
176
     1
 40
0.0
176
     1
 40
1.0
176
     1
 90
        0
176
     1
 62
    18
420
        0
176
     1
 90
       50
176
     1
 90
        3
176
     1
 62
     5
420
      255
176
     1
290
     0
176
     1
 90
       50
176
     1
 90
       50
176
     1
 90
       50
176
     1
290
     0
176
     1
 90
       50
176
     1
 62
   256
176
     0
 40
1.0
176
     0
 90
        2
176
     1
  1
strokes_ogs.tif
176
     1
290
     0
176
     1
 40
1.0
176
     1
 40
1.0
176
     1
1001
ACAD
1000
AcDbSavedByObjectVersion
1070
     0
  0
VISUALSTYLE
  5
2A
102
{ACAD_REACTORS
330
29
102
}
330
29
100
AcDbVisualStyle
  2
Flat
 70
     0
177
     3
291
     1
 70
    58
 90
        2
176
     1
 90
        1
176
     1
 90
        1
176
     1
 90
        2
176
     1
 40
0.6
176
     1
 40
30.0
176
     1
 62
     7
420
 16777215
176
     1
 90
        0
176
     1
 90
        0
176
     1
 62
     7
176
     1
 62
   257
176
     1
 90
        1
176
     1
 90
        1
176
     1
 40
1.0
176
     1
 90
        8
176
     1
 62
     7
176
     1
 40
1.0
176
     1
 90
        1
176
     1
 90
        6
176
     1
 90
        2
176
     1
 62
     7
176
     1
 90
        5
176
     1
 90
        0
176
     1
 90
        0
176
     1
290
     0
176
     1
 90
       13
176
     1
 40
0.0
176
     1
 90
        0
176
     1
290
     0
176
     1
290
     1
176
     1
290
     1
176
     1
290
     0
176
     1
290
     0
176
     1
290
     0
176
     1
290
     0
176
     1
290
     0
176
     1
290
     0
176
     1
 90
       50
176
     1
 40
0.0
176
     1
 40
1.0
176
     1
 90
        0
176
     1
 62
    18
420
        0
176
     1
 90
       50
176
     1
 90
        3
176
     1
 62
     5
420
      255
176
     1
290
     0
176
     1
 90
       50
176
     1
 90
       50
176
     1
 90
       50
176
     1
290
     0
176
     1
 90
       50
176
     1
 62
   256
176
     0
 40
1.0
176
     0
 90
        2
176
     1
  1
strokes_ogs.tif
176
     1
290
     0
176
     1
 40
1.0
176
     1
 40
1.0
176
     1
1001
ACAD
1000
AcDbSavedByObjectVersion
1070
     0
  0
VISUALSTYLE
  5
2B
102
{ACAD_REACTORS
330
29
102
}
330
29
100
AcDbVisualStyle
  2
FlatWithEdges
 70
     1
177
     3
291
     1
 70
    58
 90
        2
176
     1
 90
        1
176
     1
 90
        1
176
     1
 90
        2
176
     1
 40
0.6
176
     1
 40
30.0
176
     1
 62
     7
420
 16777215
176
     1
 90
        1
176
     1
 90
        0
176
     1
 62
     7
176
     1
 62
   257
176
     1
 90
        1
176
     1
 90
        1
176
     1
 40
1.0
176
     1
 90
        0
176
     1
 62
   257
176
     1
 40
1.0
176
     1
 90
        1
176
     1
 90
        6
176
     1
 90
        2
176
     1
 62
     7
176
     1
 90
        5
176
     1
 90
        0
176
     1
 90
        0
176
     1
290
     0
176
     1
 90
       13
176
     1
 40
0.0
176
     1
 90
        0
176
     1
290
     0
176
     1
290
     1
176
     1
290
     1
176
     1
290
     0
176
     1
290
     0
176
     1
290
     0
176
     1
290
     0
176
     1
290
     0
176
     1
290
     0
176
     1
 90
       50
176
     1
 40
0.0
176
     1
 40
1.0
176
     1
 90
        0
176
     1
 62
    18
420
        0
176
     1
 90
       50
176
     1
 90
        3
176
     1
 62
     5
420
      255
176
     1
290
     0
176
     1
 90
       50
176
     1
 90
       50
176
     1
 90
       50
176
     1
290
     0
176
     1
 90
       50
176
     1
 62
   256
176
     0
 40
1.0
176
     0
 90
        2
176
     1
  1
strokes_ogs.tif
176
     1
290
     0
176
     1
 40
1.0
176
     1
 40
1.0
176
     1
1001
ACAD
1000
AcDbSavedByObjectVersion
1070
     0
  0
VISUALSTYLE
  5
2C
102
{ACAD_REACTORS
330
29
102
}
330
29
100
AcDbVisualStyle
  2
Gouraud
 70
     2
177
     3
291
     1
 70
    58
 90
        2
176
     1
 90
        2
176
     1
 90
        1
176
     1
 90
        2
176
     1
 40
0.6
176
     1
 40
30.0
176
     1
 62
     7
420
 16777215
176
     1
 90
        0
176
     1
 90
        0
176
     1
 62
     7
176
     1
 62
   257
176
     1
 90
        1
176
     1
 90
        1
176
     1
 40
1.0
176
     1
 90
        0
176
     1
 62
     7
176
     1
 40
1.0
176
     1
 90
        1
176
     1
 90
        6
176
     1
 90
        2
176
     1
 62
     7
176
     1
 90
        5
176
     1
 90
        0
176
     1
 90
        0
176
     1
290
     0
176
     1
 90
       13
176
     1
 40
0.0
176
     1
 90
        0
176
     1
290
     0
176
     1
290
     1
176
     1
290
     1
176
     1
290
     0
176
     1
290
     0
176
     1
290
     0
176
     1
290
     0
176
     1
290
     0
176
     1
290
     0
176
     1
 90
       50
176
     1
 40
0.0
176
     1
 40
1.0
176
     1
 90
        0
176
     1
 62
    18
420
        0
176
     1
 90
       50
176
     1
 90
        3
176
     1
 62
     5
420
      255
176
     1
290
     0
176
     1
 90
       50
176
     1
 90
       50
176
     1
 90
       50
176
     1
290
     0
176
     1
 90
       50
176
     1
 62
   256
176
     0
 40
1.0
176
     0
 90
        2
176
     1
  1
strokes_ogs.tif
176
     1
290
     0
176
     1
 40
1.0
176
     1
 40
1.0
176
     1
1001
ACAD
1000
AcDbSavedByObjectVersion
1070
     0
  0
VISUALSTYLE
  5
2D
102
{ACAD_REACTORS
330
29
102
}
330
29
100
AcDbVisualStyle
  2
GouraudWithEdges
 70
     3
177
     3
291
     1
 70
    58
 90
        2
176
     1
 90
        2
176
     1
 90
        1
176
     1
 90
        2
176
     1
 40
0.6
176
     1
 40
30.0
176
     1
 62
     7
420
 16777215
176
     1
 90
        1
176
     1
 90
        0
176
     1
 62
     7
176
     1
 62
   257
176
     1
 90
        1
176
     1
 90
        1
176
     1
 40
1.0
176
     1
 90
        0
176
     1
 62
   257
176
     1
 40
1.0
176
     1
 90
        1
176
     1
 90
        6
176
     1
 90
        2
176
     1
 62
     7
176
     1
 90
        5
176
     1
 90
        0
176
     1
 90
        0
176
     1
290
     0
176
     1
 90
       13
176
     1
 40
0.0
176
     1
 90
        0
176
     1
290
     0
176
     1
290
     1
176
     1
290
     1
176
     1
290
     0
176
     1
290
     0
176
     1
290
     0
176
     1
290
     0
176
     1
290
     0
176
     1
290
     0
176
     1
 90
       50
176
     1
 40
0.0
176
     1
 40
1.0
176
     1
 90
        0
176
     1
 62
    18
420
        0
176
     1
 90
       50
176
     1
 90
        3
176
     1
 62
     5
420
      255
176
     1
290
     0
176
     1
 90
       50
176
     1
 90
       50
176
     1
 90
       50
176
     1
290
     0
176
     1
 90
       50
176
     1
 62
   256
176
     0
 40
1.0
176
     0
 90
        2
176
     1
  1
strokes_ogs.tif
176
     1
290
     0
176
     1
 40
1.0
176
     1
 40
1.0
176
     1
1001
ACAD
1000
AcDbSavedByObjectVersion
1070
     0
  0
VISUALSTYLE
  5
31
102
{ACAD_REACTORS
330
29
102
}
330
29
100
AcDbVisualStyle
  2
Hidden
 70
     6
177
     3
291
     0
 70
    58
 90
        1
176
     1
 90
        2
176
     1
 90
        2
176
     1
 90
        0
176
     1
 40
0.6
176
     1
 40
30.0
176
     1
 62
     7
420
 16777215
176
     1
 90
        2
176
     1
 90
        2
176
     1
 62
     7
176
     1
 62
   257
176
     1
 90
        2
176
     1
 90
        1
176
     1
 40
40.0
176
     1
 90
        0
176
     1
 62
   257
176
     1
 40
1.0
176
     1
 90
        1
176
     1
 90
        6
176
     1
 90
        2
176
     1
 62
     7
176
     1
 90
        3
176
     1
 90
        0
176
     1
 90
        0
176
     1
290
     0
176
     1
 90
        1
176
     1
 40
0.0
176
     1
 90
        0
176
     1
290
     0
176
     1
290
     1
176
     1
290
     1
176
     1
290
     0
176
     1
290
     0
176
     1
290
     0
176
     1
290
     0
176
     1
290
     0
176
     1
290
     0
176
     1
 90
       50
176
     1
 40
0.0
176
     1
 40
1.0
176
     1
 90
        0
176
     1
 62
    18
420
        0
176
     1
 90
       50
176
     1
 90
        3
176
     1
 62
     5
420
      255
176
     1
290
     0
176
     1
 90
       50
176
     1
 90
       50
176
     1
 90
       50
176
     1
290
     0
176
     1
 90
       50
176
     1
 62
   256
176
     0
 40
1.0
176
     0
 90
        2
176
     1
  1
strokes_ogs.tif
176
     1
290
     0
176
     1
 40
1.0
176
     1
 40
1.0
176
     1
1001
ACAD
1000
AcDbSavedByObjectVersion
1070
     0
  0
VISUALSTYLE
  5
3F
102
{ACAD_REACTORS
330
29
102
}
330
29
100
AcDbVisualStyle
  2
JitterOff
 70
    20
177
     3
291
     1
 70
    58
 90
        2
176
     0
 90
        2
176
     0
 90
        0
176
     0
 90
        0
176
     0
 40
0.6
176
     0
 40
30.0
176
     0
 62
     7
420
 16777215
176
     0
 90
        1
176
     0
 90
        4
176
     0
 62
     7
176
     0
 62
   257
176
     0
 90
        1
176
     0
 90
        1
176
     0
 40
1.0
176
     0
 90
       10
176
     2
 62
     7
176
     0
 40
1.0
176
     0
 90
        1
176
     0
 90
        6
176
     0
 90
        2
176
     0
 62
     7
176
     0
 90
        5
176
     0
 90
        0
176
     0
 90
        0
176
     0
290
     0
176
     0
 90
        1
176
     0
 40
0.0
176
     0
 90
        0
176
     0
290
     0
176
     0
290
     1
176
     0
290
     1
176
     0
290
     0
176
     0
290
     0
176
     0
290
     0
176
     0
290
     0
176
     0
290
     0
176
     0
290
     0
176
     0
 90
       50
176
     0
 40
0.0
176
     0
 40
1.0
176
     0
 90
        0
176
     0
 62
    18
420
        0
176
     0
 90
       50
176
     0
 90
        3
176
     0
 62
     5
420
      255
176
     0
290
     0
176
     0
 90
       50
176
     0
 90
       50
176
     0
 90
       50
176
     0
290
     0
176
     0
 90
       50
176
     0
 62
   256
176
     0
 40
1.0
176
     0
 90
        2
176
     0
  1
strokes_ogs.tif
176
     0
290
     0
176
     0
 40
1.0
176
     0
 40
1.0
176
     0
1001
ACAD
1000
AcDbSavedByObjectVersion
1070
     0
  0
VISUALSTYLE
  5
37
102
{ACAD_REACTORS
330
29
102
}
330
29
100
AcDbVisualStyle
  2
Linepattern
 70
    14
177
     3
291
     1
 70
    58
 90
        2
176
     1
 90
        2
176
     1
 90
        0
176
     1
 90
        0
176
     1
 40
0.6
176
     1
 40
30.0
176
     1
 62
     7
420
 16777215
176
     1
 90
        1
176
     1
 90
        4
176
     1
 62
     7
176
     1
 62
   257
176
     1
 90
        7
176
     1
 90
        7
176
     1
 40
1.0
176
     1
 90
        8
176
     1
 62
     7
176
     1
 40
1.0
176
     1
 90
        1
176
     1
 90
        6
176
     1
 90
        2
176
     1
 62
     7
176
     1
 90
        5
176
     1
 90
        0
176
     1
 90
        0
176
     1
290
     0
176
     1
 90
        1
176
     1
 40
0.0
176
     1
 90
        0
176
     1
290
     0
176
     1
290
     1
176
     1
290
     1
176
     1
290
     0
176
     1
290
     0
176
     1
290
     0
176
     1
290
     0
176
     1
290
     0
176
     1
290
     0
176
     1
 90
       50
176
     1
 40
0.0
176
     1
 40
1.0
176
     1
 90
        0
176
     1
 62
    18
420
        0
176
     1
 90
       50
176
     1
 90
        3
176
     1
 62
     5
420
      255
176
     1
290
     0
176
     1
 90
       50
176
     1
 90
       50
176
     1
 90
       50
176
     1
290
     0
176
     1
 90
       50
176
     1
 62
   256
176
     0
 40
1.0
176
     0
 90
        2
176
     1
  1
strokes_ogs.tif
176
     1
290
     0
176
     1
 40
1.0
176
     1
 40
1.0
176
     1
1001
ACAD
1000
AcDbSavedByObjectVersion
1070
     0
  0
VISUALSTYLE
  5
40
102
{ACAD_REACTORS
330
29
102
}
330
29
100
AcDbVisualStyle
  2
OverhangOff
 70
    21
177
     3
291
     1
 70
    58
 90
        2
176
     0
 90
        2
176
     0
 90
        0
176
     0
 90
        0
176
     0
 40
0.6
176
     0
 40
30.0
176
     0
 62
     7
420
 16777215
176
     0
 90
        1
176
     0
 90
        4
176
     0
 62
     7
176
     0
 62
   257
176
     0
 90
        1
176
     0
 90
        1
176
     0
 40
1.0
176
     0
 90
        9
176
     2
 62
     7
176
     0
 40
1.0
176
     0
 90
        1
176
     0
 90
        6
176
     0
 90
        2
176
     0
 62
     7
176
     0
 90
        5
176
     0
 90
        0
176
     0
 90
        0
176
     0
290
     0
176
     0
 90
        1
176
     0
 40
0.0
176
     0
 90
        0
176
     0
290
     0
176
     0
290
     1
176
     0
290
     1
176
     0
290
     0
176
     0
290
     0
176
     0
290
     0
176
     0
290
     0
176
     0
290
     0
176
     0
290
     0
176
     0
 90
       50
176
     0
 40
0.0
176
     0
 40
1.0
176
     0
 90
        0
176
     0
 62
    18
420
        0
176
     0
 90
       50
176
     0
 90
        3
176
     0
 62
     5
420
      255
176
     0
290
     0
176
     0
 90
       50
176
     0
 90
       50
176
     0
 90
       50
176
     0
290
     0
176
     0
 90
       50
176
     0
 62
   256
176
     0
 40
1.0
176
     0
 90
        2
176
     0
  1
strokes_ogs.tif
176
     0
290
     0
176
     0
 40
1.0
176
     0
 40
1.0
176
     0
1001
ACAD
1000
AcDbSavedByObjectVersion
1070
     0
  0
VISUALSTYLE
  5
33
102
{ACAD_REACTORS
330
29
102
}
330
29
100
AcDbVisualStyle
  2
Realistic
 70
     8
177
     3
291
     0
 70
    58
 90
        2
176
     1
 90
        3
176
     1
 90
        0
176
     1
 90
        2
176
     1
 40
0.6
176
     1
 40
30.0
176
     1
 62
     7
420
 16777215
176
     1
 90
        0
176
     1
 90
        0
176
     1
 62
     7
176
     1
 62
   257
176
     1
 90
        1
176
     1
 90
        1
176
     1
 40
1.0
176
     1
 90
        8
176
     1
 62
   257
176
     1
 40
1.0
176
     1
 90
        1
176
     1
 90
        6
176
     1
 90
        2
176
     1
 62
     7
176
     1
 90
        3
176
     1
 90
        0
176
     1
 90
        0
176
     1
290
     0
176
     1
 90
       13
176
     1
 40
0.0
176
     1
 90
        0
176
     1
290
     0
176
     1
290
     1
176
     1
290
     1
176
     1
290
     0
176
     1
290
     0
176
     1
290
     0
176
     1
290
     0
176
     1
290
     0
176
     1
290
     0
176
     1
 90
       50
176
     1
 40
0.0
176
     1
 40
1.0
176
     1
 90
        0
176
     1
 62
    18
420
        0
176
     1
 90
       50
176
     1
 90
        3
176
     1
 62
     5
420
      255
176
     1
290
     0
176
     1
 90
       50
176
     1
 90
       50
176
     1
 90
       50
176
     1
290
     0
176
     1
 90
       50
176
     1
 62
   256
176
     0
 40
1.0
176
     0
 90
        2
176
     1
  1
strokes_ogs.tif
176
     1
290
     0
176
     1
 40
1.0
176
     1
 40
1.0
176
     1
1001
ACAD
1000
AcDbSavedByObjectVersion
1070
     0
  0
VISUALSTYLE
  5
3E
102
{ACAD_REACTORS
330
29
102
}
330
29
100
AcDbVisualStyle
  2
Shaded
 70
    27
177
     3
291
     0
 70
    58
 90
        2
176
     1
 90
        2
176
     1
 90
        1
176
     1
 90
        2
176
     1
 40
0.6
176
     1
 40
30.0
176
     1
 62
     7
420
 16777215
176
     1
 90
        0
176
     1
 90
        4
176
     1
 62
     7
176
     1
 62
   257
176
     1
 90
        1
176
     1
 90
        1
176
     1
 40
1.0
176
     1
 90
        8
176
     1
 62
   257
176
     1
 40
1.0
176
     1
 90
        1
176
     1
 90
        6
176
     1
 90
        2
176
     1
 62
     8
420
  7895160
176
     1
 90
        3
176
     1
 90
        0
176
     1
 90
        0
176
     1
290
     0
176
     1
 90
        5
176
     1
 40
0.0
176
     1
 90
        0
176
     1
290
     0
176
     1
290
     1
176
     1
290
     1
176
     1
290
     0
176
     1
290
     0
176
     1
290
     0
176
     1
290
     0
176
     1
290
     0
176
     1
290
     0
176
     1
 90
       50
176
     1
 40
0.0
176
     1
 40
1.0
176
     1
 90
        0
176
     1
 62
    18
420
        0
176
     1
 90
       50
176
     1
 90
        3
176
     1
 62
     5
420
      255
176
     1
290
     0
176
     1
 90
       50
176
     1
 90
       50
176
     1
 90
       50
176
     1
290
     0
176
     1
 90
       50
176
     1
 62
   256
176
     0
 40
1.0
176
     0
 90
        2
176
     1
  1
strokes_ogs.tif
176
     1
290
     0
176
     1
 40
1.0
176
     1
 40
1.0
176
     1
1001
ACAD
1000
AcDbSavedByObjectVersion
1070
     0
  0
VISUALSTYLE
  5
3D
102
{ACAD_REACTORS
330
29
102
}
330
29
100
AcDbVisualStyle
  2
Shaded with edges
 70
    26
177
     3
291
     0
 70
    58
 90
        2
176
     1
 90
        2
176
     1
 90
        1
176
     1
 90
        2
176
     1
 40
0.6
176
     1
 40
30.0
176
     1
 62
     7
420
 16777215
176
     1
 90
        1
176
     1
 90
        2
176
     1
 62
     7
176
     1
 62
   257
176
     1
 90
        2
176
     1
 90
        1
176
     1
 40
1.0
176
     1
 90
        8
176
     1
 62
   257
176
     1
 40
1.0
176
     1
 90
        1
176
     1
 90
        6
176
     1
 90
        2
176
     1
 62
     7
176
     1
 90
        3
176
     1
 90
        0
176
     1
 90
        0
176
     1
290
     0
176
     1
 90
        5
176
     1
 40
0.0
176
     1
 90
        0
176
     1
290
     0
176
     1
290
     1
176
     1
290
     1
176
     1
290
     0
176
     1
290
     0
176
     1
290
     0
176
     1
290
     0
176
     1
290
     0
176
     1
290
     0
176
     1
 90
       50
176
     1
 40
0.0
176
     1
 40
1.0
176
     1
 90
        0
176
     1
 62
    18
420
        0
176
     1
 90
       50
176
     1
 90
        3
176
     1
 62
     5
420
      255
176
     1
290
     0
176
     1
 90
       50
176
     1
 90
       50
176
     1
 90
       50
176
     1
290
     0
176
     1
 90
       50
176
     1
 62
   256
176
     0
 40
1.0
176
     0
 90
        2
176
     1
  1
strokes_ogs.tif
176
     1
290
     0
176
     1
 40
1.0
176
     1
 40
1.0
176
     1
1001
ACAD
1000
AcDbSavedByObjectVersion
1070
     0
  0
VISUALSTYLE
  5
3A
102
{ACAD_REACTORS
330
29
102
}
330
29
100
AcDbVisualStyle
  2
Shades of Gray
 70
    23
177
     3
291
     0
 70
    58
 90
        2
176
     1
 90
        2
176
     1
 90
        3
176
     1
 90
        0
176
     1
 40
0.6
176
     1
 40
30.0
176
     1
 62
     7
420
 16777215
176
     1
 90
        2
176
     1
 90
        2
176
     1
 62
     7
176
     1
 62
     7
176
     1
 90
        1
176
     1
 90
        1
176
     1
 40
40.0
176
     1
 90
        8
176
     1
 62
     7
176
     1
 40
1.0
176
     1
 90
        1
176
     1
 90
        6
176
     1
 90
        2
176
     1
 62
     7
176
     1
 90
        3
176
     1
 90
        0
176
     1
 90
        0
176
     1
290
     0
176
     1
 90
        1
176
     1
 40
0.0
176
     1
 90
        0
176
     1
290
     0
176
     1
290
     1
176
     1
290
     1
176
     1
290
     0
176
     1
290
     0
176
     1
290
     0
176
     1
290
     0
176
     1
290
     0
176
     1
290
     0
176
     1
 90
       50
176
     1
 40
0.0
176
     1
 40
1.0
176
     1
 90
        0
176
     1
 62
    18
420
        0
176
     1
 90
       50
176
     1
 90
        3
176
     1
 62
     5
420
      255
176
     1
290
     0
176
     1
 90
       50
176
     1
 90
       50
176
     1
 90
       50
176
     1
290
     0
176
     1
 90
       50
176
     1
 62
   256
176
     0
 40
1.0
176
     0
 90
        2
176
     1
  1
strokes_ogs.tif
176
     1
290
     0
176
     1
 40
1.0
176
     1
 40
1.0
176
     1
1001
ACAD
1000
AcDbSavedByObjectVersion
1070
     0
  0
VISUALSTYLE
  5
3B
102
{ACAD_REACTORS
330
29
102
}
330
29
100
AcDbVisualStyle
  2
Sketchy
 70
    24
177
     3
291
     0
 70
    58
 90
        1
176
     1
 90
        2
176
     1
 90
        2
176
     1
 90
        0
176
     1
 40
0.6
176
     1
 40
30.0
176
     1
 62
     7
420
 16777215
176
     1
 90
        2
176
     1
 90
        2
176
     1
 62
     7
176
     1
 62
     7
176
     1
 90
        1
176
     1
 90
        1
176
     1
 40
40.0
176
     1
 90
       11
176
     1
 62
     7
176
     1
 40
1.0
176
     1
 90
        1
176
     1
 90
        6
176
     1
 90
        2
176
     1
 62
     7
176
     1
 90
        6
176
     1
 90
        0
176
     1
 90
        0
176
     1
290
     0
176
     1
 90
        1
176
     1
 40
0.0
176
     1
 90
        0
176
     1
290
     0
176
     1
290
     1
176
     1
290
     1
176
     1
290
     0
176
     1
290
     0
176
     1
290
     0
176
     1
290
     0
176
     1
290
     0
176
     1
290
     0
176
     1
 90
       50
176
     1
 40
0.0
176
     1
 40
1.0
176
     1
 90
        0
176
     1
 62
    18
420
        0
176
     1
 90
       50
176
     1
 90
        3
176
     1
 62
     5
420
      255
176
     1
290
     0
176
     1
 90
       50
176
     1
 90
       50
176
     1
 90
       50
176
     1
290
     0
176
     1
 90
       50
176
     1
 62
   256
176
     0
 40
1.0
176
     0
 90
        2
176
     1
  1
strokes_ogs.tif
176
     1
290
     0
176
     1
 40
1.0
176
     1
 40
1.0
176
     1
1001
ACAD
1000
AcDbSavedByObjectVersion
1070
     0
  0
VISUALSTYLE
  5
36
102
{ACAD_REACTORS
330
29
102
}
330
29
100
AcDbVisualStyle
  2
Thicken
 70
    13
177
     3
291
     1
 70
    58
 90
        2
176
     1
 90
        2
176
     1
 90
        0
176
     1
 90
        0
176
     1
 40
0.6
176
     1
 40
30.0
176
     1
 62
     7
420
 16777215
176
     1
 90
        1
176
     1
 90
        4
176
     1
 62
     7
176
     1
 62
   257
176
     1
 90
        1
176
     1
 90
        1
176
     1
 40
1.0
176
     1
 90
       12
176
     1
 62
     7
176
     1
 40
1.0
176
     1
 90
        1
176
     1
 90
        6
176
     1
 90
        2
176
     1
 62
     7
176
     1
 90
        5
176
     1
 90
        0
176
     1
 90
        0
176
     1
290
     0
176
     1
 90
        1
176
     1
 40
0.0
176
     1
 90
        0
176
     1
290
     0
176
     1
290
     1
176
     1
290
     1
176
     1
290
     0
176
     1
290
     0
176
     1
290
     0
176
     1
290
     0
176
     1
290
     0
176
     1
290
     0
176
     1
 90
       50
176
     1
 40
0.0
176
     1
 40
1.0
176
     1
 90
        0
176
     1
 62
    18
420
        0
176
     1
 90
       50
176
     1
 90
        3
176
     1
 62
     5
420
      255
176
     1
290
     0
176
     1
 90
       50
176
     1
 90
       50
176
     1
 90
       50
176
     1
290
     0
176
     1
 90
       50
176
     1
 62
   256
176
     0
 40
1.0
176
     0
 90
        2
176
     1
  1
strokes_ogs.tif
176
     1
290
     0
176
     1
 40
1.0
176
     1
 40
1.0
176
     1
1001
ACAD
1000
AcDbSavedByObjectVersion
1070
     0
  0
VISUALSTYLE
  5
30
102
{ACAD_REACTORS
330
29
102
}
330
29
100
AcDbVisualStyle
  2
Wireframe
 70
     5
177
     3
291
     0
 70
    58
 90
        0
176
     1
 90
        2
176
     1
 90
        0
176
     1
 90
        0
176
     1
 40
0.6
176
     1
 40
30.0
176
     1
 62
     7
420
 16777215
176
     1
 90
        1
176
     1
 90
        4
176
     1
 62
     7
176
     1
 62
   257
176
     1
 90
        1
176
     1
 90
        1
176
     1
 40
1.0
176
     1
 90
        0
176
     1
 62
   257
176
     1
 40
1.0
176
     1
 90
        1
176
     1
 90
        6
176
     1
 90
        2
176
     1
 62
     7
176
     1
 90
        3
176
     1
 90
        0
176
     1
 90
        0
176
     1
290
     0
176
     1
 90
        1
176
     1
 40
0.0
176
     1
 90
        0
176
     1
290
     0
176
     1
290
     1
176
     1
290
     1
176
     1
290
     0
176
     1
290
     0
176
     1
290
     0
176
     1
290
     0
176
     1
290
     0
176
     1
290
     0
176
     1
 90
       50
176
     1
 40
0.0
176
     1
 40
1.0
176
     1
 90
        0
176
     1
 62
    18
420
        0
176
     1
 90
       50
176
     1
 90
        3
176
     1
 62
     5
420
      255
176
     1
290
     0
176
     1
 90
       50
176
     1
 90
       50
176
     1
 90
       50
176
     1
290
     0
176
     1
 90
       50
176
     1
 62
   256
176
     0
 40
1.0
176
     0
 90
        2
176
     1
  1
strokes_ogs.tif
176
     1
290
     0
176
     1
 40
1.0
176
     1
 40
1.0
176
     1
1001
ACAD
1000
AcDbSavedByObjectVersion
1070
     0
  0
VISUALSTYLE
  5
3C
102
{ACAD_REACTORS
330
29
102
}
330
29
100
AcDbVisualStyle
  2
X-Ray
 70
    25
177
     3
291
     0
 70
    58
 90
        2
176
     1
 90
        2
176
     1
 90
        1
176
     1
 90
        1
176
     1
 40
0.5
176
     1
 40
30.0
176
     1
 62
     7
420
 16777215
176
     1
 90
        1
176
     1
 90
        0
176
     1
 62
     7
176
     1
 62
   257
176
     1
 90
        1
176
     1
 90
        1
176
     1
 40
1.0
176
     1
 90
        8
176
     1
 62
     7
176
     1
 40
1.0
176
     1
 90
        1
176
     1
 90
        6
176
     1
 90
        2
176
     1
 62
     7
176
     1
 90
        3
176
     1
 90
        0
176
     1
 90
        0
176
     1
290
     0
176
     1
 90
       13
176
     1
 40
0.0
176
     1
 90
        0
176
     1
290
     0
176
     1
290
     1
176
     1
290
     1
176
     1
290
     0
176
     1
290
     0
176
     1
290
     0
176
     1
290
     0
176
     1
290
     0
176
     1
290
     0
176
     1
 90
       50
176
     1
 40
0.0
176
     1
 40
1.0
176
     1
 90
        0
176
     1
 62
    18
420
        0
176
     1
 90
       50
176
     1
 90
        3
176
     1
 62
     5
420
      255
176
     1
290
     0
176
     1
 90
       50
176
     1
 90
       50
176
     1
 90
       50
176
     1
290
     0
176
     1
 90
       50
176
     1
 62
   256
176
     0
 40
1.0
176
     0
 90
        2
176
     1
  1
strokes_ogs.tif
176
     1
290
     0
176
     1
 40
1.0
176
     1
 40
1.0
176
     1
1001
ACAD
1000
AcDbSavedByObjectVersion
1070
     0
  0
DICTIONARYVAR
  5
135
102
{ACAD_REACTORS
330
130
102
}
330
130
100
DictionaryVariables
280
     0
  1
1:1
  0
DICTIONARYVAR
  5
132
102
{ACAD_REACTORS
330
130
102
}
330
130
100
DictionaryVariables
280
     0
  1
STANDARD
  0
DICTIONARYVAR
  5
131
102
{ACAD_REACTORS
330
130
102
}
330
130
100
DictionaryVariables
280
     0
  1
STANDARD
  0
DICTIONARYVAR
  5
133
102
{ACAD_REACTORS
330
130
102
}
330
130
100
DictionaryVariables
280
     0
  1
Imperial24
  0
DICTIONARYVAR
  5
134
102
{ACAD_REACTORS
330
130
102
}
330
130
100
DictionaryVariables
280
     0
  1
Imperial24
  0
DICTIONARY
  5
1EB
330
6B
100
AcDbDictionary
280
     1
281
     1
  3
ACAD_XREC_ROUNDTRIP
360
1EC
  0
DICTIONARY
  5
1A
330
19
100
AcDbDictionary
280
     1
281
     1
  3
BUMPTILE
360
1C
  3
DIFFUSETILE
360
1B
  3
OPACITYTILE
360
1F
  3
REFLECTIONTILE
360
1E
  3
REFRACTIONTILE
360
20
  3
SPECULARTILE
360
1D
  0
DICTIONARY
  5
12
330
11
100
AcDbDictionary
280
     1
281
     1
  3
BUMPTILE
360
14
  3
DIFFUSETILE
360
13
  3
OPACITYTILE
360
17
  3
REFLECTIONTILE
360
16
  3
REFRACTIONTILE
360
18
  3
SPECULARTILE
360
15
  0
DICTIONARY
  5
22
330
21
100
AcDbDictionary
280
     1
281
     1
  3
BUMPTILE
360
24
  3
DIFFUSETILE
360
23
  3
OPACITYTILE
360
27
  3
REFLECTIONTILE
360
26
  3
REFRACTIONTILE
360
28
  3
SPECULARTILE
360
25
  0
DICTIONARY
  5
1E9
330
69
100
AcDbDictionary
280
     1
281
     1
  3
ACAD_XREC_ROUNDTRIP
360
1EA
  0
DICTIONARY
  5
1E6
330
65
100
AcDbDictionary
280
     1
281
     1
  3
ACAD_ROUNDTRIP_2008_TABLESTYLE_CELLSTYLEMAP
360
1E7
  0
XRECORD
  5
1EC
102
{ACAD_REACTORS
330
1EB
102
}
330
1EB
100
AcDbXrecord
280
     1
102
DISPLAYNAME
  1
Imperial24
102
FLAGS
 90
        0
  0
XRECORD
  5
1C
102
{ACAD_REACTORS
330
1A
102
}
330
1A
100
AcDbXrecord
280
     1
270
     1
271
     1
  0
XRECORD
  5
1B
102
{ACAD_REACTORS
330
1A
102
}
330
1A
100
AcDbXrecord
280
     1
270
     1
271
     1
  0
XRECORD
  5
1F
102
{ACAD_REACTORS
330
1A
102
}
330
1A
100
AcDbXrecord
280
     1
270
     1
271
     1
  0
XRECORD
  5
1E
102
{ACAD_REACTORS
330
1A
102
}
330
1A
100
AcDbXrecord
280
     1
270
     1
271
     1
  0
XRECORD
  5
20
102
{ACAD_REACTORS
330
1A
102
}
330
1A
100
AcDbXrecord
280
     1
270
     1
271
     1
  0
XRECORD
  5
1D
102
{ACAD_REACTORS
330
1A
102
}
330
1A
100
AcDbXrecord
280
     1
270
     1
271
     1
  0
XRECORD
  5
14
102
{ACAD_REACTORS
330
12
102
}
330
12
100
AcDbXrecord
280
     1
270
     1
271
     1
  0
XRECORD
  5
13
102
{ACAD_REACTORS
330
12
102
}
330
12
100
AcDbXrecord
280
     1
270
     1
271
     1
  0
XRECORD
  5
17
102
{ACAD_REACTORS
330
12
102
}
330
12
100
AcDbXrecord
280
     1
270
     1
271
     1
  0
XRECORD
  5
16
102
{ACAD_REACTORS
330
12
102
}
330
12
100
AcDbXrecord
280
     1
270
     1
271
     1
  0
XRECORD
  5
18
102
{ACAD_REACTORS
330
12
102
}
330
12
100
AcDbXrecord
280
     1
270
     1
271
     1
  0
XRECORD
  5
15
102
{ACAD_REACTORS
330
12
102
}
330
12
100
AcDbXrecord
280
     1
270
     1
271
     1
  0
XRECORD
  5
24
102
{ACAD_REACTORS
330
22
102
}
330
22
100
AcDbXrecord
280
     1
270
     1
271
     1
  0
XRECORD
  5
23
102
{ACAD_REACTORS
330
22
102
}
330
22
100
AcDbXrecord
280
     1
270
     1
271
     1
  0
XRECORD
  5
27
102
{ACAD_REACTORS
330
22
102
}
330
22
100
AcDbXrecord
280
     1
270
     1
271
     1
  0
XRECORD
  5
26
102
{ACAD_REACTORS
330
22
102
}
330
22
100
AcDbXrecord
280
     1
270
     1
271
     1
  0
XRECORD
  5
28
102
{ACAD_REACTORS
330
22
102
}
330
22
100
AcDbXrecord
280
     1
270
     1
271
     1
  0
XRECORD
  5
25
102
{ACAD_REACTORS
330
22
102
}
330
22
100
AcDbXrecord
280
     1
270
     1
271
     1
  0
XRECORD
  5
1EA
102
{ACAD_REACTORS
330
1E9
102
}
330
1E9
100
AcDbXrecord
280
     1
102
DISPLAYNAME
  1
Imperial24
102
FLAGS
 90
        0
  0
CELLSTYLEMAP
  5
1E7
102
{ACAD_REACTORS
330
1E6
102
}
330
1E6
100
AcDbCellStyleMap
 90
        3
300
CELLSTYLE
  1
TABLEFORMAT_BEGIN
 90
        5
170
     1
 91
        0
 92
    32768
 62
   257
 93
        1
300
CONTENTFORMAT
  1
CONTENTFORMAT_BEGIN
 90
        0
 91
        0
 92
      512
 93
        0
300

 40
0.0
140
1.0
 94
        5
 62
     0
340
55
144
0.25
309
CONTENTFORMAT_END
171
     0
 94
        0
309
TABLEFORMAT_END
  1
CELLSTYLE_BEGIN
 90
        1
 91
        1
300
_TITLE
309
CELLSTYLE_END
300
CELLSTYLE
  1
TABLEFORMAT_BEGIN
 90
        5
170
     1
 91
        0
 92
        0
 62
   257
 93
        1
300
CONTENTFORMAT
  1
CONTENTFORMAT_BEGIN
 90
        0
 91
        0
 92
      512
 93
        0
300

 40
0.0
140
1.0
 94
        5
 62
     0
340
55
144
0.18
309
CONTENTFORMAT_END
171
     0
 94
        0
309
TABLEFORMAT_END
  1
CELLSTYLE_BEGIN
 90
        2
 91
        1
300
_HEADER
309
CELLSTYLE_END
300
CELLSTYLE
  1
TABLEFORMAT_BEGIN
 90
        5
170
     1
 91
        0
 92
        0
 62
   257
 93
        1
300
CONTENTFORMAT
  1
CONTENTFORMAT_BEGIN
 90
        0
 91
        0
 92
      512
 93
        0
300

 40
0.0
140
1.0
 94
        2
 62
     0
340
55
144
0.18
309
CONTENTFORMAT_END
171
     0
 94
        0
309
TABLEFORMAT_END
  1
CELLSTYLE_BEGIN
 90
        3
 91
        2
300
_DATA
309
CELLSTYLE_END
  0
ENDSEC
  0
EOF
