  0
SECTION
  2
HEADER
  9
$ACADVER
  1
AC1032
  9
$ACADMAINTVER
 90
      199
  9
$DWGCODEPAGE
  3
ANSI_1252
  9
$LASTSAVEDBY
  1
ufficio.tecnico
  9
$REQUIREDVERSIONS
160
                 0
  9
$INSBASE
 10
0.0
 20
0.0
 30
0.0
  9
$EXTMIN
 10
-4.176007907461006
 20
-146.6921534904734
 30
0.0
  9
$EXTMAX
 10
87.26677324330156
 20
-18.63329756013274
 30
0.0
  9
$LIMMIN
 10
0.0
 20
0.0
  9
$LIMMAX
 10
12.0
 20
9.0
  9
$ORTHOMODE
 70
     0
  9
$REGENMODE
 70
     1
  9
$FILLMODE
 70
     1
  9
$QTEXTMODE
 70
     0
  9
$MIRRTEXT
 70
     0
  9
$LTSCALE
 40
1.0
  9
$ATTMODE
 70
     1
  9
$TEXTSIZE
 40
0.2
  9
$TRACEWID
 40
0.05
  9
$TEXTSTYLE
  7
Standard
  9
$CLAYER
  8
0
  9
$CELTYPE
  6
ByLayer
  9
$CECOLOR
 62
   256
  9
$CELTSCALE
 40
1.0
  9
$DISPSILH
 70
     0
  9
$DIMSCALE
 40
1.0
  9
$DIMASZ
 40
0.18
  9
$DIMEXO
 40
0.0625
  9
$DIMDLI
 40
0.38
  9
$DIMRND
 40
0.0
  9
$DIMDLE
 40
0.0
  9
$DIMEXE
 40
0.18
  9
$DIMTP
 40
0.0
  9
$DIMTM
 40
0.0
  9
$DIMTXT
 40
0.18
  9
$DIMCEN
 40
0.09
  9
$DIMTSZ
 40
0.0
  9
$DIMTOL
 70
     0
  9
$DIMLIM
 70
     0
  9
$DIMTIH
 70
     1
  9
$DIMTOH
 70
     1
  9
$DIMSE1
 70
     0
  9
$DIMSE2
 70
     0
  9
$DIMTAD
 70
     0
  9
$DIMZIN
 70
     0
  9
$DIMBLK
  1

  9
$DIMASO
 70
     1
  9
$DIMSHO
 70
     1
  9
$DIMPOST
  1

  9
$DIMAPOST
  1

  9
$DIMALT
 70
     0
  9
$DIMALTD
 70
     2
  9
$DIMALTF
 40
25.4
  9
$DIMLFAC
 40
1.0
  9
$DIMTOFL
 70
     0
  9
$DIMTVP
 40
0.0
  9
$DIMTIX
 70
     0
  9
$DIMSOXD
 70
     0
  9
$DIMSAH
 70
     0
  9
$DIMBLK1
  1

  9
$DIMBLK2
  1

  9
$DIMSTYLE
  2
Standard
  9
$DIMCLRD
 70
     0
  9
$DIMCLRE
 70
     0
  9
$DIMCLRT
 70
     0
  9
$DIMTFAC
 40
1.0
  9
$DIMGAP
 40
0.09
  9
$DIMJUST
 70
     0
  9
$DIMSD1
 70
     0
  9
$DIMSD2
 70
     0
  9
$DIMTOLJ
 70
     1
  9
$DIMTZIN
 70
     0
  9
$DIMALTZ
 70
     0
  9
$DIMALTTZ
 70
     0
  9
$DIMUPT
 70
     0
  9
$DIMDEC
 70
     4
  9
$DIMTDEC
 70
     4
  9
$DIMALTU
 70
     2
  9
$DIMALTTD
 70
     2
  9
$DIMTXSTY
  7
Standard
  9
$DIMAUNIT
 70
     0
  9
$DIMADEC
 70
     0
  9
$DIMALTRND
 40
0.0
  9
$DIMAZIN
 70
     0
  9
$DIMDSEP
 70
    46
  9
$DIMATFIT
 70
     3
  9
$DIMFRAC
 70
     0
  9
$DIMLDRBLK
  1

  9
$DIMLUNIT
 70
     2
  9
$DIMLWD
 70
    -2
  9
$DIMLWE
 70
    -2
  9
$DIMTMOVE
 70
     0
  9
$DIMFXL
 40
1.0
  9
$DIMFXLON
 70
     0
  9
$DIMJOGANG
 40
0.7853981633974483
  9
$DIMTFILL
 70
     0
  9
$DIMTFILLCLR
 70
     0
  9
$DIMARCSYM
 70
     0
  9
$DIMLTYPE
  6

  9
$DIMLTEX1
  6

  9
$DIMLTEX2
  6

  9
$DIMTXTDIRECTION
 70
     0
  9
$LUNITS
 70
     2
  9
$LUPREC
 70
     4
  9
$SKETCHINC
 40
0.1
  9
$FILLETRAD
 40
0.0
  9
$AUNITS
 70
     0
  9
$AUPREC
 70
     0
  9
$MENU
  1
.
  9
$ELEVATION
 40
0.0
  9
$PELEVATION
 40
0.0
  9
$THICKNESS
 40
0.0
  9
$LIMCHECK
 70
     0
  9
$CHAMFERA
 40
0.0
  9
$CHAMFERB
 40
0.0
  9
$CHAMFERC
 40
0.0
  9
$CHAMFERD
 40
0.0
  9
$SKPOLY
 70
     0
  9
$TDCREATE
 40
2459858.650810185
  9
$TDUCREATE
 40
2459858.567476852
  9
$TDUPDATE
 40
2459864.411180555
  9
$TDUUPDATE
 40
2459864.327847222
  9
$TDINDWG
 40
0.0027430556
  9
$TDUSRTIMER
 40
0.0027430556
  9
$USRTIMER
 70
     1
  9
$ANGBASE
 50
0.0
  9
$ANGDIR
 70
     0
  9
$PDMODE
 70
     0
  9
$PDSIZE
 40
0.0
  9
$PLINEWID
 40
0.0
  9
$SPLFRAME
 70
     0
  9
$SPLINETYPE
 70
     6
  9
$SPLINESEGS
 70
     8
  9
$HANDSEED
  5
20C
  9
$SURFTAB1
 70
     6
  9
$SURFTAB2
 70
     6
  9
$SURFTYPE
 70
     6
  9
$SURFU
 70
     6
  9
$SURFV
 70
     6
  9
$UCSBASE
  2

  9
$UCSNAME
  2

  9
$UCSORG
 10
0.0
 20
0.0
 30
0.0
  9
$UCSXDIR
 10
1.0
 20
0.0
 30
0.0
  9
$UCSYDIR
 10
0.0
 20
1.0
 30
0.0
  9
$UCSORTHOREF
  2

  9
$UCSORTHOVIEW
 70
     0
  9
$UCSORGTOP
 10
0.0
 20
0.0
 30
0.0
  9
$UCSORGBOTTOM
 10
0.0
 20
0.0
 30
0.0
  9
$UCSORGLEFT
 10
0.0
 20
0.0
 30
0.0
  9
$UCSORGRIGHT
 10
0.0
 20
0.0
 30
0.0
  9
$UCSORGFRONT
 10
0.0
 20
0.0
 30
0.0
  9
$UCSORGBACK
 10
0.0
 20
0.0
 30
0.0
  9
$PUCSBASE
  2

  9
$PUCSNAME
  2

  9
$PUCSORG
 10
0.0
 20
0.0
 30
0.0
  9
$PUCSXDIR
 10
1.0
 20
0.0
 30
0.0
  9
$PUCSYDIR
 10
0.0
 20
1.0
 30
0.0
  9
$PUCSORTHOREF
  2

  9
$PUCSORTHOVIEW
 70
     0
  9
$PUCSORGTOP
 10
0.0
 20
0.0
 30
0.0
  9
$PUCSORGBOTTOM
 10
0.0
 20
0.0
 30
0.0
  9
$PUCSORGLEFT
 10
0.0
 20
0.0
 30
0.0
  9
$PUCSORGRIGHT
 10
0.0
 20
0.0
 30
0.0
  9
$PUCSORGFRONT
 10
0.0
 20
0.0
 30
0.0
  9
$PUCSORGBACK
 10
0.0
 20
0.0
 30
0.0
  9
$USERI1
 70
     0
  9
$USERI2
 70
     0
  9
$USERI3
 70
     0
  9
$USERI4
 70
     0
  9
$USERI5
 70
     0
  9
$USERR1
 40
0.0
  9
$USERR2
 40
0.0
  9
$USERR3
 40
0.0
  9
$USERR4
 40
0.0
  9
$USERR5
 40
0.0
  9
$WORLDVIEW
 70
     1
  9
$SHADEDGE
 70
     3
  9
$SHADEDIF
 70
    70
  9
$TILEMODE
 70
     1
  9
$MAXACTVP
 70
    64
  9
$PINSBASE
 10
0.0
 20
0.0
 30
0.0
  9
$PLIMCHECK
 70
     0
  9
$PEXTMIN
 10
1.000000000000000E+20
 20
1.000000000000000E+20
 30
1.000000000000000E+20
  9
$PEXTMAX
 10
-1.000000000000000E+20
 20
-1.000000000000000E+20
 30
-1.000000000000000E+20
  9
$PLIMMIN
 10
0.0
 20
0.0
  9
$PLIMMAX
 10
12.0
 20
9.0
  9
$UNITMODE
 70
     0
  9
$VISRETAIN
 70
     1
  9
$PLINEGEN
 70
     0
  9
$PSLTSCALE
 70
     1
  9
$TREEDEPTH
 70
  3020
  9
$CMLSTYLE
  2
Standard
  9
$CMLJUST
 70
     0
  9
$CMLSCALE
 40
1.0
  9
$PROXYGRAPHICS
 70
     1
  9
$MEASUREMENT
 70
     0
  9
$CELWEIGHT
370
    -1
  9
$ENDCAPS
280
     0
  9
$JOINSTYLE
280
     0
  9
$LWDISPLAY
290
     1
  9
$INSUNITS
 70
     4
  9
$HYPERLINKBASE
  1

  9
$STYLESHEET
  1

  9
$XEDIT
290
     1
  9
$CEPSNTYPE
380
     0
  9
$PSTYLEMODE
290
     1
  9
$FINGERPRINTGUID
  2
{7A78F91E-E8E1-D74A-B546-8834444B0F3A}
  9
$VERSIONGUID
  2
{7CC6F9C2-8877-3D4D-9164-A37A18FA580C}
  9
$EXTNAMES
290
     1
  9
$PSVPSCALE
 40
0.0
  9
$OLESTARTUP
290
     0
  9
$SORTENTS
280
   127
  9
$INDEXCTL
280
     0
  9
$HIDETEXT
280
     1
  9
$XCLIPFRAME
280
     2
  9
$HALOGAP
280
     0
  9
$OBSCOLOR
 70
   257
  9
$OBSLTYPE
280
     0
  9
$INTERSECTIONDISPLAY
280
     0
  9
$INTERSECTIONCOLOR
 70
   257
  9
$DIMASSOC
280
     2
  9
$PROJECTNAME
  1

  9
$CAMERADISPLAY
290
     0
  9
$LENSLENGTH
 40
50.0
  9
$CAMERAHEIGHT
 40
0.0
  9
$STEPSPERSEC
 40
2.0
  9
$STEPSIZE
 40
6.0
  9
$3DDWFPREC
 40
2.0
  9
$PSOLWIDTH
 40
0.25
  9
$PSOLHEIGHT
 40
4.0
  9
$LOFTANG1
 40
1.570796326794896
  9
$LOFTANG2
 40
1.570796326794896
  9
$LOFTMAG1
 40
0.0
  9
$LOFTMAG2
 40
0.0
  9
$LOFTPARAM
 70
     7
  9
$LOFTNORMALS
280
     1
  9
$LATITUDE
 40
37.795
  9
$LONGITUDE
 40
-122.394
  9
$NORTHDIRECTION
 40
0.0
  9
$TIMEZONE
 70
 -8000
  9
$LIGHTGLYPHDISPLAY
280
     1
  9
$TILEMODELIGHTSYNCH
280
     1
  9
$CMATERIAL
347
11
  9
$SOLIDHIST
280
     0
  9
$SHOWHIST
280
     1
  9
$DWFFRAME
280
     2
  9
$DGNFRAME
280
     0
  9
$REALWORLDSCALE
290
     1
  9
$INTERFERECOLOR
 62
     1
  9
$INTERFEREOBJVS
345
33
  9
$INTERFEREVPVS
346
30
  9
$CSHADOW
280
     0
  9
$SHADOWPLANELOCATION
 40
0.0
  0
ENDSEC
  0
SECTION
  2
CLASSES
  0
CLASS
  1
ACDBDICTIONARYWDFLT
  2
AcDbDictionaryWithDefault
  3
ObjectDBX Classes
 90
        0
 91
        1
280
     0
281
     0
  0
CLASS
  1
MATERIAL
  2
AcDbMaterial
  3
ObjectDBX Classes
 90
     1153
 91
        3
280
     0
281
     0
  0
CLASS
  1
VISUALSTYLE
  2
AcDbVisualStyle
  3
ObjectDBX Classes
 90
     4095
 91
       24
280
     0
281
     0
  0
CLASS
  1
SCALE
  2
AcDbScale
  3
ObjectDBX Classes
 90
     1153
 91
       17
280
     0
281
     0
  0
CLASS
  1
TABLESTYLE
  2
AcDbTableStyle
  3
ObjectDBX Classes
 90
     4095
 91
        1
280
     0
281
     0
  0
CLASS
  1
MLEADERSTYLE
  2
AcDbMLeaderStyle
  3
ACDB_MLEADERSTYLE_CLASS
 90
     4095
 91
        1
280
     0
281
     0
  0
CLASS
  1
ACDBSECTIONVIEWSTYLE
  2
AcDbSectionViewStyle
  3
ObjectDBX Classes
 90
     1025
 91
        1
280
     0
281
     0
  0
CLASS
  1
ACDBDETAILVIEWSTYLE
  2
AcDbDetailViewStyle
  3
ObjectDBX Classes
 90
     1025
 91
        1
280
     0
281
     0
  0
CLASS
  1
DICTIONARYVAR
  2
AcDbDictionaryVar
  3
ObjectDBX Classes
 90
        0
 91
        5
280
     0
281
     0
  0
CLASS
  1
SORTENTSTABLE
  2
AcDbSortentsTable
  3
ObjectDBX Classes
 90
        0
 91
        2
280
     0
281
     0
  0
CLASS
  1
CELLSTYLEMAP
  2
AcDbCellStyleMap
  3
ObjectDBX Classes
 90
     1152
 91
        5
280
     0
281
     0
  0
ENDSEC
  0
SECTION
  2
TABLES
  0
TABLE
  2
VPORT
  5
8
330
0
100
AcDbSymbolTable
 70
     1
  0
VPORT
  5
57
330
8
100
AcDbSymbolTableRecord
100
AcDbViewportTableRecord
  2
*Active
 70
     0
 10
0.0
 20
0.0
 11
1.0
 21
1.0
 12
90.17724656605366
 22
-18.02543034531371
 13
0.0
 23
0.0
 14
1.0
 24
1.0
 15
0.0
 25
0.0
 16
0.0
 26
0.0
 36
1.0
 17
49.99999998749409
 27
-49.99999998749409
 37
0.0
 40
262.730959840923
 41
1.855329949238578
 42
50.0
 43
0.0
 44
0.0
 50
0.0
 51
0.0
 71
     0
 72
   100
 73
     1
 74
     1
 75
     0
 76
     0
 77
     0
 78
     0
281
     0
 65
     1
110
0.0
120
0.0
130
0.0
111
1.0
121
0.0
131
0.0
112
0.0
122
1.0
132
0.0
 79
     0
146
0.0
348
2F
 60
     3
 61
     5
292
     1
282
     1
141
0.0
142
0.0
 63
   250
421
  3355443
1001
ACAD_NAV_VCDISPLAY
1070
     3
  0
ENDTAB
  0
TABLE
  2
LTYPE
  5
5
330
0
100
AcDbSymbolTable
 70
     3
  0
LTYPE
  5
5B
330
5
100
AcDbSymbolTableRecord
100
AcDbLinetypeTableRecord
  2
ByBlock
 70
     0
  3

 72
    65
 73
     0
 40
0.0
  0
LTYPE
  5
5C
330
5
100
AcDbSymbolTableRecord
100
AcDbLinetypeTableRecord
  2
ByLayer
 70
     0
  3

 72
    65
 73
     0
 40
0.0
  0
LTYPE
  5
5D
330
5
100
AcDbSymbolTableRecord
100
AcDbLinetypeTableRecord
  2
Continuous
 70
     0
  3
Solid line
 72
    65
 73
     0
 40
0.0
  0
ENDTAB
  0
TABLE
  2
LAYER
  5
2
330
0
100
AcDbSymbolTable
 70
     2
  0
LAYER
  5
54
330
2
100
AcDbSymbolTableRecord
100
AcDbLayerTableRecord
  2
0
 70
     0
 62
     7
  6
Continuous
370
    -3
390
F
347
21
348
0
  0
LAYER
  5
78
330
2
100
AcDbSymbolTableRecord
100
AcDbLayerTableRecord
  2
Livello 1
 70
     0
 62
     7
  6
Continuous
370
     0
390
F
347
21
348
0
  0
ENDTAB
  0
TABLE
  2
STYLE
  5
3
330
0
100
AcDbSymbolTable
 70
     2
  0
STYLE
  5
55
330
3
100
AcDbSymbolTableRecord
100
AcDbTextStyleTableRecord
  2
Standard
 70
     0
 40
0.0
 41
1.0
 50
0.0
 71
     0
 42
0.2
  3
txt
  4

  0
STYLE
  5
5A
330
3
100
AcDbSymbolTableRecord
100
AcDbTextStyleTableRecord
  2
Annotative
 70
     0
 40
0.0
 41
1.0
 50
0.0
 71
     0
 42
0.2
  3
txt
  4

1001
AcadAnnotative
1000
AnnotativeData
1002
{
1070
     1
1070
     1
1002
}
  0
ENDTAB
  0
TABLE
  2
VIEW
  5
6
330
0
100
AcDbSymbolTable
 70
     0
  0
ENDTAB
  0
TABLE
  2
UCS
  5
7
330
0
100
AcDbSymbolTable
 70
     0
  0
ENDTAB
  0
TABLE
  2
APPID
  5
9
330
0
100
AcDbSymbolTable
 70
     4
  0
APPID
  5
56
330
9
100
AcDbSymbolTableRecord
100
AcDbRegAppTableRecord
  2
ACAD
 70
     0
  0
APPID
  5
5E
330
9
100
AcDbSymbolTableRecord
100
AcDbRegAppTableRecord
  2
AcadAnnotative
 70
     0
  0
APPID
  5
1E9
330
9
100
AcDbSymbolTableRecord
100
AcDbRegAppTableRecord
  2
ACAD_EXEMPT_FROM_CAD_STANDARDS
 70
     0
  0
APPID
  5
1F4
330
9
100
AcDbSymbolTableRecord
100
AcDbRegAppTableRecord
  2
ACAD_NAV_VCDISPLAY
 70
     0
  0
ENDTAB
  0
TABLE
  2
DIMSTYLE
  5
A
330
0
100
AcDbSymbolTable
 70
     3
100
AcDbDimStyleTable
 71
     1
340
58
  0
DIMSTYLE
105
58
330
A
100
AcDbSymbolTableRecord
100
AcDbDimStyleTableRecord
  2
Standard
 70
     0
340
55
  0
DIMSTYLE
105
59
330
A
100
AcDbSymbolTableRecord
100
AcDbDimStyleTableRecord
  2
Annotative
 70
     0
340
55
1001
AcadAnnotative
1000
AnnotativeData
1002
{
1070
     1
1070
     1
1002
}
  0
ENDTAB
  0
TABLE
  2
BLOCK_RECORD
  5
1
330
0
100
AcDbSymbolTable
 70
     3
  0
BLOCK_RECORD
  5
70
102
{ACAD_XDICTIONARY
360
1CA
102
}
330
1
100
AcDbSymbolTableRecord
100
AcDbBlockTableRecord
  2
*Model_Space
340
73
 70
     0
280
     1
281
     0
  0
BLOCK_RECORD
  5
6C
330
1
100
AcDbSymbolTableRecord
100
AcDbBlockTableRecord
  2
*Paper_Space
340
6F
 70
     0
280
     1
281
     0
  0
BLOCK_RECORD
  5
74
330
1
100
AcDbSymbolTableRecord
100
AcDbBlockTableRecord
  2
*Paper_Space0
340
77
 70
     0
280
     1
281
     0
  0
ENDTAB
  0
ENDSEC
  0
SECTION
  2
BLOCKS
  0
BLOCK
  5
71
330
70
100
AcDbEntity
  8
0
100
AcDbBlockBegin
  2
*Model_Space
 70
     0
 10
0.0
 20
0.0
 30
0.0
  3
*Model_Space
  1

  0
ENDBLK
  5
72
330
70
100
AcDbEntity
  8
0
100
AcDbBlockEnd
  0
BLOCK
  5
6D
330
6C
100
AcDbEntity
 67
     1
  8
0
100
AcDbBlockBegin
  2
*Paper_Space
 70
     0
 10
0.0
 20
0.0
 30
0.0
  3
*Paper_Space
  1

  0
ENDBLK
  5
6E
330
6C
100
AcDbEntity
 67
     1
  8
0
100
AcDbBlockEnd
  0
BLOCK
  5
75
330
74
100
AcDbEntity
 67
     1
  8
0
100
AcDbBlockBegin
  2
*Paper_Space0
 70
     0
 10
0.0
 20
0.0
 30
0.0
  3
*Paper_Space0
  1

  0
ENDBLK
  5
76
330
74
100
AcDbEntity
 67
     1
  8
0
100
AcDbBlockEnd
  0
ENDSEC
  0
SECTION
  2
ENTITIES
  0
LINE
  5
79
330
70
100
AcDbEntity
  8
Livello 1
370
     9
100
AcDbLine
 10
4.3721678083093
 20
-58.01506647601132
 30
0.0
 11
4.569436155691133
 21
-58.55660818289621
 31
0.0
  0
LINE
  5
7A
330
70
100
AcDbEntity
  8
Livello 1
370
     9
100
AcDbLine
 10
10.41187874026125
 20
-63.72605818654022
 30
0.0
 11
10.45398535666165
 21
-58.90091605601909
 31
0.0
  0
LINE
  5
7B
330
70
100
AcDbEntity
  8
Livello 1
370
     9
100
AcDbLine
 10
11.3452305659293
 20
-64.69446434558861
 30
0.0
 11
10.43049308598163
 21
-63.77157014678073
 31
0.0
  0
LINE
  5
7C
330
70
100
AcDbEntity
  8
Livello 1
370
     9
100
AcDbLine
 10
8.885720977468054
 20
-56.37217214583697
 30
0.0
 11
9.082977820310047
 21
-56.91394394352188
 31
0.0
  0
LINE
  5
7D
330
70
100
AcDbEntity
  8
Livello 1
370
     9
100
AcDbLine
 10
11.35996788166936
 20
-58.90091605601909
 30
0.0
 11
11.32233653132903
 21
-63.40590984741775
 31
0.0
  0
LINE
  5
7E
330
70
100
AcDbEntity
  8
Livello 1
370
     9
100
AcDbLine
 10
12.71409825784128
 20
-63.40590984741775
 30
0.0
 11
12.75168359002161
 21
-58.90091605601909
 31
0.0
  0
LINE
  5
7F
330
70
100
AcDbEntity
  8
Livello 1
370
     9
100
AcDbLine
 10
17.15988968639934
 20
-52.88128054636723
 30
0.0
 11
17.15988968639934
 21
-58.85324124225832
 31
0.0
  0
LINE
  5
80
330
70
100
AcDbEntity
  8
Livello 1
370
     9
100
AcDbLine
 10
17.96050212954634
 20
-57.52451289040698
 30
0.0
 11
17.96050212954634
 21
-52.88128054636723
 31
0.0
  0
LINE
  5
81
330
70
100
AcDbEntity
  8
Livello 1
370
     9
100
AcDbLine
 10
17.97928904336658
 20
-54.47024159302067
 30
0.0
 11
18.07888384614722
 21
-54.8412860171043
 31
0.0
  0
LINE
  5
82
330
70
100
AcDbEntity
  8
Livello 1
370
     9
100
AcDbLine
 10
18.07741126502736
 20
-52.21102604596115
 30
0.0
 11
17.93636560462591
 21
-52.5685871491644
 31
0.0
  0
LINE
  5
83
330
70
100
AcDbEntity
  8
Livello 1
370
     9
100
AcDbLine
 10
18.53839818283123
 20
-54.98619720294559
 30
0.0
 11
21.47426475453634
 21
-58.48500392593567
 31
0.0
  0
LINE
  5
84
330
70
100
AcDbEntity
  8
Livello 1
370
     9
100
AcDbLine
 10
18.83267281149387
 20
-54.73935579270323
 30
0.0
 11
21.97588570762078
 21
-58.48500392593567
 31
0.0
  0
LINE
  5
85
330
70
100
AcDbEntity
  8
Livello 1
370
     9
100
AcDbLine
 10
21.72903279283857
 20
-58.19090186537258
 30
0.0
 11
21.45715750355631
 21
-56.12597498983532
 31
0.0
  0
LINE
  5
86
330
70
100
AcDbEntity
  8
Livello 1
370
     9
100
AcDbLine
 10
22.15539104524233
 20
-58.48500392593567
 30
0.0
 11
21.83824539105975
 21
-56.07599926807491
 31
0.0
  0
LINE
  5
87
330
70
100
AcDbEntity
  8
Livello 1
370
     9
100
AcDbLine
 10
20.83717784295101
 20
-53.62373753981391
 30
0.0
 11
21.17078649387386
 21
-56.1635718265555
 31
0.0
  0
LINE
  5
88
330
70
100
AcDbEntity
  8
Livello 1
370
     9
100
AcDbLine
 10
21.78951215961917
 20
-53.49866018093253
 30
0.0
 11
22.12335090134205
 21
-56.03858650399412
 31
0.0
  0
LINE
  5
89
330
70
100
AcDbEntity
  8
Livello 1
370
     9
100
AcDbLine
 10
24.07674126157879
 20
-58.85324124225832
 30
0.0
 11
24.07674126157879
 21
-58.48500392593567
 31
0.0
  0
LINE
  5
8A
330
70
100
AcDbEntity
  8
Livello 1
370
     9
100
AcDbLine
 10
20.19449972492562
 20
-53.13322997236959
 30
0.0
 11
20.66599028774968
 21
-52.29629769644209
 31
0.0
  0
LINE
  5
8B
330
70
100
AcDbEntity
  8
Livello 1
370
     9
100
AcDbLine
 10
21.1682209814537
 20
-52.57907928964442
 30
0.0
 11
20.69676493224981
 21
-53.41619563821193
 31
0.0
  0
LINE
  5
8C
330
70
100
AcDbEntity
  8
Livello 1
370
     9
100
AcDbLine
 10
18.83267281149387
 20
-54.73935579270323
 30
0.0
 11
18.53839818283123
 21
-54.98619720294559
 31
0.0
  0
LINE
  5
8D
330
70
100
AcDbEntity
  8
Livello 1
370
     9
100
AcDbLine
 10
80.24819852544103
 20
-64.713239754869
 30
0.0
 11
11.39094960788983
 21
-64.713239754869
 31
0.0
  0
LINE
  5
8E
330
70
100
AcDbEntity
  8
Livello 1
370
     9
100
AcDbLine
 10
80.29373349476188
 20
-64.69446434558861
 30
0.0
 11
11.3452305659293
 21
-64.69446434558861
 31
0.0
  0
LINE
  5
8F
330
70
100
AcDbEntity
  8
Livello 1
370
     9
100
AcDbLine
 10
10.43049308598163
 20
-63.77157014678073
 30
0.0
 11
81.20844796562954
 21
-63.77157014678073
 31
0.0
  0
LINE
  5
90
330
70
100
AcDbEntity
  8
Livello 1
370
     9
100
AcDbLine
 10
10.41187874026125
 20
-63.72605818654022
 30
0.0
 11
11.38665841446978
 21
-63.72605818654022
 31
0.0
  0
LINE
  5
91
330
70
100
AcDbEntity
  8
Livello 1
370
     9
100
AcDbLine
 10
11.39288237060975
 20
-63.72605818654022
 30
0.0
 11
81.22705080680944
 21
-63.72605818654022
 31
0.0
  0
LINE
  5
92
330
70
100
AcDbEntity
  8
Livello 1
370
     9
100
AcDbLine
 10
20.19449972492562
 20
-53.13322997236959
 30
0.0
 11
20.69676493224981
 21
-53.41619563821193
 31
0.0
  0
LINE
  5
93
330
70
100
AcDbEntity
  8
Livello 1
370
     9
100
AcDbLine
 10
20.66599028774968
 20
-52.29629769644209
 30
0.0
 11
21.1682209814537
 21
-52.57907928964442
 31
0.0
  0
LINE
  5
94
330
70
100
AcDbEntity
  8
Livello 1
370
     9
100
AcDbLine
 10
21.94703232130041
 20
-58.45062836041526
 30
0.0
 11
21.90598412258013
 21
-58.48500392593567
 31
0.0
  0
LINE
  5
95
330
70
100
AcDbEntity
  8
Livello 1
370
     9
100
AcDbLine
 10
4.3721678083093
 20
-58.01506647601132
 30
0.0
 11
8.885720977468054
 21
-56.37217214583697
 31
0.0
  0
LINE
  5
96
330
70
100
AcDbEntity
  8
Livello 1
370
     9
100
AcDbLine
 10
17.15988968639934
 20
-53.46304212509196
 30
0.0
 11
8.918635466408444
 21
-56.46259783023791
 31
0.0
  0
LINE
  5
97
330
70
100
AcDbEntity
  8
Livello 1
370
     9
100
AcDbLine
 10
17.15988968639934
 20
-53.8718674585358
 30
0.0
 11
9.050063331369656
 21
-56.82356427728095
 31
0.0
  0
LINE
  5
98
330
70
100
AcDbEntity
  8
Livello 1
370
     9
100
AcDbLine
 10
4.569436155691133
 20
-58.55660818289621
 30
0.0
 11
9.082977820310047
 21
-56.91394394352188
 31
0.0
  0
LINE
  5
99
330
70
100
AcDbEntity
  8
Livello 1
370
     9
100
AcDbLine
 10
81.1849326858692
 20
-58.90091605601909
 30
0.0
 11
11.35996788166936
 21
-58.90091605601909
 31
0.0
  0
LINE
  5
9A
330
70
100
AcDbEntity
  8
Livello 1
370
     9
100
AcDbLine
 10
11.35377843914956
 20
-58.90091605601909
 30
0.0
 11
10.45398535666165
 21
-58.90091605601909
 31
0.0
  0
LINE
  5
9B
330
70
100
AcDbEntity
  8
Livello 1
370
     9
100
AcDbLine
 10
81.13663662694866
 20
-58.85324124225832
 30
0.0
 11
10.50231592920203
 21
-58.85324124225832
 31
0.0
  0
LINE
  5
9C
330
70
100
AcDbEntity
  8
Livello 1
370
     9
100
AcDbLine
 10
72.71797089561648
 20
-58.48500392593567
 30
0.0
 11
67.56241837629224
 21
-58.48500392593567
 31
0.0
  0
LINE
  5
9D
330
70
100
AcDbEntity
  8
Livello 1
370
     9
100
AcDbLine
 10
24.07674126157879
 20
-58.48500392593567
 30
0.0
 11
18.9211542286344
 21
-58.48500392593567
 31
0.0
  0
LINE
  5
9E
330
70
100
AcDbEntity
  8
Livello 1
370
     9
100
AcDbLine
 10
22.09215058886171
 20
-58.48500392593567
 30
0.0
 11
22.15434413210236
 21
-58.4769047297753
 31
0.0
  0
LINE
  5
9F
330
70
100
AcDbEntity
  8
Livello 1
370
     9
100
AcDbLine
 10
69.48480400122884
 20
-58.4769047297753
 30
0.0
 11
69.54680196728898
 21
-58.48500392593567
 31
0.0
  0
LINE
  5
A0
330
70
100
AcDbEntity
  8
Livello 1
370
     9
100
AcDbLine
 10
22.12335090134205
 20
-56.03858650399412
 30
0.0
 11
21.17078649387386
 21
-56.1635718265555
 31
0.0
  0
LINE
  5
A1
330
70
100
AcDbEntity
  8
Livello 1
370
     9
100
AcDbLine
 10
21.78951215961917
 20
-53.49866018093253
 30
0.0
 11
20.83717784295101
 21
-53.62373753981391
 31
0.0
  0
LINE
  5
A2
330
70
100
AcDbEntity
  8
Livello 1
370
     9
100
AcDbLine
 10
74.47905136521152
 20
-52.88128054636723
 30
0.0
 11
73.6786575083247
 21
-52.88128054636723
 31
0.0
  0
LINE
  5
A3
330
70
100
AcDbEntity
  8
Livello 1
370
     9
100
AcDbLine
 10
17.96050212954634
 20
-52.88128054636723
 30
0.0
 11
17.15988968639934
 21
-52.88128054636723
 31
0.0
  0
LINE
  5
A4
330
70
100
AcDbEntity
  8
Livello 1
370
     9
100
AcDbLine
 10
70.46836163945734
 20
-56.1635718265555
 30
0.0
 11
69.51580873652931
 21
-56.03858650399412
 31
0.0
  0
LINE
  5
A5
330
70
100
AcDbEntity
  8
Livello 1
370
     9
100
AcDbLine
 10
70.80197029037987
 20
-53.62373753981391
 30
0.0
 11
69.84940588291168
 21
-53.49866018093253
 31
0.0
  0
LINE
  5
A6
330
70
100
AcDbEntity
  8
Livello 1
370
     9
100
AcDbLine
 10
17.96050212954634
 20
-54.87313058382441
 30
0.0
 11
18.07888384614722
 21
-54.8412860171043
 31
0.0
  0
LINE
  5
A7
330
70
100
AcDbEntity
  8
Livello 1
370
     9
100
AcDbLine
 10
17.96050212954634
 20
-54.47539562694067
 30
0.0
 11
17.97928904336658
 21
-54.47024159302067
 31
0.0
  0
LINE
  5
A8
330
70
100
AcDbEntity
  8
Livello 1
370
     9
100
AcDbLine
 10
73.6786575083247
 20
-54.87313058382441
 30
0.0
 11
73.56022977356381
 21
-54.8412860171043
 31
0.0
  0
LINE
  5
A9
330
70
100
AcDbEntity
  8
Livello 1
370
     9
100
AcDbLine
 10
87.06971197764007
 20
-58.55660818289621
 30
0.0
 11
82.55617031302115
 21
-56.91394394352188
 31
0.0
  0
LINE
  5
AA
330
70
100
AcDbEntity
  8
Livello 1
370
     9
100
AcDbLine
 10
82.58909630650171
 20
-56.82356427728095
 30
0.0
 11
75.5427151154608
 21
-54.25892620229886
 31
0.0
  0
LINE
  5
AB
330
70
100
AcDbEntity
  8
Livello 1
370
     9
100
AcDbLine
 10
74.47905136521152
 20
-53.8718674585358
 30
0.0
 11
74.95904378309615
 21
-54.04646035757755
 31
0.0
  0
LINE
  5
AC
330
70
100
AcDbEntity
  8
Livello 1
370
     9
100
AcDbLine
 10
74.47905136521152
 20
-53.46304212509196
 30
0.0
 11
75.08921765319673
 21
-53.68507974709382
 31
0.0
  0
LINE
  5
AD
330
70
100
AcDbEntity
  8
Livello 1
370
     9
100
AcDbLine
 10
75.45254253094021
 20
-53.81738195709546
 30
0.0
 11
82.72032859428241
 21
-56.46259783023791
 31
0.0
  0
LINE
  5
AE
330
70
100
AcDbEntity
  8
Livello 1
370
     9
100
AcDbLine
 10
87.26677324330156
 20
-58.01506647601132
 30
0.0
 11
82.75320856960297
 21
-56.37217214583697
 31
0.0
  0
LINE
  5
AF
330
70
100
AcDbEntity
  8
Livello 1
370
     9
100
AcDbLine
 10
70.97315784558183
 20
-52.29629769644209
 30
0.0
 11
70.47092715187749
 21
-52.57907928964442
 31
0.0
  0
LINE
  5
B0
330
70
100
AcDbEntity
  8
Livello 1
370
     9
100
AcDbLine
 10
71.44441831760556
 20
-53.13322997236959
 30
0.0
 11
70.94237169654123
 21
-53.41619563821193
 31
0.0
  0
LINE
  5
B1
330
70
100
AcDbEntity
  8
Livello 1
370
     9
100
AcDbLine
 10
75.2123047266577
 20
-54.35850950053965
 30
0.0
 11
74.90325826863548
 21
-54.1304895177377
 31
0.0
  0
LINE
  5
B2
330
70
100
AcDbEntity
  8
Livello 1
370
     9
100
AcDbLine
 10
73.1007614550398
 20
-54.98619720294559
 30
0.0
 11
72.80624523103731
 21
-54.73935579270323
 31
0.0
  0
LINE
  5
B3
330
70
100
AcDbEntity
  8
Livello 1
370
     9
100
AcDbLine
 10
67.56241837629224
 20
-58.85324124225832
 30
0.0
 11
67.56241837629224
 21
-58.48500392593567
 31
0.0
  0
LINE
  5
B4
330
70
100
AcDbEntity
  8
Livello 1
370
     9
100
AcDbLine
 10
72.80624523103731
 20
-54.73935579270323
 30
0.0
 11
69.9099082587726
 21
-58.19090186537258
 31
0.0
  0
LINE
  5
B5
330
70
100
AcDbEntity
  8
Livello 1
370
     9
100
AcDbLine
 10
70.94237169654123
 20
-53.41619563821193
 30
0.0
 11
70.47092715187749
 21
-52.57907928964442
 31
0.0
  0
LINE
  5
B6
330
70
100
AcDbEntity
  8
Livello 1
370
     9
100
AcDbLine
 10
70.97315784558183
 20
-52.29629769644209
 30
0.0
 11
71.44441831760556
 21
-53.13322997236959
 31
0.0
  0
LINE
  5
B7
330
70
100
AcDbEntity
  8
Livello 1
370
     9
100
AcDbLine
 10
69.84940588291168
 20
-53.49866018093253
 30
0.0
 11
69.51580873652931
 21
-56.03858650399412
 31
0.0
  0
LINE
  5
B8
330
70
100
AcDbEntity
  8
Livello 1
370
     9
100
AcDbLine
 10
70.80197029037987
 20
-53.62373753981391
 30
0.0
 11
70.46836163945734
 21
-56.1635718265555
 31
0.0
  0
LINE
  5
B9
330
70
100
AcDbEntity
  8
Livello 1
370
     9
100
AcDbLine
 10
69.48374558354871
 20
-58.48500392593567
 30
0.0
 11
69.80090274227144
 21
-56.07599926807491
 31
0.0
  0
LINE
  5
BA
330
70
100
AcDbEntity
  8
Livello 1
370
     9
100
AcDbLine
 10
69.87122999529198
 20
-58.48500392593567
 30
0.0
 11
70.1817720435147
 21
-56.12597498983532
 31
0.0
  0
LINE
  5
BB
330
70
100
AcDbEntity
  8
Livello 1
370
     9
100
AcDbLine
 10
73.1007614550398
 20
-54.98619720294559
 30
0.0
 11
70.16489488333469
 21
-58.48500392593567
 31
0.0
  0
LINE
  5
BC
330
70
100
AcDbEntity
  8
Livello 1
370
     9
100
AcDbLine
 10
73.6786575083247
 20
-52.88128054636723
 30
0.0
 11
73.6786575083247
 21
-57.52451289040698
 31
0.0
  0
LINE
  5
BD
330
70
100
AcDbEntity
  8
Livello 1
370
     9
100
AcDbLine
 10
74.47905136521152
 20
-58.85324124225832
 30
0.0
 11
74.47905136521152
 21
-52.88128054636723
 31
0.0
  0
LINE
  5
BE
330
70
100
AcDbEntity
  8
Livello 1
370
     9
100
AcDbLine
 10
73.56022977356381
 20
-54.8412860171043
 30
0.0
 11
73.56301387224384
 21
-54.83037971318424
 31
0.0
  0
LINE
  5
BF
330
70
100
AcDbEntity
  8
Livello 1
370
     9
100
AcDbLine
 10
73.59700978794404
 20
-54.84574977862422
 30
0.0
 11
73.6786575083247
 21
-54.62136523046208
 31
0.0
  0
LINE
  5
C0
330
70
100
AcDbEntity
  8
Livello 1
370
     9
100
AcDbLine
 10
75.5427151154608
 20
-54.25892620229886
 30
0.0
 11
75.67415448496184
 21
-53.89791373709582
 31
0.0
  0
LINE
  5
C1
330
70
100
AcDbEntity
  8
Livello 1
370
     9
100
AcDbLine
 10
81.22705080680944
 20
-63.72605818654022
 30
0.0
 11
81.1849326858692
 21
-58.90091605601909
 31
0.0
  0
LINE
  5
C2
330
70
100
AcDbEntity
  8
Livello 1
370
     9
100
AcDbLine
 10
80.29373349476188
 20
-64.69446434558861
 30
0.0
 11
81.20844796562954
 21
-63.77157014678073
 31
0.0
  0
LINE
  5
C3
330
70
100
AcDbEntity
  8
Livello 1
370
     9
100
AcDbLine
 10
82.55617031302115
 20
-56.91394394352188
 30
0.0
 11
82.75320856960297
 21
-56.37217214583697
 31
0.0
  0
LINE
  5
C4
330
70
100
AcDbEntity
  8
Livello 1
370
     9
100
AcDbLine
 10
87.06971197764007
 20
-58.55660818289621
 30
0.0
 11
87.26677324330156
 21
-58.01506647601132
 31
0.0
  0
SPLINE
  5
C5
330
70
100
AcDbEntity
  8
Livello 1
370
     9
100
AcDbSpline
210
0.0
220
0.0
230
1.0
 70
     8
 71
     3
 72
     8
 73
     4
 74
     0
 42
0.000000001
 43
0.0000000001
 40
0.0
 40
0.0
 40
0.0
 40
0.0
 40
1.0
 40
1.0
 40
1.0
 40
1.0
 10
10.41187874026125
 20
-63.72605818654022
 30
0.0
 10
10.41187874026125
 20
-63.74317694206041
 30
0.0
 10
10.41850535530143
 20
-63.75960542518053
 30
0.0
 10
10.43049308598163
 20
-63.77157014678073
 30
0.0
  0
SPLINE
  5
C6
330
70
100
AcDbEntity
  8
Livello 1
370
     9
100
AcDbSpline
210
0.0
220
0.0
230
1.0
 70
     8
 71
     3
 72
     8
 73
     4
 74
     0
 42
0.000000001
 43
0.0000000001
 40
0.0
 40
0.0
 40
0.0
 40
0.0
 40
1.0
 40
1.0
 40
1.0
 40
1.0
 10
11.3452305659293
 20
-64.69446434558861
 30
0.0
 10
11.3571722784495
 20
-64.70665915798884
 30
0.0
 10
11.37363527518945
 20
-64.713239754869
 30
0.0
 10
11.39073102162964
 20
-64.713239754869
 30
0.0
  0
SPLINE
  5
C7
330
70
100
AcDbEntity
  8
Livello 1
370
     9
100
AcDbSpline
210
0.0
220
0.0
230
1.0
 70
     8
 71
     3
 72
     8
 73
     4
 74
     0
 42
0.000000001
 43
0.0000000001
 40
0.0
 40
0.0
 40
0.0
 40
0.0
 40
1.0
 40
1.0
 40
1.0
 40
1.0
 10
10.502085838402
 20
-58.85324124225832
 30
0.0
 10
10.47579796450179
 20
-58.85324124225832
 30
0.0
 10
10.45422695200184
 20
-58.87463968665905
 30
0.0
 10
10.45398535666165
 20
-58.90091605601909
 30
0.0
  0
SPLINE
  5
C8
330
70
100
AcDbEntity
  8
Livello 1
370
     9
100
AcDbSpline
210
0.0
220
0.0
230
1.0
 70
     8
 71
     3
 72
     8
 73
     4
 74
     0
 42
0.000000001
 43
0.0000000001
 40
0.0
 40
0.0
 40
0.0
 40
0.0
 40
1.0
 40
1.0
 40
1.0
 40
1.0
 10
18.83267281149387
 20
-54.73935579270323
 30
0.0
 10
18.62472825099199
 20
-54.49140994662137
 30
0.0
 10
18.29199394510925
 20
-54.38653455997992
 30
0.0
 10
17.97928904336658
 20
-54.47024159302067
 30
0.0
  0
SPLINE
  5
C9
330
70
100
AcDbEntity
  8
Livello 1
370
     9
100
AcDbSpline
210
0.0
220
0.0
230
1.0
 70
     8
 71
     3
 72
     8
 73
     4
 74
     0
 42
0.000000001
 43
0.0000000001
 40
0.0
 40
0.0
 40
0.0
 40
0.0
 40
1.0
 40
1.0
 40
1.0
 40
1.0
 10
18.53839818283123
 20
-54.98619720294559
 30
0.0
 10
18.42641299047019
 20
-54.85283657526446
 30
0.0
 10
18.24709172548866
 20
-54.79618822030385
 30
0.0
 10
18.07888384614722
 20
-54.8412860171043
 30
0.0
  0
SPLINE
  5
CA
330
70
100
AcDbEntity
  8
Livello 1
370
     9
100
AcDbSpline
210
0.0
220
0.0
230
1.0
 70
     8
 71
     3
 72
     8
 73
     4
 74
     0
 42
0.000000001
 43
0.0000000001
 40
0.0
 40
0.0
 40
0.0
 40
0.0
 40
1.0
 40
1.0
 40
1.0
 40
1.0
 10
16.42683190213302
 20
-54.35850950053965
 30
0.0
 10
16.35098246991244
 20
-54.25588900373913
 30
0.0
 10
16.2163218292113
 20
-54.21530098661858
 30
0.0
 10
16.09622593615037
 20
-54.25892620229886
 30
0.0
  0
SPLINE
  5
CB
330
70
100
AcDbEntity
  8
Livello 1
370
     9
100
AcDbSpline
210
0.0
220
0.0
230
1.0
 70
     8
 71
     3
 72
     8
 73
     4
 74
     0
 42
0.000000001
 43
0.0000000001
 40
0.0
 40
0.0
 40
0.0
 40
0.0
 40
1.0
 40
1.0
 40
1.0
 40
1.0
 10
16.15817788405083
 20
-53.38269441773164
 30
0.0
 10
16.15777522515062
 20
-53.38563957997135
 30
0.0
 10
16.15753362981076
 20
-53.38863076037172
 30
0.0
 10
16.15733805263089
 20
-53.39143786813143
 30
0.0
  0
SPLINE
  5
CC
330
70
100
AcDbEntity
  8
Livello 1
370
     9
100
AcDbSpline
210
0.0
220
0.0
230
1.0
 70
     8
 71
     3
 72
     8
 73
     4
 74
     0
 42
0.000000001
 43
0.0000000001
 40
0.0
 40
0.0
 40
0.0
 40
0.0
 40
1.0
 40
1.0
 40
1.0
 40
1.0
 10
18.05776151070716
 20
-52.20357110404151
 30
0.0
 10
17.97974922496632
 20
-52.17407346348107
 30
0.0
 10
17.89914841772563
 20
-52.15161660140084
 30
0.0
 10
17.81729361562495
 20
-52.13647662676089
 30
0.0
  0
SPLINE
  5
CD
330
70
100
AcDbEntity
  8
Livello 1
370
     9
100
AcDbSpline
210
0.0
220
0.0
230
1.0
 70
     8
 71
     3
 72
     8
 73
     4
 74
     0
 42
0.000000001
 43
0.0000000001
 40
0.0
 40
0.0
 40
0.0
 40
0.0
 40
1.0
 40
1.0
 40
1.0
 40
1.0
 10
17.49032308428212
 20
-52.11443392812072
 30
0.0
 10
17.42342418418169
 20
-52.11788529012051
 30
0.0
 10
17.35716953832102
 20
-52.12598448628088
 30
0.0
 10
17.29155914670042
 20
-52.13859346212052
 30
0.0
  0
SPLINE
  5
CE
330
70
100
AcDbEntity
  8
Livello 1
370
     9
100
AcDbSpline
210
0.0
220
0.0
230
1.0
 70
     8
 71
     3
 72
     8
 73
     4
 74
     0
 42
0.000000001
 43
0.0000000001
 40
0.0
 40
0.0
 40
0.0
 40
0.0
 40
1.0
 40
1.0
 40
1.0
 40
1.0
 10
18.94469251747476
 20
-53.26042416661059
 30
0.0
 10
18.93311895023461
 20
-53.19880585037001
 30
0.0
 10
18.9175418030746
 20
-53.13815391548955
 30
0.0
 10
18.89765045341422
 20
-53.0787444709286
 30
0.0
  0
SPLINE
  5
CF
330
70
100
AcDbEntity
  8
Livello 1
370
     9
100
AcDbSpline
210
0.0
220
0.0
230
1.0
 70
     8
 71
     3
 72
     8
 73
     4
 74
     0
 42
0.000000001
 43
0.0000000001
 40
0.0
 40
0.0
 40
0.0
 40
0.0
 40
1.0
 40
1.0
 40
1.0
 40
1.0
 10
18.96711486593481
 20
-53.44675169645187
 30
0.0
 10
18.96391660381506
 20
-53.38715817925154
 30
0.0
 10
18.95708290705485
 20
-53.32774873469124
 30
0.0
 10
18.94638368485481
 20
-53.26898354437037
 30
0.0
  0
SPLINE
  5
D0
330
70
100
AcDbEntity
  8
Livello 1
370
     9
100
AcDbSpline
210
0.0
220
0.0
230
1.0
 70
     8
 71
     3
 72
     8
 73
     4
 74
     0
 42
0.000000001
 43
0.0000000001
 40
0.0
 40
0.0
 40
0.0
 40
0.0
 40
1.0
 40
1.0
 40
1.0
 40
1.0
 10
16.77670797261596
 20
-52.35059912524241
 30
0.0
 10
16.75597679153596
 20
-52.36449660956285
 30
0.0
 10
16.73565977389568
 20
-52.37899232996272
 30
0.0
 10
16.71577992877546
 20
-52.39376415932326
 30
0.0
  0
SPLINE
  5
D1
330
70
100
AcDbEntity
  8
Livello 1
370
     9
100
AcDbSpline
210
0.0
220
0.0
230
1.0
 70
     8
 71
     3
 72
     8
 73
     4
 74
     0
 42
0.000000001
 43
0.0000000001
 40
0.0
 40
0.0
 40
0.0
 40
0.0
 40
1.0
 40
1.0
 40
1.0
 40
1.0
 10
16.15135569183079
 20
-53.5027557971724
 30
0.0
 10
16.15094152839074
 20
-53.54210132397278
 30
0.0
 10
16.15201145061071
 20
-53.58140083261316
 30
0.0
 10
16.15477254021073
 20
-53.62074635941354
 30
0.0
  0
SPLINE
  5
D2
330
70
100
AcDbEntity
  8
Livello 1
370
     9
100
AcDbSpline
210
0.0
220
0.0
230
1.0
 70
     8
 71
     3
 72
     8
 73
     4
 74
     0
 42
0.000000001
 43
0.0000000001
 40
0.0
 40
0.0
 40
0.0
 40
0.0
 40
1.0
 40
1.0
 40
1.0
 40
1.0
 10
16.16717443433099
 20
-53.31150432421114
 30
0.0
 10
16.16351599061086
 20
-53.33501960397086
 30
0.0
 10
16.16053631475065
 20
-53.35890302901125
 30
0.0
 10
16.15817788405083
 20
-53.38269441773164
 30
0.0
  0
SPLINE
  5
D3
330
70
100
AcDbEntity
  8
Livello 1
370
     9
100
AcDbSpline
210
0.0
220
0.0
230
1.0
 70
     8
 71
     3
 72
     8
 73
     4
 74
     0
 42
0.000000001
 43
0.0000000001
 40
0.0
 40
0.0
 40
0.0
 40
0.0
 40
1.0
 40
1.0
 40
1.0
 40
1.0
 10
16.15733805263089
 20
-53.39143786813143
 30
0.0
 10
16.15433536769068
 20
-53.42259216245208
 30
0.0
 10
16.15264420031063
 20
-53.45383849309211
 30
0.0
 10
16.15176985527084
 20
-53.48526889637216
 30
0.0
  0
SPLINE
  5
D4
330
70
100
AcDbEntity
  8
Livello 1
370
     9
100
AcDbSpline
210
0.0
220
0.0
230
1.0
 70
     8
 71
     3
 72
     8
 73
     4
 74
     0
 42
0.000000001
 43
0.0000000001
 40
0.0
 40
0.0
 40
0.0
 40
0.0
 40
1.0
 40
1.0
 40
1.0
 40
1.0
 10
16.34906121173236
 20
-52.80180718404636
 30
0.0
 10
16.34583994053228
 20
-52.8073293632464
 30
0.0
 10
16.3426186693322
 20
-52.81289756060645
 30
0.0
 10
16.33920182095226
 20
-52.8184657579665
 30
0.0
  0
SPLINE
  5
D5
330
70
100
AcDbEntity
  8
Livello 1
370
     9
100
AcDbSpline
210
0.0
220
0.0
230
1.0
 70
     8
 71
     3
 72
     8
 73
     4
 74
     0
 42
0.000000001
 43
0.0000000001
 40
0.0
 40
0.0
 40
0.0
 40
0.0
 40
1.0
 40
1.0
 40
1.0
 40
1.0
 10
17.06266481885868
 20
-54.84004352678415
 30
0.0
 10
17.07420387247866
 20
-54.84427719750404
 30
0.0
 10
17.08553584437863
 20
-54.84837281374391
 30
0.0
 10
17.09706339345877
 20
-54.85246842998441
 30
0.0
  0
SPLINE
  5
D6
330
70
100
AcDbEntity
  8
Livello 1
370
     9
100
AcDbSpline
210
0.0
220
0.0
230
1.0
 70
     8
 71
     3
 72
     8
 73
     4
 74
     0
 42
0.000000001
 43
0.0000000001
 40
0.0
 40
0.0
 40
0.0
 40
0.0
 40
1.0
 40
1.0
 40
1.0
 40
1.0
 10
16.31463962805226
 20
-54.18005107605807
 30
0.0
 10
16.34179034245242
 20
-54.23159141525868
 30
0.0
 10
16.37211630989265
 20
-54.28133704621907
 30
0.0
 10
16.40544496227277
 20
-54.32919593261987
 30
0.0
  0
SPLINE
  5
D7
330
70
100
AcDbEntity
  8
Livello 1
370
     9
100
AcDbSpline
210
0.0
220
0.0
230
1.0
 70
     8
 71
     3
 72
     8
 73
     4
 74
     0
 42
0.000000001
 43
0.0000000001
 40
0.0
 40
0.0
 40
0.0
 40
0.0
 40
1.0
 40
1.0
 40
1.0
 40
1.0
 10
18.85512967357408
 20
-52.96609201524812
 30
0.0
 10
18.84146228005399
 20
-52.93466161196743
 30
0.0
 10
18.82690903695363
 20
-52.90369139028744
 30
0.0
 10
18.81109029445344
 20
-52.8734114410069
 30
0.0
  0
SPLINE
  5
D8
330
70
100
AcDbEntity
  8
Livello 1
370
     9
100
AcDbSpline
210
0.0
220
0.0
230
1.0
 70
     8
 71
     3
 72
     8
 73
     4
 74
     0
 42
0.000000001
 43
0.0000000001
 40
0.0
 40
0.0
 40
0.0
 40
0.0
 40
1.0
 40
1.0
 40
1.0
 40
1.0
 10
18.49778715663101
 20
-52.46983217780371
 30
0.0
 10
18.47214353697056
 20
-52.44719124308347
 30
0.0
 10
18.44563707681049
 20
-52.42524058076332
 30
0.0
 10
18.41850937149033
 20
-52.40448639060332
 30
0.0
  0
SPLINE
  5
D9
330
70
100
AcDbEntity
  8
Livello 1
370
     9
100
AcDbSpline
210
0.0
220
0.0
230
1.0
 70
     8
 71
     3
 72
     8
 73
     4
 74
     0
 42
0.000000001
 43
0.0000000001
 40
0.0
 40
0.0
 40
0.0
 40
0.0
 40
1.0
 40
1.0
 40
1.0
 40
1.0
 10
18.85855802649387
 20
-52.97423722956785
 30
0.0
 10
18.84529329187398
 20
-52.94262275364777
 30
0.0
 10
18.83076305785363
 20
-52.91160651380778
 30
0.0
 10
18.81516290161362
 20
-52.8810504555672
 30
0.0
  0
SPLINE
  5
DA
330
70
100
AcDbEntity
  8
Livello 1
370
     9
100
AcDbSpline
210
0.0
220
0.0
230
1.0
 70
     8
 71
     3
 72
     8
 73
     4
 74
     0
 42
0.000000001
 43
0.0000000001
 40
0.0
 40
0.0
 40
0.0
 40
0.0
 40
1.0
 40
1.0
 40
1.0
 40
1.0
 10
18.76514116169319
 20
-52.79149911620637
 30
0.0
 10
18.74740116101292
 20
-52.76200147564592
 30
0.0
 10
18.728614247193
 20
-52.73337818012622
 30
0.0
 10
18.70872289753262
 20
-52.70558321148598
 30
0.0
  0
SPLINE
  5
DB
330
70
100
AcDbEntity
  8
Livello 1
370
     9
100
AcDbSpline
210
0.0
220
0.0
230
1.0
 70
     8
 71
     3
 72
     8
 73
     4
 74
     0
 42
0.000000001
 43
0.0000000001
 40
0.0
 40
0.0
 40
0.0
 40
0.0
 40
1.0
 40
1.0
 40
1.0
 40
1.0
 10
18.50418368087085
 20
-52.47586055676382
 30
0.0
 10
18.47877015201074
 20
-52.45275944044352
 30
0.0
 10
18.45271236891056
 20
-52.43071674180336
 30
0.0
 10
18.4255386454304
 20
-52.40977847900333
 30
0.0
  0
SPLINE
  5
DC
330
70
100
AcDbEntity
  8
Livello 1
370
     9
100
AcDbSpline
210
0.0
220
0.0
230
1.0
 70
     8
 71
     3
 72
     8
 73
     4
 74
     0
 42
0.000000001
 43
0.0000000001
 40
0.0
 40
0.0
 40
0.0
 40
0.0
 40
1.0
 40
1.0
 40
1.0
 40
1.0
 10
18.3421997576697
 20
-52.34977079836294
 30
0.0
 10
18.31376053478938
 20
-52.33071928012251
 30
0.0
 10
18.28450448956912
 20
-52.31277219772221
 30
0.0
 10
18.25477675820865
 20
-52.29588353300204
 30
0.0
  0
SPLINE
  5
DD
330
70
100
AcDbEntity
  8
Livello 1
370
     9
100
AcDbSpline
210
0.0
220
0.0
230
1.0
 70
     8
 71
     3
 72
     8
 73
     4
 74
     0
 42
0.000000001
 43
0.0000000001
 40
0.0
 40
0.0
 40
0.0
 40
0.0
 40
1.0
 40
1.0
 40
1.0
 40
1.0
 10
16.37490040857267
 20
-52.7598846402863
 30
0.0
 10
16.36613394909255
 20
-52.7737821246061
 30
0.0
 10
16.35739049869243
 20
-52.78767960892654
 30
0.0
 10
16.34906121173236
 20
-52.80180718404636
 30
0.0
  0
SPLINE
  5
DE
330
70
100
AcDbEntity
  8
Livello 1
370
     9
100
AcDbSpline
210
0.0
220
0.0
230
1.0
 70
     8
 71
     3
 72
     8
 73
     4
 74
     0
 42
0.000000001
 43
0.0000000001
 40
0.0
 40
0.0
 40
0.0
 40
0.0
 40
1.0
 40
1.0
 40
1.0
 40
1.0
 10
16.33920182095226
 20
-52.8184657579665
 30
0.0
 10
16.32533885025231
 20
-52.84262529196693
 30
0.0
 10
16.31229270189197
 20
-52.86692288044737
 30
0.0
 10
16.29987930323188
 20
-52.89191074132727
 30
0.0
  0
SPLINE
  5
DF
330
70
100
AcDbEntity
  8
Livello 1
370
     9
100
AcDbSpline
210
0.0
220
0.0
230
1.0
 70
     8
 71
     3
 72
     8
 73
     4
 74
     0
 42
0.000000001
 43
0.0000000001
 40
0.0
 40
0.0
 40
0.0
 40
0.0
 40
1.0
 40
1.0
 40
1.0
 40
1.0
 10
18.07741126502736
 20
-52.21102604596115
 30
0.0
 10
18.06885188726726
 20
-52.2078507929214
 30
0.0
 10
18.060304014047
 20
-52.20439943092161
 30
0.0
 10
18.05175614082706
 20
-52.20122417788122
 30
0.0
  0
SPLINE
  5
E0
330
70
100
AcDbEntity
  8
Livello 1
370
     9
100
AcDbSpline
210
0.0
220
0.0
230
1.0
 70
     8
 71
     3
 72
     8
 73
     4
 74
     0
 42
0.000000001
 43
0.0000000001
 40
0.0
 40
0.0
 40
0.0
 40
0.0
 40
1.0
 40
1.0
 40
1.0
 40
1.0
 10
18.89210526513418
 20
-53.06208589700847
 30
0.0
 10
18.88182020637418
 20
-53.03235816564863
 30
0.0
 10
18.87052274809407
 20
-53.00309061588821
 30
0.0
 10
18.85855802649387
 20
-52.97423722956785
 30
0.0
  0
SPLINE
  5
E1
330
70
100
AcDbEntity
  8
Livello 1
370
     9
100
AcDbSpline
210
0.0
220
0.0
230
1.0
 70
     8
 71
     3
 72
     8
 73
     4
 74
     0
 42
0.000000001
 43
0.0000000001
 40
0.0
 40
0.0
 40
0.0
 40
0.0
 40
1.0
 40
1.0
 40
1.0
 40
1.0
 10
17.29155914670042
 20
-52.13859346212052
 30
0.0
 10
17.27360055976028
 20
-52.14218287860096
 30
0.0
 10
17.25586055908033
 20
-52.14591034956078
 30
0.0
 10
17.23812055840005
 20
-52.15014402028066
 30
0.0
  0
SPLINE
  5
E2
330
70
100
AcDbEntity
  8
Livello 1
370
     9
100
AcDbSpline
210
0.0
220
0.0
230
1.0
 70
     8
 71
     3
 72
     8
 73
     4
 74
     0
 42
0.000000001
 43
0.0000000001
 40
0.0
 40
0.0
 40
0.0
 40
0.0
 40
1.0
 40
1.0
 40
1.0
 40
1.0
 10
16.3898563105726
 20
-52.73719768740605
 30
0.0
 10
16.37083930595265
 20
-52.76568292844637
 30
0.0
 10
16.35267363729249
 20
-52.79490446004679
 30
0.0
 10
16.33579647711216
 20
-52.82463219140662
 30
0.0
  0
SPLINE
  5
E3
330
70
100
AcDbEntity
  8
Livello 1
370
     9
100
AcDbSpline
210
0.0
220
0.0
230
1.0
 70
     8
 71
     3
 72
     8
 73
     4
 74
     0
 42
0.000000001
 43
0.0000000001
 40
0.0
 40
0.0
 40
0.0
 40
0.0
 40
1.0
 40
1.0
 40
1.0
 40
1.0
 10
16.16781868857074
 20
-53.30699454453059
 30
0.0
 10
16.16246907747089
 20
-53.34077187397093
 30
0.0
 10
16.15840797485087
 20
-53.37473327605128
 30
0.0
 10
16.15584246243071
 20
-53.40892476893167
 30
0.0
  0
SPLINE
  5
E4
330
70
100
AcDbEntity
  8
Livello 1
370
     9
100
AcDbSpline
210
0.0
220
0.0
230
1.0
 70
     8
 71
     3
 72
     8
 73
     4
 74
     0
 42
0.000000001
 43
0.0000000001
 40
0.0
 40
0.0
 40
0.0
 40
0.0
 40
1.0
 40
1.0
 40
1.0
 40
1.0
 10
18.81516290161362
 20
-52.8810504555672
 30
0.0
 10
18.79956274537361
 20
-52.85072448812665
 30
0.0
 10
18.78288116237347
 20
-52.82076666596679
 30
0.0
 10
18.76514116169319
 20
-52.79149911620637
 30
0.0
  0
SPLINE
  5
E5
330
70
100
AcDbEntity
  8
Livello 1
370
     9
100
AcDbSpline
210
0.0
220
0.0
230
1.0
 70
     8
 71
     3
 72
     8
 73
     4
 74
     0
 42
0.000000001
 43
0.0000000001
 40
0.0
 40
0.0
 40
0.0
 40
0.0
 40
1.0
 40
1.0
 40
1.0
 40
1.0
 10
18.70872289753262
 20
-52.70558321148598
 30
0.0
 10
18.68887756603256
 20
-52.67755815204572
 30
0.0
 10
18.66812337587224
 20
-52.65049947396494
 30
0.0
 10
18.64632227257226
 20
-52.62394699564485
 30
0.0
  0
SPLINE
  5
E6
330
70
100
AcDbEntity
  8
Livello 1
370
     9
100
AcDbSpline
210
0.0
220
0.0
230
1.0
 70
     8
 71
     3
 72
     8
 73
     4
 74
     0
 42
0.000000001
 43
0.0000000001
 40
0.0
 40
0.0
 40
0.0
 40
0.0
 40
1.0
 40
1.0
 40
1.0
 40
1.0
 10
18.4255386454304
 20
-52.40977847900333
 30
0.0
 10
18.39862952637011
 20
-52.38865614356328
 30
0.0
 10
18.37082305318972
 20
-52.36877629844274
 30
0.0
 10
18.3421997576697
 20
-52.34977079836294
 30
0.0
  0
SPLINE
  5
E7
330
70
100
AcDbEntity
  8
Livello 1
370
     9
100
AcDbSpline
210
0.0
220
0.0
230
1.0
 70
     8
 71
     3
 72
     8
 73
     4
 74
     0
 42
0.000000001
 43
0.0000000001
 40
0.0
 40
0.0
 40
0.0
 40
0.0
 40
1.0
 40
1.0
 40
1.0
 40
1.0
 10
18.25477675820865
 20
-52.29588353300204
 30
0.0
 10
18.2250950450085
 20
-52.27899486828188
 30
0.0
 10
18.19450447314839
 20
-52.26321063940185
 30
0.0
 10
18.16372982864795
 20
-52.24843881004193
 30
0.0
  0
SPLINE
  5
E8
330
70
100
AcDbEntity
  8
Livello 1
370
     9
100
AcDbSpline
210
0.0
220
0.0
230
1.0
 70
     8
 71
     3
 72
     8
 73
     4
 74
     0
 42
0.000000001
 43
0.0000000001
 40
0.0
 40
0.0
 40
0.0
 40
0.0
 40
1.0
 40
1.0
 40
1.0
 40
1.0
 10
16.82500403153649
 20
-52.31985899436245
 30
0.0
 10
16.8087596210564
 20
-52.3298449350824
 30
0.0
 10
16.79250370603615
 20
-52.3401530029224
 30
0.0
 10
16.77670797261596
 20
-52.35059912524241
 30
0.0
  0
SPLINE
  5
E9
330
70
100
AcDbEntity
  8
Livello 1
370
     9
100
AcDbSpline
210
0.0
220
0.0
230
1.0
 70
     8
 71
     3
 72
     8
 73
     4
 74
     0
 42
0.000000001
 43
0.0000000001
 40
0.0
 40
0.0
 40
0.0
 40
0.0
 40
1.0
 40
1.0
 40
1.0
 40
1.0
 10
18.54992573191138
 20
-54.52458903998163
 30
0.0
 10
18.87926619849419
 20
-54.19947073957855
 30
0.0
 10
19.02803140523546
 20
-53.73339881509468
 30
0.0
 10
18.94789077959483
 20
-53.27772699477081
 30
0.0
  0
SPLINE
  5
EA
330
70
100
AcDbEntity
  8
Livello 1
370
     9
100
AcDbSpline
210
0.0
220
0.0
230
1.0
 70
     8
 71
     3
 72
     8
 73
     4
 74
     0
 42
0.000000001
 43
0.0000000001
 40
0.0
 40
0.0
 40
0.0
 40
0.0
 40
1.0
 40
1.0
 40
1.0
 40
1.0
 10
16.31463962805226
 20
-54.18051125765813
 30
0.0
 10
16.49180954405369
 20
-54.51492522638107
 30
0.0
 10
16.79593205895625
 20
-54.76434365358311
 30
0.0
 10
17.1586011779195
 20
-54.8722562387843
 30
0.0
  0
SPLINE
  5
EC
330
70
100
AcDbEntity
  8
Livello 1
370
     9
100
AcDbSpline
210
0.0
220
0.0
230
1.0
 70
     8
 71
     3
 72
     8
 73
     4
 74
     0
 42
0.000000001
 43
0.0000000001
 40
0.0
 40
0.0
 40
0.0
 40
0.0
 40
1.0
 40
1.0
 40
1.0
 40
1.0
 10
16.15477254021073
 20
-53.62074635941354
 30
0.0
 10
16.15607255323073
 20
-53.64081027717347
 30
0.0
 10
16.15799381141081
 20
-53.66110428573406
 30
0.0
 10
16.16032923303062
 20
-53.681398294294
 30
0.0
  0
SPLINE
  5
ED
330
70
100
AcDbEntity
  8
Livello 1
370
     9
100
AcDbSpline
210
0.0
220
0.0
230
1.0
 70
     8
 71
     3
 72
     8
 73
     4
 74
     0
 42
0.000000001
 43
0.0000000001
 40
0.0
 40
0.0
 40
0.0
 40
0.0
 40
1.0
 40
1.0
 40
1.0
 40
1.0
 10
16.71577992877546
 20
-52.39376415932326
 30
0.0
 10
16.70552938363564
 20
-52.40144919204293
 30
0.0
 10
16.69547441567535
 20
-52.40941033372329
 30
0.0
 10
16.68545396133524
 20
-52.41727943908298
 30
0.0
  0
SPLINE
  5
EE
330
70
100
AcDbEntity
  8
Livello 1
370
     9
100
AcDbSpline
210
0.0
220
0.0
230
1.0
 70
     8
 71
     3
 72
     8
 73
     4
 74
     0
 42
0.000000001
 43
0.0000000001
 40
0.0
 40
0.0
 40
0.0
 40
0.0
 40
1.0
 40
1.0
 40
1.0
 40
1.0
 10
18.07741126502736
 20
-52.21102604596115
 30
0.0
 10
18.07292449442712
 20
-52.20932337404158
 30
0.0
 10
18.0684147147472
 20
-52.20762070212137
 30
0.0
 10
18.06393944868713
 20
-52.20591803020116
 30
0.0
  0
SPLINE
  5
EF
330
70
100
AcDbEntity
  8
Livello 1
370
     9
100
AcDbSpline
210
0.0
220
0.0
230
1.0
 70
     8
 71
     3
 72
     8
 73
     4
 74
     0
 42
0.000000001
 43
0.0000000001
 40
0.0
 40
0.0
 40
0.0
 40
0.0
 40
1.0
 40
1.0
 40
1.0
 40
1.0
 10
16.59738670763443
 20
-54.55017513694159
 30
0.0
 10
16.60552041741463
 20
-54.55813627862194
 30
0.0
 10
16.61407979517473
 20
-54.56582131134161
 30
0.0
 10
16.62259315477482
 20
-54.5732762532619
 30
0.0
  0
SPLINE
  5
F0
330
70
100
AcDbEntity
  8
Livello 1
370
     9
100
AcDbSpline
210
0.0
220
0.0
230
1.0
 70
     8
 71
     3
 72
     8
 73
     4
 74
     0
 42
0.000000001
 43
0.0000000001
 40
0.0
 40
0.0
 40
0.0
 40
0.0
 40
1.0
 40
1.0
 40
1.0
 40
1.0
 10
17.12358135815901
 20
-54.86139595302423
 30
0.0
 10
17.13554607975921
 20
-54.86526147846408
 30
0.0
 10
17.14772938761928
 20
-54.86912700390455
 30
0.0
 10
17.15988968639934
 20
-54.87253234774433
 30
0.0
  0
SPLINE
  5
F1
330
70
100
AcDbEntity
  8
Livello 1
370
     9
100
AcDbSpline
210
0.0
220
0.0
230
1.0
 70
     8
 71
     3
 72
     8
 73
     4
 74
     0
 42
0.000000001
 43
0.0000000001
 40
0.0
 40
0.0
 40
0.0
 40
0.0
 40
1.0
 40
1.0
 40
1.0
 40
1.0
 10
16.84763346171657
 20
-52.30637567348206
 30
0.0
 10
16.84507945383657
 20
-52.30761816380222
 30
0.0
 10
16.84251394141673
 20
-52.30932083572242
 30
0.0
 10
16.83994842899658
 20
-52.31088545316198
 30
0.0
  0
SPLINE
  5
F2
330
70
100
AcDbEntity
  8
Livello 1
370
     9
100
AcDbSpline
210
0.0
220
0.0
230
1.0
 70
     8
 71
     3
 72
     8
 73
     4
 74
     0
 42
0.000000001
 43
0.0000000001
 40
0.0
 40
0.0
 40
0.0
 40
0.0
 40
1.0
 40
1.0
 40
1.0
 40
1.0
 10
16.3996926922727
 20
-52.72270196700554
 30
0.0
 10
16.39136340531263
 20
-52.73489677940577
 30
0.0
 10
16.38304562289272
 20
-52.74750575524605
 30
0.0
 10
16.37490040857267
 20
-52.7598846402863
 30
0.0
  0
SPLINE
  5
F3
330
70
100
AcDbEntity
  8
Livello 1
370
     9
100
AcDbSpline
210
0.0
220
0.0
230
1.0
 70
     8
 71
     3
 72
     8
 73
     4
 74
     0
 42
0.000000001
 43
0.0000000001
 40
0.0
 40
0.0
 40
0.0
 40
0.0
 40
1.0
 40
1.0
 40
1.0
 40
1.0
 10
18.07741126502736
 20
-52.21102604596115
 30
0.0
 10
18.07525991604725
 20
-52.21019771908169
 30
0.0
 10
18.07292449442712
 20
-52.20932337404158
 30
0.0
 10
18.07056606372731
 20
-52.20844902900147
 30
0.0
  0
SPLINE
  5
F4
330
70
100
AcDbEntity
  8
Livello 1
370
     9
100
AcDbSpline
210
0.0
220
0.0
230
1.0
 70
     8
 71
     3
 72
     8
 73
     4
 74
     0
 42
0.000000001
 43
0.0000000001
 40
0.0
 40
0.0
 40
0.0
 40
0.0
 40
1.0
 40
1.0
 40
1.0
 40
1.0
 10
16.68545396133524
 20
-52.41727943908298
 30
0.0
 10
16.68308402609526
 20
-52.41898211100319
 30
0.0
 10
16.68073709993529
 20
-52.42091487372342
 30
0.0
 10
16.67859725549535
 20
-52.42284763644303
 30
0.0
  0
SPLINE
  5
F5
330
70
100
AcDbEntity
  8
Livello 1
370
     9
100
AcDbSpline
210
0.0
220
0.0
230
1.0
 70
     8
 71
     3
 72
     8
 73
     4
 74
     0
 42
0.000000001
 43
0.0000000001
 40
0.0
 40
0.0
 40
0.0
 40
0.0
 40
1.0
 40
1.0
 40
1.0
 40
1.0
 10
16.83994842899658
 20
-52.31088545316198
 30
0.0
 10
16.83738291657674
 20
-52.31212794348213
 30
0.0
 10
16.83484041323659
 20
-52.31387663356235
 30
0.0
 10
16.83250499161646
 20
-52.31534921468253
 30
0.0
  0
SPLINE
  5
F6
330
70
100
AcDbEntity
  8
Livello 1
370
     9
100
AcDbSpline
210
0.0
220
0.0
230
1.0
 70
     8
 71
     3
 72
     8
 73
     4
 74
     0
 42
0.000000001
 43
0.0000000001
 40
0.0
 40
0.0
 40
0.0
 40
0.0
 40
1.0
 40
1.0
 40
1.0
 40
1.0
 10
18.96797770643508
 20
-53.46433063357213
 30
0.0
 10
18.96797770643508
 20
-53.46129343501239
 30
0.0
 10
18.96774761563505
 20
-53.45853234541205
 30
0.0
 10
18.96755203845486
 20
-53.45554116501232
 30
0.0
  0
SPLINE
  5
F7
330
70
100
AcDbEntity
  8
Livello 1
370
     9
100
AcDbSpline
210
0.0
220
0.0
230
1.0
 70
     8
 71
     3
 72
     8
 73
     4
 74
     0
 42
0.000000001
 43
0.0000000001
 40
0.0
 40
0.0
 40
0.0
 40
0.0
 40
1.0
 40
1.0
 40
1.0
 40
1.0
 10
18.06393944868713
 20
-52.20591803020116
 30
0.0
 10
18.05751991536698
 20
-52.20338703140149
 30
0.0
 10
18.05112339112714
 20
-52.20099408708119
 30
0.0
 10
18.04448527154712
 20
-52.19864716092153
 30
0.0
  0
SPLINE
  5
F8
330
70
100
AcDbEntity
  8
Livello 1
370
     9
100
AcDbSpline
210
0.0
220
0.0
230
1.0
 70
     8
 71
     3
 72
     8
 73
     4
 74
     0
 42
0.000000001
 43
0.0000000001
 40
0.0
 40
0.0
 40
0.0
 40
0.0
 40
1.0
 40
1.0
 40
1.0
 40
1.0
 10
16.29987930323188
 20
-52.89191074132727
 30
0.0
 10
16.29860229929188
 20
-52.89453377644758
 30
0.0
 10
16.29731379081204
 20
-52.89711079340726
 30
0.0
 10
16.29585271423202
 20
-52.89964179220758
 30
0.0
  0
SPLINE
  5
F9
330
70
100
AcDbEntity
  8
Livello 1
370
     9
100
AcDbSpline
210
0.0
220
0.0
230
1.0
 70
     8
 71
     3
 72
     8
 73
     4
 74
     0
 42
0.000000001
 43
0.0000000001
 40
0.0
 40
0.0
 40
0.0
 40
0.0
 40
1.0
 40
1.0
 40
1.0
 40
1.0
 10
16.15176985527084
 20
-53.48526889637216
 30
0.0
 10
16.15157427809066
 20
-53.49102116637222
 30
0.0
 10
16.15135569183079
 20
-53.49700352717232
 30
0.0
 10
16.15135569183079
 20
-53.5027557971724
 30
0.0
  0
SPLINE
  5
FA
330
70
100
AcDbEntity
  8
Livello 1
370
     9
100
AcDbSpline
210
0.0
220
0.0
230
1.0
 70
     8
 71
     3
 72
     8
 73
     4
 74
     0
 42
0.000000001
 43
0.0000000001
 40
0.0
 40
0.0
 40
0.0
 40
0.0
 40
1.0
 40
1.0
 40
1.0
 40
1.0
 10
18.96797770643508
 20
-53.46433063357213
 30
0.0
 10
18.96774761563505
 20
-53.45853234541205
 30
0.0
 10
18.96755203845486
 20
-53.45254998461195
 30
0.0
 10
18.96711486593481
 20
-53.44675169645187
 30
0.0
  0
SPLINE
  5
FB
330
70
100
AcDbEntity
  8
Livello 1
370
     9
100
AcDbSpline
210
0.0
220
0.0
230
1.0
 70
     8
 71
     3
 72
     8
 73
     4
 74
     0
 42
0.000000001
 43
0.0000000001
 40
0.0
 40
0.0
 40
0.0
 40
0.0
 40
1.0
 40
1.0
 40
1.0
 40
1.0
 10
16.15945488799084
 20
-53.67270086205421
 30
0.0
 10
16.15990356505073
 20
-53.6786372046943
 30
0.0
 10
16.16076640555068
 20
-53.68443549285438
 30
0.0
 10
16.16141065979076
 20
-53.69018776285446
 30
0.0
  0
SPLINE
  5
FC
330
70
100
AcDbEntity
  8
Livello 1
370
     9
100
AcDbSpline
210
0.0
220
0.0
230
1.0
 70
     8
 71
     3
 72
     8
 73
     4
 74
     0
 42
0.000000001
 43
0.0000000001
 40
0.0
 40
0.0
 40
0.0
 40
0.0
 40
1.0
 40
1.0
 40
1.0
 40
1.0
 10
16.83994842899658
 20
-52.31088545316198
 30
0.0
 10
16.83505899949645
 20
-52.31364654276232
 30
0.0
 10
16.82989346103662
 20
-52.31682179580207
 30
0.0
 10
16.82500403153649
 20
-52.31985899436245
 30
0.0
  0
SPLINE
  5
FD
330
70
100
AcDbEntity
  8
Livello 1
370
     9
100
AcDbSpline
210
0.0
220
0.0
230
1.0
 70
     8
 71
     3
 72
     8
 73
     4
 74
     0
 42
0.000000001
 43
0.0000000001
 40
0.0
 40
0.0
 40
0.0
 40
0.0
 40
1.0
 40
1.0
 40
1.0
 40
1.0
 10
18.94789077959483
 20
-53.27772699477081
 30
0.0
 10
18.9468093528347
 20
-53.27197472477074
 30
0.0
 10
18.94575093515489
 20
-53.26617643661066
 30
0.0
 10
18.94469251747476
 20
-53.26042416661059
 30
0.0
  0
SPLINE
  5
FE
330
70
100
AcDbEntity
  8
Livello 1
370
     9
100
AcDbSpline
210
0.0
220
0.0
230
1.0
 70
     8
 71
     3
 72
     8
 73
     4
 74
     0
 42
0.000000001
 43
0.0000000001
 40
0.0
 40
0.0
 40
0.0
 40
0.0
 40
1.0
 40
1.0
 40
1.0
 40
1.0
 10
16.15135569183079
 20
-53.5027557971724
 30
0.0
 10
16.1511371055706
 20
-53.51881613501246
 30
0.0
 10
16.15135569183079
 20
-53.53501452733254
 30
0.0
 10
16.15157427809066
 20
-53.55107486517326
 30
0.0
  0
SPLINE
  5
FF
330
70
100
AcDbEntity
  8
Livello 1
370
     9
100
AcDbSpline
210
0.0
220
0.0
230
1.0
 70
     8
 71
     3
 72
     8
 73
     4
 74
     0
 42
0.000000001
 43
0.0000000001
 40
0.0
 40
0.0
 40
0.0
 40
0.0
 40
1.0
 40
1.0
 40
1.0
 40
1.0
 10
18.07056606372731
 20
-52.20844902900147
 30
0.0
 10
18.06757488332726
 20
-52.20716052052131
 30
0.0
 10
18.06415803494732
 20
-52.20591803020116
 30
0.0
 10
18.0611323409271
 20
-52.20485961252167
 30
0.0
  0
SPLINE
  5
100
330
70
100
AcDbEntity
  8
Livello 1
370
     9
100
AcDbSpline
210
0.0
220
0.0
230
1.0
 70
     8
 71
     3
 72
     8
 73
     4
 74
     0
 42
0.000000001
 43
0.0000000001
 40
0.0
 40
0.0
 40
0.0
 40
0.0
 40
1.0
 40
1.0
 40
1.0
 40
1.0
 10
16.83250499161646
 20
-52.31534921468253
 30
0.0
 10
16.82989346103662
 20
-52.31682179580207
 30
0.0
 10
16.82733945315662
 20
-52.31834039508226
 30
0.0
 10
16.82500403153649
 20
-52.31985899436245
 30
0.0
  0
SPLINE
  5
101
330
70
100
AcDbEntity
  8
Livello 1
370
     9
100
AcDbSpline
210
0.0
220
0.0
230
1.0
 70
     8
 71
     3
 72
     8
 73
     4
 74
     0
 42
0.000000001
 43
0.0000000001
 40
0.0
 40
0.0
 40
0.0
 40
0.0
 40
1.0
 40
1.0
 40
1.0
 40
1.0
 10
18.94638368485481
 20
-53.26898354437037
 30
0.0
 10
18.94575093515489
 20
-53.26617643661066
 30
0.0
 10
18.94532526717467
 20
-53.26318525621029
 30
0.0
 10
18.94469251747476
 20
-53.26042416661059
 30
0.0
  0
SPLINE
  5
102
330
70
100
AcDbEntity
  8
Livello 1
370
     9
100
AcDbSpline
210
0.0
220
0.0
230
1.0
 70
     8
 71
     3
 72
     8
 73
     4
 74
     0
 42
0.000000001
 43
0.0000000001
 40
0.0
 40
0.0
 40
0.0
 40
0.0
 40
1.0
 40
1.0
 40
1.0
 40
1.0
 10
18.96755203845486
 20
-53.45554116501232
 30
0.0
 10
18.96755203845486
 20
-53.45254998461195
 30
0.0
 10
18.967333452195
 20
-53.44974287685224
 30
0.0
 10
18.96711486593481
 20
-53.44675169645187
 30
0.0
  0
SPLINE
  5
103
330
70
100
AcDbEntity
  8
Livello 1
370
     9
100
AcDbSpline
210
0.0
220
0.0
230
1.0
 70
     8
 71
     3
 72
     8
 73
     4
 74
     0
 42
0.000000001
 43
0.0000000001
 40
0.0
 40
0.0
 40
0.0
 40
0.0
 40
1.0
 40
1.0
 40
1.0
 40
1.0
 10
16.15176985527084
 20
-53.48526889637216
 30
0.0
 10
16.15157427809066
 20
-53.4880299859725
 30
0.0
 10
16.15157427809066
 20
-53.49102116637222
 30
0.0
 10
16.15157427809066
 20
-53.49405836493261
 30
0.0
  0
SPLINE
  5
104
330
70
100
AcDbEntity
  8
Livello 1
370
     9
100
AcDbSpline
210
0.0
220
0.0
230
1.0
 70
     8
 71
     3
 72
     8
 73
     4
 74
     0
 42
0.000000001
 43
0.0000000001
 40
0.0
 40
0.0
 40
0.0
 40
0.0
 40
1.0
 40
1.0
 40
1.0
 40
1.0
 10
16.15157427809066
 20
-53.49405836493261
 30
0.0
 10
16.15135569183079
 20
-53.49700352717232
 30
0.0
 10
16.15135569183079
 20
-53.49976461677266
 30
0.0
 10
16.15135569183079
 20
-53.5027557971724
 30
0.0
  0
SPLINE
  5
105
330
70
100
AcDbEntity
  8
Livello 1
370
     9
100
AcDbSpline
210
0.0
220
0.0
230
1.0
 70
     8
 71
     3
 72
     8
 73
     4
 74
     0
 42
0.000000001
 43
0.0000000001
 40
0.0
 40
0.0
 40
0.0
 40
0.0
 40
1.0
 40
1.0
 40
1.0
 40
1.0
 10
17.97439961386646
 20
-54.45915121646057
 30
0.0
 10
17.97887487992653
 20
-54.45698836294095
 30
0.0
 10
17.98336165052645
 20
-54.4549175457407
 30
0.0
 10
17.98766434848666
 20
-54.45298478302046
 30
0.0
  0
SPLINE
  5
106
330
70
100
AcDbEntity
  8
Livello 1
370
     9
100
AcDbSpline
210
0.0
220
0.0
230
1.0
 70
     8
 71
     3
 72
     8
 73
     4
 74
     0
 42
0.000000001
 43
0.0000000001
 40
0.0
 40
0.0
 40
0.0
 40
0.0
 40
1.0
 40
1.0
 40
1.0
 40
1.0
 10
17.96863583932622
 20
-54.46154416078087
 30
0.0
 10
17.97054559296646
 20
-54.46066981574077
 30
0.0
 10
17.97247835568638
 20
-54.45984148886066
 30
0.0
 10
17.97439961386646
 20
-54.45915121646057
 30
0.0
  0
SPLINE
  5
107
330
70
100
AcDbEntity
  8
Livello 1
370
     9
100
AcDbSpline
210
0.0
220
0.0
230
1.0
 70
     8
 71
     3
 72
     8
 73
     4
 74
     0
 42
0.000000001
 43
0.0000000001
 40
0.0
 40
0.0
 40
0.0
 40
0.0
 40
1.0
 40
1.0
 40
1.0
 40
1.0
 10
18.58348447509153
 20
-53.57716716189328
 30
0.0
 10
18.58456590185167
 20
-53.55618288093324
 30
0.0
 10
18.58498006529172
 20
-53.53547470893261
 30
0.0
 10
18.58498006529172
 20
-53.51449042797256
 30
0.0
  0
SPLINE
  5
108
330
70
100
AcDbEntity
  8
Livello 1
370
     9
100
AcDbSpline
210
0.0
220
0.0
230
1.0
 70
     8
 71
     3
 72
     8
 73
     4
 74
     0
 42
0.000000001
 43
0.0000000001
 40
0.0
 40
0.0
 40
0.0
 40
0.0
 40
1.0
 40
1.0
 40
1.0
 40
1.0
 10
18.58371456589156
 20
-53.47302806581256
 30
0.0
 10
18.58220747115153
 20
-53.43911268189221
 30
0.0
 10
18.57877911823143
 20
-53.40533535245187
 30
0.0
 10
18.57387818419146
 20
-53.37174209565155
 30
0.0
  0
SPLINE
  5
109
330
70
100
AcDbEntity
  8
Livello 1
370
     9
100
AcDbSpline
210
0.0
220
0.0
230
1.0
 70
     8
 71
     3
 72
     8
 73
     4
 74
     0
 42
0.000000001
 43
0.0000000001
 40
0.0
 40
0.0
 40
0.0
 40
0.0
 40
1.0
 40
1.0
 40
1.0
 40
1.0
 10
17.96154904268631
 20
-54.4644893230206
 30
0.0
 10
17.9658517406462
 20
-54.46278665110103
 30
0.0
 10
17.96991284326622
 20
-54.46085388838079
 30
0.0
 10
17.97415801852627
 20
-54.45915121646057
 30
0.0
  0
SPLINE
  5
10A
330
70
100
AcDbEntity
  8
Livello 1
370
     9
100
AcDbSpline
210
0.0
220
0.0
230
1.0
 70
    24
 71
     3
 72
     8
 73
     4
 74
     0
 42
0.000000001
 43
0.0000000001
 40
0.0
 40
0.0
 40
0.0
 40
0.0
 40
1.0
 40
1.0
 40
1.0
 40
1.0
 10
18.58498006529172
 20
-53.53308176461295
 30
0.0
 10
18.58498006529172
 20
-53.52691533117282
 30
0.0
 10
18.58498006529172
 20
-53.5207488977327
 30
0.0
 10
18.58498006529172
 20
-53.51449042797256
 30
0.0
  0
SPLINE
  5
10B
330
70
100
AcDbEntity
  8
Livello 1
370
     9
100
AcDbSpline
210
0.0
220
0.0
230
1.0
 70
     8
 71
     3
 72
     8
 73
     4
 74
     0
 42
0.000000001
 43
0.0000000001
 40
0.0
 40
0.0
 40
0.0
 40
0.0
 40
1.0
 40
1.0
 40
1.0
 40
1.0
 10
18.58348447509153
 20
-53.57477421757298
 30
0.0
 10
18.58412872933161
 20
-53.56156700565327
 30
0.0
 10
18.58456590185167
 20
-53.54849784821293
 30
0.0
 10
18.58476147903153
 20
-53.53547470893261
 30
0.0
  0
SPLINE
  5
10C
330
70
100
AcDbEntity
  8
Livello 1
370
     9
100
AcDbSpline
210
0.0
220
0.0
230
1.0
 70
     8
 71
     3
 72
     8
 73
     4
 74
     0
 42
0.000000001
 43
0.0000000001
 40
0.0
 40
0.0
 40
0.0
 40
0.0
 40
1.0
 40
1.0
 40
1.0
 40
1.0
 10
18.58091896267169
 20
-53.4313816310119
 30
0.0
 10
18.57858354105157
 20
-53.40533535245187
 30
0.0
 10
18.57538527893149
 20
-53.3792430557312
 30
0.0
 10
18.57109408551144
 20
-53.3533808498112
 30
0.0
  0
SPLINE
  5
10D
330
70
100
AcDbEntity
  8
Livello 1
370
     9
100
AcDbSpline
210
0.0
220
0.0
230
1.0
 70
     8
 71
     3
 72
     8
 73
     4
 74
     0
 42
0.000000001
 43
0.0000000001
 40
0.0
 40
0.0
 40
0.0
 40
0.0
 40
1.0
 40
1.0
 40
1.0
 40
1.0
 10
16.68051851367511
 20
-54.04733470261701
 30
0.0
 10
16.79207803805626
 20
-54.23370825061894
 30
0.0
 10
16.9598372403378
 20
-54.3801380357404
 30
0.0
 10
17.15988968639934
 20
-54.46494950462065
 30
0.0
  0
SPLINE
  5
10F
330
70
100
AcDbEntity
  8
Livello 1
370
     9
100
AcDbSpline
210
0.0
220
0.0
230
1.0
 70
     8
 71
     3
 72
     8
 73
     4
 74
     0
 42
0.000000001
 43
0.0000000001
 40
0.0
 40
0.0
 40
0.0
 40
0.0
 40
1.0
 40
1.0
 40
1.0
 40
1.0
 10
17.97374385508654
 20
-54.45915121646057
 30
0.0
 10
18.36144685308967
 20
-54.28823977021928
 30
0.0
 10
18.60400857445183
 20
-53.89621106517625
 30
0.0
 10
18.58371456589156
 20
-53.47284399317254
 30
0.0
  0
SPLINE
  5
110
330
70
100
AcDbEntity
  8
Livello 1
370
     9
100
AcDbSpline
210
0.0
220
0.0
230
1.0
 70
     8
 71
     3
 72
     8
 73
     4
 74
     0
 42
0.000000001
 43
0.0000000001
 40
0.0
 40
0.0
 40
0.0
 40
0.0
 40
1.0
 40
1.0
 40
1.0
 40
1.0
 10
18.58476147903153
 20
-53.53547470893261
 30
0.0
 10
18.58498006529172
 20
-53.52861800309304
 30
0.0
 10
18.58498006529172
 20
-53.52162324277281
 30
0.0
 10
18.58498006529172
 20
-53.5147205187726
 30
0.0
  0
SPLINE
  5
111
330
70
100
AcDbEntity
  8
Livello 1
370
     9
100
AcDbSpline
210
0.0
220
0.0
230
1.0
 70
     8
 71
     3
 72
     8
 73
     4
 74
     0
 42
0.000000001
 43
0.0000000001
 40
0.0
 40
0.0
 40
0.0
 40
0.0
 40
1.0
 40
1.0
 40
1.0
 40
1.0
 10
18.58456590185167
 20
-53.49382827413258
 30
0.0
 10
18.58434731559148
 20
-53.48692555013236
 30
0.0
 10
18.58412872933161
 20
-53.47993078981214
 30
0.0
 10
18.58371456589156
 20
-53.47302806581256
 30
0.0
  0
SPLINE
  5
112
330
70
100
AcDbEntity
  8
Livello 1
370
     9
100
AcDbSpline
210
0.0
220
0.0
230
1.0
 70
     8
 71
     3
 72
     8
 73
     4
 74
     0
 42
0.000000001
 43
0.0000000001
 40
0.0
 40
0.0
 40
0.0
 40
0.0
 40
1.0
 40
1.0
 40
1.0
 40
1.0
 10
18.58265614821175
 20
-53.45231989381192
 30
0.0
 10
18.58201189397167
 20
-53.44527911533234
 30
0.0
 10
18.58156321691145
 20
-53.43842240949213
 30
0.0
 10
18.58091896267169
 20
-53.43161172181192
 30
0.0
  0
SPLINE
  5
113
330
70
100
AcDbEntity
  8
Livello 1
370
     9
100
AcDbSpline
210
0.0
220
0.0
230
1.0
 70
     8
 71
     3
 72
     8
 73
     4
 74
     0
 42
0.000000001
 43
0.0000000001
 40
0.0
 40
0.0
 40
0.0
 40
0.0
 40
1.0
 40
1.0
 40
1.0
 40
1.0
 10
17.97481377730651
 20
-54.45873705302052
 30
0.0
 10
17.99169093748651
 20
-54.45128211110088
 30
0.0
 10
18.00859110674652
 20
-54.44332096942054
 30
0.0
 10
18.02524968066666
 20
-54.43476159166077
 30
0.0
  0
SPLINE
  5
114
330
70
100
AcDbEntity
  8
Livello 1
370
     9
100
AcDbSpline
210
0.0
220
0.0
230
1.0
 70
     8
 71
     3
 72
     8
 73
     4
 74
     0
 42
0.000000001
 43
0.0000000001
 40
0.0
 40
0.0
 40
0.0
 40
0.0
 40
1.0
 40
1.0
 40
1.0
 40
1.0
 10
18.58091896267169
 20
-53.4313816310119
 30
0.0
 10
18.58050479923164
 20
-53.42521519757177
 30
0.0
 10
18.57986054499156
 20
-53.41918681861166
 30
0.0
 10
18.57922779529165
 20
-53.41302038517154
 30
0.0
  0
SPLINE
  5
115
330
70
100
AcDbEntity
  8
Livello 1
370
     9
100
AcDbSpline
210
0.0
220
0.0
230
1.0
 70
     8
 71
     3
 72
     8
 73
     4
 74
     0
 42
0.000000001
 43
0.0000000001
 40
0.0
 40
0.0
 40
0.0
 40
0.0
 40
1.0
 40
1.0
 40
1.0
 40
1.0
 10
17.96863583932622
 20
-54.46154416078087
 30
0.0
 10
17.97032700670627
 20
-54.46066981574077
 30
0.0
 10
17.97202967862649
 20
-54.46002556150069
 30
0.0
 10
17.97374385508654
 20
-54.45915121646057
 30
0.0
  0
SPLINE
  5
116
330
70
100
AcDbEntity
  8
Livello 1
370
     9
100
AcDbSpline
210
0.0
220
0.0
230
1.0
 70
     8
 71
     3
 72
     8
 73
     4
 74
     0
 42
0.000000001
 43
0.0000000001
 40
0.0
 40
0.0
 40
0.0
 40
0.0
 40
1.0
 40
1.0
 40
1.0
 40
1.0
 10
18.58434731559148
 20
-53.55406604557298
 30
0.0
 10
18.5856243195318
 20
-53.51306386501239
 30
0.0
 10
18.58456590185167
 20
-53.47219973893245
 30
0.0
 10
18.58091896267169
 20
-53.43161172181192
 30
0.0
  0
SPLINE
  5
117
330
70
100
AcDbEntity
  8
Livello 1
370
     9
100
AcDbSpline
210
0.0
220
0.0
230
1.0
 70
     8
 71
     3
 72
     8
 73
     4
 74
     0
 42
0.000000001
 43
0.0000000001
 40
0.0
 40
0.0
 40
0.0
 40
0.0
 40
1.0
 40
1.0
 40
1.0
 40
1.0
 10
17.96073222034637
 20
-54.46494950462065
 30
0.0
 10
17.96561014530633
 20
-54.46278665110103
 30
0.0
 10
17.97032700670627
 20
-54.46085388838079
 30
0.0
 10
17.97522794074624
 20
-54.45873705302052
 30
0.0
  0
SPLINE
  5
118
330
70
100
AcDbEntity
  8
Livello 1
370
     9
100
AcDbSpline
210
0.0
220
0.0
230
1.0
 70
     8
 71
     3
 72
     8
 73
     4
 74
     0
 42
0.000000001
 43
0.0000000001
 40
0.0
 40
0.0
 40
0.0
 40
0.0
 40
1.0
 40
1.0
 40
1.0
 40
1.0
 10
18.58434731559148
 20
-53.55618288093324
 30
0.0
 10
18.58456590185167
 20
-53.54937219325304
 30
0.0
 10
18.58476147903153
 20
-53.54251548741284
 30
0.0
 10
18.58476147903153
 20
-53.53547470893261
 30
0.0
  0
SPLINE
  5
119
330
70
100
AcDbEntity
  8
Livello 1
370
     9
100
AcDbSpline
210
0.0
220
0.0
230
1.0
 70
     8
 71
     3
 72
     8
 73
     4
 74
     0
 42
0.000000001
 43
0.0000000001
 40
0.0
 40
0.0
 40
0.0
 40
0.0
 40
1.0
 40
1.0
 40
1.0
 40
1.0
 10
18.58498006529172
 20
-53.5147205187726
 30
0.0
 10
18.58476147903153
 20
-53.50767974029237
 30
0.0
 10
18.58476147903153
 20
-53.5008230344528
 30
0.0
 10
18.58456590185167
 20
-53.49382827413258
 30
0.0
  0
SPLINE
  5
11A
330
70
100
AcDbEntity
  8
Livello 1
370
     9
100
AcDbSpline
210
0.0
220
0.0
230
1.0
 70
     8
 71
     3
 72
     8
 73
     4
 74
     0
 42
0.000000001
 43
0.0000000001
 40
0.0
 40
0.0
 40
0.0
 40
0.0
 40
1.0
 40
1.0
 40
1.0
 40
1.0
 10
18.58371456589156
 20
-53.47302806581256
 30
0.0
 10
18.58348447509153
 20
-53.46603330549234
 30
0.0
 10
18.58307031165148
 20
-53.45917659965213
 30
0.0
 10
18.58265614821175
 20
-53.45231989381192
 30
0.0
  0
SPLINE
  5
11B
330
70
100
AcDbEntity
  8
Livello 1
370
     9
100
AcDbSpline
210
0.0
220
0.0
230
1.0
 70
     8
 71
     3
 72
     8
 73
     4
 74
     0
 42
0.000000001
 43
0.0000000001
 40
0.0
 40
0.0
 40
0.0
 40
0.0
 40
1.0
 40
1.0
 40
1.0
 40
1.0
 10
18.57922779529165
 20
-53.41302038517154
 30
0.0
 10
18.57858354105157
 20
-53.40676191541205
 30
0.0
 10
18.57773220509146
 20
-53.40082557277195
 30
0.0
 10
18.57707644631154
 20
-53.39465913933183
 30
0.0
  0
SPLINE
  5
11C
330
70
100
AcDbEntity
  8
Livello 1
370
     9
100
AcDbSpline
210
0.0
220
0.0
230
1.0
 70
     8
 71
     3
 72
     8
 73
     4
 74
     0
 42
0.000000001
 43
0.0000000001
 40
0.0
 40
0.0
 40
0.0
 40
0.0
 40
1.0
 40
1.0
 40
1.0
 40
1.0
 10
17.97522794074624
 20
-54.45873705302052
 30
0.0
 10
17.97928904336658
 20
-54.45685030846093
 30
0.0
 10
17.98359174132647
 20
-54.4549175457407
 30
0.0
 10
17.98766434848666
 20
-54.45298478302046
 30
0.0
  0
SPLINE
  5
11E
330
70
100
AcDbEntity
  8
Livello 1
370
     9
100
AcDbSpline
210
0.0
220
0.0
230
1.0
 70
     8
 71
     3
 72
     8
 73
     4
 74
     0
 42
0.000000001
 43
0.0000000001
 40
0.0
 40
0.0
 40
0.0
 40
0.0
 40
1.0
 40
1.0
 40
1.0
 40
1.0
 10
21.78951215961917
 20
-53.49866018093253
 30
0.0
 10
21.7386275791988
 20
-53.11146338268946
 30
0.0
 10
21.50845624741673
 20
-52.77079094420637
 30
0.0
 10
21.1682209814537
 20
-52.57907928964442
 30
0.0
  0
SPLINE
  5
120
330
70
100
AcDbEntity
  8
Livello 1
370
     9
100
AcDbSpline
210
0.0
220
0.0
230
1.0
 70
     8
 71
     3
 72
     8
 73
     4
 74
     0
 42
0.000000001
 43
0.0000000001
 40
0.0
 40
0.0
 40
0.0
 40
0.0
 40
1.0
 40
1.0
 40
1.0
 40
1.0
 10
20.83717784295101
 20
-53.62373753981391
 30
0.0
 10
20.82561578025102
 20
-53.53634905397271
 30
0.0
 10
20.77368428669036
 20
-53.45940669045216
 30
0.0
 10
20.69676493224981
 20
-53.41619563821193
 30
0.0
  0
SPLINE
  5
121
330
70
100
AcDbEntity
  8
Livello 1
370
     9
100
AcDbSpline
210
0.0
220
0.0
230
1.0
 70
     8
 71
     3
 72
     8
 73
     4
 74
     0
 42
0.000000001
 43
0.0000000001
 40
0.0
 40
0.0
 40
0.0
 40
0.0
 40
1.0
 40
1.0
 40
1.0
 40
1.0
 10
81.20844796562954
 20
-63.77157014678073
 30
0.0
 10
81.22064277802977
 20
-63.75960542518053
 30
0.0
 10
81.22726939306994
 20
-63.74317694206041
 30
0.0
 10
81.22705080680944
 20
-63.72605818654022
 30
0.0
  0
SPLINE
  5
122
330
70
100
AcDbEntity
  8
Livello 1
370
     9
100
AcDbSpline
210
0.0
220
0.0
230
1.0
 70
     8
 71
     3
 72
     8
 73
     4
 74
     0
 42
0.000000001
 43
0.0000000001
 40
0.0
 40
0.0
 40
0.0
 40
0.0
 40
1.0
 40
1.0
 40
1.0
 40
1.0
 10
80.24842861624106
 20
-64.713239754869
 30
0.0
 10
80.26552436268159
 20
-64.713239754869
 30
0.0
 10
80.28175726862151
 20
-64.70665915798884
 30
0.0
 10
80.29373349476188
 20
-64.69446434558861
 30
0.0
  0
SPLINE
  5
123
330
70
100
AcDbEntity
  8
Livello 1
370
     9
100
AcDbSpline
210
0.0
220
0.0
230
1.0
 70
     8
 71
     3
 72
     8
 73
     4
 74
     0
 42
0.000000001
 43
0.0000000001
 40
0.0
 40
0.0
 40
0.0
 40
0.0
 40
1.0
 40
1.0
 40
1.0
 40
1.0
 10
81.1849326858692
 20
-58.90091605601909
 30
0.0
 10
81.18471409960932
 20
-58.87463968665905
 30
0.0
 10
81.16335016882908
 20
-58.85324124225832
 30
0.0
 10
81.1370507903887
 20
-58.85324124225832
 30
0.0
  0
SPLINE
  5
124
330
70
100
AcDbEntity
  8
Livello 1
370
     9
100
AcDbSpline
210
0.0
220
0.0
230
1.0
 70
     8
 71
     3
 72
     8
 73
     4
 74
     0
 42
0.000000001
 43
0.0000000001
 40
0.0
 40
0.0
 40
0.0
 40
0.0
 40
1.0
 40
1.0
 40
1.0
 40
1.0
 10
72.71797089561648
 20
-58.48500392593567
 30
0.0
 10
73.24843373048143
 20
-58.48500392593567
 30
0.0
 10
73.6786575083247
 20
-58.05505625705178
 30
0.0
 10
73.6786575083247
 20
-57.52451289040698
 30
0.0
  0
SPLINE
  5
125
330
70
100
AcDbEntity
  8
Livello 1
370
     9
100
AcDbSpline
210
0.0
220
0.0
230
1.0
 70
     8
 71
     3
 72
     8
 73
     4
 74
     0
 42
0.000000001
 43
0.0000000001
 40
0.0
 40
0.0
 40
0.0
 40
0.0
 40
1.0
 40
1.0
 40
1.0
 40
1.0
 10
70.47092715187749
 20
-52.57907928964442
 30
0.0
 10
70.13069188591415
 20
-52.77079094420637
 30
0.0
 10
69.90031347241238
 20
-53.11146338268946
 30
0.0
 10
69.84940588291168
 20
-53.49866018093253
 30
0.0
  0
SPLINE
  5
127
330
70
100
AcDbEntity
  8
Livello 1
370
     9
100
AcDbSpline
210
0.0
220
0.0
230
1.0
 70
     8
 71
     3
 72
     8
 73
     4
 74
     0
 42
0.000000001
 43
0.0000000001
 40
0.0
 40
0.0
 40
0.0
 40
0.0
 40
1.0
 40
1.0
 40
1.0
 40
1.0
 10
70.94237169654123
 20
-53.41619563821193
 30
0.0
 10
70.86547535118068
 20
-53.45940669045216
 30
0.0
 10
70.81354385762034
 20
-53.53634905397271
 30
0.0
 10
70.80197029037987
 20
-53.62373753981391
 30
0.0
  0
SPLINE
  5
128
330
70
100
AcDbEntity
  8
Livello 1
370
     9
100
AcDbSpline
210
0.0
220
0.0
230
1.0
 70
     8
 71
     3
 72
     8
 73
     4
 74
     0
 42
0.000000001
 43
0.0000000001
 40
0.0
 40
0.0
 40
0.0
 40
0.0
 40
1.0
 40
1.0
 40
1.0
 40
1.0
 10
73.08814097466001
 20
-54.52182795038129
 30
0.0
 10
72.97958413521874
 20
-54.57313819878187
 30
0.0
 10
72.88361326253808
 20
-54.64727345454272
 30
0.0
 10
72.80624523103731
 20
-54.73935579270323
 30
0.0
  0
SPLINE
  5
129
330
70
100
AcDbEntity
  8
Livello 1
370
     9
100
AcDbSpline
210
0.0
220
0.0
230
1.0
 70
     8
 71
     3
 72
     8
 73
     4
 74
     0
 42
0.000000001
 43
0.0000000001
 40
0.0
 40
0.0
 40
0.0
 40
0.0
 40
1.0
 40
1.0
 40
1.0
 40
1.0
 10
73.56022977356381
 20
-54.8412860171043
 30
0.0
 10
73.39182631704251
 20
-54.79618822030385
 30
0.0
 10
73.21274664740053
 20
-54.85283657526446
 30
0.0
 10
73.1007614550398
 20
-54.98619720294559
 30
0.0
  0
SPLINE
  5
12A
330
70
100
AcDbEntity
  8
Livello 1
370
     9
100
AcDbSpline
210
0.0
220
0.0
230
1.0
 70
     8
 71
     3
 72
     8
 73
     4
 74
     0
 42
0.000000001
 43
0.0000000001
 40
0.0
 40
0.0
 40
0.0
 40
0.0
 40
1.0
 40
1.0
 40
1.0
 40
1.0
 10
75.47755340090041
 20
-53.69041785365384
 30
0.0
 10
75.48437559312015
 20
-53.63399958949391
 30
0.0
 10
75.48780394604024
 20
-53.57716716189328
 30
0.0
 10
75.48780394604024
 20
-53.52051880693267
 30
0.0
  0
SPLINE
  5
12B
330
70
100
AcDbEntity
  8
Livello 1
370
     9
100
AcDbSpline
210
0.0
220
0.0
230
1.0
 70
     8
 71
     3
 72
     8
 73
     4
 74
     0
 42
0.000000001
 43
0.0000000001
 40
0.0
 40
0.0
 40
0.0
 40
0.0
 40
1.0
 40
1.0
 40
1.0
 40
1.0
 10
73.42517797850263
 20
-54.76991185094316
 30
0.0
 10
73.48075641124295
 20
-54.79899532806356
 30
0.0
 10
73.53801450682379
 20
-54.82421327974412
 30
0.0
 10
73.59700978794404
 20
-54.84574977862422
 30
0.0
  0
SPLINE
  5
12C
330
70
100
AcDbEntity
  8
Livello 1
370
     9
100
AcDbSpline
210
0.0
220
0.0
230
1.0
 70
     8
 71
     3
 72
     8
 73
     4
 74
     0
 42
0.000000001
 43
0.0000000001
 40
0.0
 40
0.0
 40
0.0
 40
0.0
 40
1.0
 40
1.0
 40
1.0
 40
1.0
 10
74.81414410179438
 20
-52.31985899436245
 30
0.0
 10
74.76070551349401
 20
-52.28709406444224
 30
0.0
 10
74.7051500898334
 20
-52.25810262364185
 30
0.0
 10
74.64785748063334
 20
-52.23283865380192
 30
0.0
  0
SPLINE
  5
12D
330
70
100
AcDbEntity
  8
Livello 1
370
     9
100
AcDbSpline
210
0.0
220
0.0
230
1.0
 70
     8
 71
     3
 72
     8
 73
     4
 74
     0
 42
0.000000001
 43
0.0000000001
 40
0.0
 40
0.0
 40
0.0
 40
0.0
 40
1.0
 40
1.0
 40
1.0
 40
1.0
 10
73.26509230440156
 20
-54.67180113382255
 30
0.0
 10
73.31383704038199
 20
-54.706452808303
 30
0.0
 10
73.3647101162622
 20
-54.73765312078302
 30
0.0
 10
73.41749294578232
 20
-54.76586225286331
 30
0.0
  0
SPLINE
  5
12E
330
70
100
AcDbEntity
  8
Livello 1
370
     9
100
AcDbSpline
210
0.0
220
0.0
230
1.0
 70
     8
 71
     3
 72
     8
 73
     4
 74
     0
 42
0.000000001
 43
0.0000000001
 40
0.0
 40
0.0
 40
0.0
 40
0.0
 40
1.0
 40
1.0
 40
1.0
 40
1.0
 10
74.9673730700559
 20
-52.42841583380307
 30
0.0
 10
74.9210097738556
 20
-52.39058890628287
 30
0.0
 10
74.8724951286752
 20
-52.35593723180243
 30
0.0
 10
74.82164506187467
 20
-52.32450682852238
 30
0.0
  0
SPLINE
  5
12F
330
70
100
AcDbEntity
  8
Livello 1
370
     9
100
AcDbSpline
210
0.0
220
0.0
230
1.0
 70
     8
 71
     3
 72
     8
 73
     4
 74
     0
 42
0.000000001
 43
0.0000000001
 40
0.0
 40
0.0
 40
0.0
 40
0.0
 40
1.0
 40
1.0
 40
1.0
 40
1.0
 10
75.39484726283963
 20
-53.01809253604815
 30
0.0
 10
75.3937428269995
 20
-53.01523941012844
 30
0.0
 10
75.39269591385952
 20
-53.01270841132811
 30
0.0
 10
75.39162599163923
 20
-53.00994732172842
 30
0.0
  0
SPLINE
  5
130
330
70
100
AcDbEntity
  8
Livello 1
370
     9
100
AcDbSpline
210
0.0
220
0.0
230
1.0
 70
     8
 71
     3
 72
     8
 73
     4
 74
     0
 42
0.000000001
 43
0.0000000001
 40
0.0
 40
0.0
 40
0.0
 40
0.0
 40
1.0
 40
1.0
 40
1.0
 40
1.0
 10
75.17404062661777
 20
-54.40807105886002
 30
0.0
 10
75.18708677497778
 20
-54.39187266653994
 30
0.0
 10
75.19991433707793
 20
-54.37535214709981
 30
0.0
 10
75.2123047266577
 20
-54.35850950053965
 30
0.0
  0
SPLINE
  5
131
330
70
100
AcDbEntity
  8
Livello 1
370
     9
100
AcDbSpline
210
0.0
220
0.0
230
1.0
 70
     8
 71
     3
 72
     8
 73
     4
 74
     0
 42
0.000000001
 43
0.0000000001
 40
0.0
 40
0.0
 40
0.0
 40
0.0
 40
1.0
 40
1.0
 40
1.0
 40
1.0
 10
74.89964584307536
 20
-52.37669142196308
 30
0.0
 10
74.89727590783539
 20
-52.37498875004287
 30
0.0
 10
74.89492898167509
 20
-52.37324005996264
 30
0.0
 10
74.89255904643512
 20
-52.37153738804308
 30
0.0
  0
SPLINE
  5
132
330
70
100
AcDbEntity
  8
Livello 1
370
     9
100
AcDbSpline
210
0.0
220
0.0
230
1.0
 70
     8
 71
     3
 72
     8
 73
     4
 74
     0
 42
0.000000001
 43
0.0000000001
 40
0.0
 40
0.0
 40
0.0
 40
0.0
 40
1.0
 40
1.0
 40
1.0
 40
1.0
 10
75.05736158193646
 20
-52.50811928692397
 30
0.0
 10
75.05521023295635
 20
-52.5059564334037
 30
0.0
 10
75.05310490213689
 20
-52.5040236706841
 30
0.0
 10
75.05117213941666
 20
-52.50195285348384
 30
0.0
  0
SPLINE
  5
133
330
70
100
AcDbEntity
  8
Livello 1
370
     9
100
AcDbSpline
210
0.0
220
0.0
230
1.0
 70
     8
 71
     3
 72
     8
 73
     4
 74
     0
 42
0.000000001
 43
0.0000000001
 40
0.0
 40
0.0
 40
0.0
 40
0.0
 40
1.0
 40
1.0
 40
1.0
 40
1.0
 10
75.39162599163923
 20
-53.00994732172842
 30
0.0
 10
75.38029401973959
 20
-52.980679771968
 30
0.0
 10
75.36791513469935
 20
-52.95205647644766
 30
0.0
 10
75.35442030927943
 20
-52.92357123540734
 30
0.0
  0
SPLINE
  5
134
330
70
100
AcDbEntity
  8
Livello 1
370
     9
100
AcDbSpline
210
0.0
220
0.0
230
1.0
 70
     8
 71
     3
 72
     8
 73
     4
 74
     0
 42
0.000000001
 43
0.0000000001
 40
0.0
 40
0.0
 40
0.0
 40
0.0
 40
1.0
 40
1.0
 40
1.0
 40
1.0
 10
75.05117213941666
 20
-52.50195285348384
 30
0.0
 10
75.02832412297671
 20
-52.48032431828374
 30
0.0
 10
75.00500442039655
 20
-52.45957012812372
 30
0.0
 10
74.98107497719614
 20
-52.43950621036316
 30
0.0
  0
SPLINE
  5
135
330
70
100
AcDbEntity
  8
Livello 1
370
     9
100
AcDbSpline
210
0.0
220
0.0
230
1.0
 70
     8
 71
     3
 72
     8
 73
     4
 74
     0
 42
0.000000001
 43
0.0000000001
 40
0.0
 40
0.0
 40
0.0
 40
0.0
 40
1.0
 40
1.0
 40
1.0
 40
1.0
 10
73.59700978794404
 20
-54.84574977862422
 30
0.0
 10
73.60727183762404
 20
-54.84943123142404
 30
0.0
 10
73.61753388730402
 20
-54.85306666606384
 30
0.0
 10
73.62780744152416
 20
-54.85647200990428
 30
0.0
  0
SPLINE
  5
136
330
70
100
AcDbEntity
  8
Livello 1
370
     9
100
AcDbSpline
210
0.0
220
0.0
230
1.0
 70
     8
 71
     3
 72
     8
 73
     4
 74
     0
 42
0.000000001
 43
0.0000000001
 40
0.0
 40
0.0
 40
0.0
 40
0.0
 40
1.0
 40
1.0
 40
1.0
 40
1.0
 10
75.42539181654006
 20
-53.1069996211689
 30
0.0
 10
75.41619968907972
 20
-53.07704179900904
 30
0.0
 10
75.40593763939972
 20
-53.04731406764856
 30
0.0
 10
75.39484726283963
 20
-53.01809253604815
 30
0.0
  0
SPLINE
  5
137
330
70
100
AcDbEntity
  8
Livello 1
370
     9
100
AcDbSpline
210
0.0
220
0.0
230
1.0
 70
     8
 71
     3
 72
     8
 73
     4
 74
     0
 42
0.000000001
 43
0.0000000001
 40
0.0
 40
0.0
 40
0.0
 40
0.0
 40
1.0
 40
1.0
 40
1.0
 40
1.0
 10
73.42517797850263
 20
-54.76991185094316
 30
0.0
 10
73.45296144260271
 20
-54.78445358950368
 30
0.0
 10
73.481170574683
 20
-54.79789089222343
 30
0.0
 10
73.50980537474351
 20
-54.81072995886373
 30
0.0
  0
SPLINE
  5
138
330
70
100
AcDbEntity
  8
Livello 1
370
     9
100
AcDbSpline
210
0.0
220
0.0
230
1.0
 70
     8
 71
     3
 72
     8
 73
     4
 74
     0
 42
0.000000001
 43
0.0000000001
 40
0.0
 40
0.0
 40
0.0
 40
0.0
 40
1.0
 40
1.0
 40
1.0
 40
1.0
 10
74.81414410179438
 20
-52.31985899436245
 30
0.0
 10
74.78744206445412
 20
-52.30338449308233
 30
0.0
 10
74.76029135005396
 20
-52.28796840948234
 30
0.0
 10
74.73248487687357
 20
-52.27342667092183
 30
0.0
  0
SPLINE
  5
139
330
70
100
AcDbEntity
  8
Livello 1
370
     9
100
AcDbSpline
210
0.0
220
0.0
230
1.0
 70
     8
 71
     3
 72
     8
 73
     4
 74
     0
 42
0.000000001
 43
0.0000000001
 40
0.0
 40
0.0
 40
0.0
 40
0.0
 40
1.0
 40
1.0
 40
1.0
 40
1.0
 10
75.11080017023683
 20
-52.56260478836431
 30
0.0
 10
75.08749197219683
 20
-52.53743285484439
 30
0.0
 10
75.06334394273657
 20
-52.51327332084397
 30
0.0
 10
75.0381374955968
 20
-52.48994211372364
 30
0.0
  0
SPLINE
  5
13A
330
70
100
AcDbEntity
  8
Livello 1
370
     9
100
AcDbSpline
210
0.0
220
0.0
230
1.0
 70
     8
 71
     3
 72
     8
 73
     4
 74
     0
 42
0.000000001
 43
0.0000000001
 40
0.0
 40
0.0
 40
0.0
 40
0.0
 40
1.0
 40
1.0
 40
1.0
 40
1.0
 10
75.4200307008997
 20
-53.09006493828873
 30
0.0
 10
75.40957307403953
 20
-53.05762213548856
 30
0.0
 10
75.39780392961951
 20
-53.0253173871684
 30
0.0
 10
75.38501088113922
 20
-52.99347282044831
 30
0.0
  0
SPLINE
  5
13C
330
70
100
AcDbEntity
  8
Livello 1
370
     9
100
AcDbSpline
210
0.0
220
0.0
230
1.0
 70
     8
 71
     3
 72
     8
 73
     4
 74
     0
 42
0.000000001
 43
0.0000000001
 40
0.0
 40
0.0
 40
0.0
 40
0.0
 40
1.0
 40
1.0
 40
1.0
 40
1.0
 10
73.59700978794404
 20
-54.84574977862422
 30
0.0
 10
73.62351624810412
 20
-54.85541359222414
 30
0.0
 10
73.65022978998455
 20
-54.86420306078394
 30
0.0
 10
73.67735749530502
 20
-54.8722562387843
 30
0.0
  0
SPLINE
  5
13D
330
70
100
AcDbEntity
  8
Livello 1
370
     9
100
AcDbSpline
210
0.0
220
0.0
230
1.0
 70
     8
 71
     3
 72
     8
 73
     4
 74
     0
 42
0.000000001
 43
0.0000000001
 40
0.0
 40
0.0
 40
0.0
 40
0.0
 40
1.0
 40
1.0
 40
1.0
 40
1.0
 10
74.47926995147138
 20
-54.87253234774433
 30
0.0
 10
74.7729118304344
 20
-54.78555802534383
 30
0.0
 10
75.03023387661663
 20
-54.605166838142
 30
0.0
 10
75.2123047266577
 20
-54.35850950053965
 30
0.0
  0
SPLINE
  5
13E
330
70
100
AcDbEntity
  8
Livello 1
370
     9
100
AcDbSpline
210
0.0
220
0.0
230
1.0
 70
     8
 71
     3
 72
     8
 73
     4
 74
     0
 42
0.000000001
 43
0.0000000001
 40
0.0
 40
0.0
 40
0.0
 40
0.0
 40
1.0
 40
1.0
 40
1.0
 40
1.0
 10
75.44613450215989
 20
-53.86160540885581
 30
0.0
 10
75.59295544164109
 20
-53.27110037973064
 30
0.0
 10
75.34418126867912
 20
-52.65326056356528
 30
0.0
 10
74.82910000379496
 20
-52.32924669900233
 30
0.0
  0
SPLINE
  5
13F
330
70
100
AcDbEntity
  8
Livello 1
370
     9
100
AcDbSpline
210
0.0
220
0.0
230
1.0
 70
     8
 71
     3
 72
     8
 73
     4
 74
     0
 42
0.000000001
 43
0.0000000001
 40
0.0
 40
0.0
 40
0.0
 40
0.0
 40
1.0
 40
1.0
 40
1.0
 40
1.0
 10
73.59700978794404
 20
-54.84574977862422
 30
0.0
 10
73.60471782974403
 20
-54.84860290454394
 30
0.0
 10
73.61240286246435
 20
-54.85136399414428
 30
0.0
 10
73.62031798598405
 20
-54.85389499294395
 30
0.0
  0
SPLINE
  5
140
330
70
100
AcDbEntity
  8
Livello 1
370
     9
100
AcDbSpline
210
0.0
220
0.0
230
1.0
 70
     8
 71
     3
 72
     8
 73
     4
 74
     0
 42
0.000000001
 43
0.0000000001
 40
0.0
 40
0.0
 40
0.0
 40
0.0
 40
1.0
 40
1.0
 40
1.0
 40
1.0
 10
72.67182618567604
 20
-53.44675169645187
 30
0.0
 10
72.67053767719588
 20
-53.47219973893245
 30
0.0
 10
72.66990492749596
 20
-53.4976477814124
 30
0.0
 10
72.66990492749596
 20
-53.52304980573299
 30
0.0
  0
SPLINE
  5
141
330
70
100
AcDbEntity
  8
Livello 1
370
     9
100
AcDbSpline
210
0.0
220
0.0
230
1.0
 70
     8
 71
     3
 72
     8
 73
     4
 74
     0
 42
0.000000001
 43
0.0000000001
 40
0.0
 40
0.0
 40
0.0
 40
0.0
 40
1.0
 40
1.0
 40
1.0
 40
1.0
 10
75.47774897808061
 20
-53.69018776285446
 30
0.0
 10
75.4807516630205
 20
-53.66496981117389
 30
0.0
 10
75.48308708464062
 20
-53.63975185949398
 30
0.0
 10
75.48482427018068
 20
-53.6143498351734
 30
0.0
  0
SPLINE
  5
142
330
70
100
AcDbEntity
  8
Livello 1
370
     9
100
AcDbSpline
210
0.0
220
0.0
230
1.0
 70
     8
 71
     3
 72
     8
 73
     4
 74
     0
 42
0.000000001
 43
0.0000000001
 40
0.0
 40
0.0
 40
0.0
 40
0.0
 40
1.0
 40
1.0
 40
1.0
 40
1.0
 10
75.35079637917914
 20
-52.91570213004765
 30
0.0
 10
75.33732456283892
 20
-52.88744697980735
 30
0.0
 10
75.32281733789888
 20
-52.85946793852709
 30
0.0
 10
75.30763134509893
 20
-52.83236324228695
 30
0.0
  0
SPLINE
  5
143
330
70
100
AcDbEntity
  8
Livello 1
370
     9
100
AcDbSpline
210
0.0
220
0.0
230
1.0
 70
     8
 71
     3
 72
     8
 73
     4
 74
     0
 42
0.000000001
 43
0.0000000001
 40
0.0
 40
0.0
 40
0.0
 40
0.0
 40
1.0
 40
1.0
 40
1.0
 40
1.0
 10
75.4875623507007
 20
-53.5027557971724
 30
0.0
 10
75.48738978260018
 20
-53.47459268325211
 30
0.0
 10
75.48610127412003
 20
-53.4461534603718
 30
0.0
 10
75.48394992514058
 20
-53.41771423749212
 30
0.0
  0
SPLINE
  5
144
330
70
100
AcDbEntity
  8
Livello 1
370
     9
100
AcDbSpline
210
0.0
220
0.0
230
1.0
 70
     8
 71
     3
 72
     8
 73
     4
 74
     0
 42
0.000000001
 43
0.0000000001
 40
0.0
 40
0.0
 40
0.0
 40
0.0
 40
1.0
 40
1.0
 40
1.0
 40
1.0
 10
73.61346128014448
 20
-54.8515480667843
 30
0.0
 10
73.6348482200044
 20
-54.85904902686395
 30
0.0
 10
73.65601657360446
 20
-54.86585971454415
 30
0.0
 10
73.67759909064456
 20
-54.8722562387843
 30
0.0
  0
SPLINE
  5
145
330
70
100
AcDbEntity
  8
Livello 1
370
     9
100
AcDbSpline
210
0.0
220
0.0
230
1.0
 70
     8
 71
     3
 72
     8
 73
     4
 74
     0
 42
0.000000001
 43
0.0000000001
 40
0.0
 40
0.0
 40
0.0
 40
0.0
 40
1.0
 40
1.0
 40
1.0
 40
1.0
 10
73.59700978794404
 20
-54.84574977862422
 30
0.0
 10
73.60215231732389
 20
-54.84768254134382
 30
0.0
 10
73.60746741480422
 20
-54.84943123142404
 30
0.0
 10
73.61263295326438
 20
-54.85136399414428
 30
0.0
  0
SPLINE
  5
146
330
70
100
AcDbEntity
  8
Livello 1
370
     9
100
AcDbSpline
210
0.0
220
0.0
230
1.0
 70
     8
 71
     3
 72
     8
 73
     4
 74
     0
 42
0.000000001
 43
0.0000000001
 40
0.0
 40
0.0
 40
0.0
 40
0.0
 40
1.0
 40
1.0
 40
1.0
 40
1.0
 10
73.59700978794404
 20
-54.84574977862422
 30
0.0
 10
73.59958680490436
 20
-54.84667014182434
 30
0.0
 10
73.60215231732389
 20
-54.84749846870379
 30
0.0
 10
73.60471782974403
 20
-54.84860290454394
 30
0.0
  0
SPLINE
  5
147
330
70
100
AcDbEntity
  8
Livello 1
370
     9
100
AcDbSpline
210
0.0
220
0.0
230
1.0
 70
     8
 71
     3
 72
     8
 73
     4
 74
     0
 42
0.000000001
 43
0.0000000001
 40
0.0
 40
0.0
 40
0.0
 40
0.0
 40
1.0
 40
1.0
 40
1.0
 40
1.0
 10
74.98107497719614
 20
-52.43950621036316
 30
0.0
 10
74.97871654649569
 20
-52.43757344764357
 30
0.0
 10
74.97638112487621
 20
-52.43564068492332
 30
0.0
 10
74.97422977589611
 20
-52.43375394036309
 30
0.0
  0
SPLINE
  5
148
330
70
100
AcDbEntity
  8
Livello 1
370
     9
100
AcDbSpline
210
0.0
220
0.0
230
1.0
 70
     8
 71
     3
 72
     8
 73
     4
 74
     0
 42
0.000000001
 43
0.0000000001
 40
0.0
 40
0.0
 40
0.0
 40
0.0
 40
1.0
 40
1.0
 40
1.0
 40
1.0
 10
73.25078065664107
 20
-54.66158510230258
 30
0.0
 10
73.25315059188105
 20
-54.66324175606278
 30
0.0
 10
73.25549751804134
 20
-54.66517451878237
 30
0.0
 10
73.2578214351213
 20
-54.66687719070258
 30
0.0
  0
SPLINE
  5
149
330
70
100
AcDbEntity
  8
Livello 1
370
     9
100
AcDbSpline
210
0.0
220
0.0
230
1.0
 70
     8
 71
     3
 72
     8
 73
     4
 74
     0
 42
0.000000001
 43
0.0000000001
 40
0.0
 40
0.0
 40
0.0
 40
0.0
 40
1.0
 40
1.0
 40
1.0
 40
1.0
 10
72.67287309881601
 20
-53.42921877749162
 30
0.0
 10
72.67267752163647
 20
-53.43202588525198
 30
0.0
 10
72.67247043991613
 20
-53.4350170656517
 30
0.0
 10
72.6722403491161
 20
-53.43800824605207
 30
0.0
  0
SPLINE
  5
14A
330
70
100
AcDbEntity
  8
Livello 1
370
     9
100
AcDbSpline
210
0.0
220
0.0
230
1.0
 70
     8
 71
     3
 72
     8
 73
     4
 74
     0
 42
0.000000001
 43
0.0000000001
 40
0.0
 40
0.0
 40
0.0
 40
0.0
 40
1.0
 40
1.0
 40
1.0
 40
1.0
 10
75.35442030927943
 20
-52.92357123540734
 30
0.0
 10
75.35336189159931
 20
-52.92104023660766
 30
0.0
 10
75.35209639219947
 20
-52.91823312884732
 30
0.0
 10
75.35079637917914
 20
-52.91570213004765
 30
0.0
  0
SPLINE
  5
14B
330
70
100
AcDbEntity
  8
Livello 1
370
     9
100
AcDbSpline
210
0.0
220
0.0
230
1.0
 70
     8
 71
     3
 72
     8
 73
     4
 74
     0
 42
0.000000001
 43
0.0000000001
 40
0.0
 40
0.0
 40
0.0
 40
0.0
 40
1.0
 40
1.0
 40
1.0
 40
1.0
 10
73.61263295326438
 20
-54.85136399414428
 30
0.0
 10
73.61838522326445
 20
-54.85329675686387
 30
0.0
 10
73.62437908860407
 20
-54.85541359222414
 30
0.0
 10
73.63013135860414
 20
-54.85730033678437
 30
0.0
  0
SPLINE
  5
14C
330
70
100
AcDbEntity
  8
Livello 1
370
     9
100
AcDbSpline
210
0.0
220
0.0
230
1.0
 70
     8
 71
     3
 72
     8
 73
     4
 74
     0
 42
0.000000001
 43
0.0000000001
 40
0.0
 40
0.0
 40
0.0
 40
0.0
 40
1.0
 40
1.0
 40
1.0
 40
1.0
 10
73.25078065664107
 20
-54.66158510230258
 30
0.0
 10
73.25549751804134
 20
-54.66517451878237
 30
0.0
 10
73.26019137036128
 20
-54.66857986262279
 30
0.0
 10
73.26509230440156
 20
-54.67180113382255
 30
0.0
  0
SPLINE
  5
14D
330
70
100
AcDbEntity
  8
Livello 1
370
     9
100
AcDbSpline
210
0.0
220
0.0
230
1.0
 70
     8
 71
     3
 72
     8
 73
     4
 74
     0
 42
0.000000001
 43
0.0000000001
 40
0.0
 40
0.0
 40
0.0
 40
0.0
 40
1.0
 40
1.0
 40
1.0
 40
1.0
 10
74.82910000379496
 20
-52.32924669900233
 30
0.0
 10
74.82421057429483
 20
-52.32602542780257
 30
0.0
 10
74.81904503583468
 20
-52.32285017476218
 30
0.0
 10
74.81414410179438
 20
-52.31985899436245
 30
0.0
  0
SPLINE
  5
14E
330
70
100
AcDbEntity
  8
Livello 1
370
     9
100
AcDbSpline
210
0.0
220
0.0
230
1.0
 70
     8
 71
     3
 72
     8
 73
     4
 74
     0
 42
0.000000001
 43
0.0000000001
 40
0.0
 40
0.0
 40
0.0
 40
0.0
 40
1.0
 40
1.0
 40
1.0
 40
1.0
 10
74.98107497719614
 20
-52.43950621036316
 30
0.0
 10
74.97656519751624
 20
-52.43564068492332
 30
0.0
 10
74.97189435427597
 20
-52.43200525028352
 30
0.0
 10
74.9673730700559
 20
-52.42841583380307
 30
0.0
  0
SPLINE
  5
14F
330
70
100
AcDbEntity
  8
Livello 1
370
     9
100
AcDbSpline
210
0.0
220
0.0
230
1.0
 70
     8
 71
     3
 72
     8
 73
     4
 74
     0
 42
0.000000001
 43
0.0000000001
 40
0.0
 40
0.0
 40
0.0
 40
0.0
 40
1.0
 40
1.0
 40
1.0
 40
1.0
 10
73.40956631772247
 20
-54.76158256398342
 30
0.0
 10
73.41469734256278
 20
-54.76434365358311
 30
0.0
 10
73.42004695366232
 20
-54.76715076134347
 30
0.0
 10
73.42517797850263
 20
-54.76991185094316
 30
0.0
  0
SPLINE
  5
150
330
70
100
AcDbEntity
  8
Livello 1
370
     9
100
AcDbSpline
210
0.0
220
0.0
230
1.0
 70
     8
 71
     3
 72
     8
 73
     4
 74
     0
 42
0.000000001
 43
0.0000000001
 40
0.0
 40
0.0
 40
0.0
 40
0.0
 40
1.0
 40
1.0
 40
1.0
 40
1.0
 10
73.60471782974403
 20
-54.84860290454394
 30
0.0
 10
73.60769750560425
 20
-54.84961530406406
 30
0.0
 10
73.61070019054413
 20
-54.8506737217442
 30
0.0
 10
73.61346128014448
 20
-54.8515480667843
 30
0.0
  0
SPLINE
  5
151
330
70
100
AcDbEntity
  8
Livello 1
370
     9
100
AcDbSpline
210
0.0
220
0.0
230
1.0
 70
     8
 71
     3
 72
     8
 73
     4
 74
     0
 42
0.000000001
 43
0.0000000001
 40
0.0
 40
0.0
 40
0.0
 40
0.0
 40
1.0
 40
1.0
 40
1.0
 40
1.0
 10
74.97422977589611
 20
-52.43375394036309
 30
0.0
 10
74.97189435427597
 20
-52.43200525028352
 30
0.0
 10
74.96974300529586
 20
-52.43007248756327
 30
0.0
 10
74.9673730700559
 20
-52.42818574300304
 30
0.0
  0
SPLINE
  5
152
330
70
100
AcDbEntity
  8
Livello 1
370
     9
100
AcDbSpline
210
0.0
220
0.0
230
1.0
 70
     8
 71
     3
 72
     8
 73
     4
 74
     0
 42
0.000000001
 43
0.0000000001
 40
0.0
 40
0.0
 40
0.0
 40
0.0
 40
1.0
 40
1.0
 40
1.0
 40
1.0
 10
73.2578214351213
 20
-54.66687719070258
 30
0.0
 10
73.26019137036128
 20
-54.66857986262279
 30
0.0
 10
73.26274537824128
 20
-54.67014448006235
 30
0.0
 10
73.26509230440156
 20
-54.67180113382255
 30
0.0
  0
SPLINE
  5
153
330
70
100
AcDbEntity
  8
Livello 1
370
     9
100
AcDbSpline
210
0.0
220
0.0
230
1.0
 70
     8
 71
     3
 72
     8
 73
     4
 74
     0
 42
0.000000001
 43
0.0000000001
 40
0.0
 40
0.0
 40
0.0
 40
0.0
 40
1.0
 40
1.0
 40
1.0
 40
1.0
 10
73.41749294578232
 20
-54.76586225286331
 30
0.0
 10
73.42004695366232
 20
-54.76715076134347
 30
0.0
 10
73.42261246608249
 20
-54.76843926982362
 30
0.0
 10
73.42517797850263
 20
-54.76991185094316
 30
0.0
  0
SPLINE
  5
154
330
70
100
AcDbEntity
  8
Livello 1
370
     9
100
AcDbSpline
210
0.0
220
0.0
230
1.0
 70
     8
 71
     3
 72
     8
 73
     4
 74
     0
 42
0.000000001
 43
0.0000000001
 40
0.0
 40
0.0
 40
0.0
 40
0.0
 40
1.0
 40
1.0
 40
1.0
 40
1.0
 10
72.6722403491161
 20
-53.43800824605207
 30
0.0
 10
72.6722403491161
 20
-53.44081535381178
 30
0.0
 10
72.67204477193591
 20
-53.44380653421215
 30
0.0
 10
72.67182618567604
 20
-53.44675169645187
 30
0.0
  0
SPLINE
  5
155
330
70
100
AcDbEntity
  8
Livello 1
370
     9
100
AcDbSpline
210
0.0
220
0.0
230
1.0
 70
     8
 71
     3
 72
     8
 73
     4
 74
     0
 42
0.000000001
 43
0.0000000001
 40
0.0
 40
0.0
 40
0.0
 40
0.0
 40
1.0
 40
1.0
 40
1.0
 40
1.0
 10
74.82164506187467
 20
-52.32450682852238
 30
0.0
 10
74.81904503583468
 20
-52.32285017476218
 30
0.0
 10
74.81670961421454
 20
-52.32128555732263
 30
0.0
 10
74.81414410179438
 20
-52.31985899436245
 30
0.0
  0
SPLINE
  5
156
330
70
100
AcDbEntity
  8
Livello 1
370
     9
100
AcDbSpline
210
0.0
220
0.0
230
1.0
 70
    24
 71
     3
 72
     8
 73
     4
 74
     0
 42
0.000000001
 43
0.0000000001
 40
0.0
 40
0.0
 40
0.0
 40
0.0
 40
1.0
 40
1.0
 40
1.0
 40
1.0
 10
75.48780394604024
 20
-53.52051880693267
 30
0.0
 10
75.48780394604024
 20
-53.51752762653294
 30
0.0
 10
75.48780394604024
 20
-53.51449042797256
 30
0.0
 10
75.48780394604024
 20
-53.51154526573285
 30
0.0
  0
SPLINE
  5
157
330
70
100
AcDbEntity
  8
Livello 1
370
     9
100
AcDbSpline
210
0.0
220
0.0
230
1.0
 70
     8
 71
     3
 72
     8
 73
     4
 74
     0
 42
0.000000001
 43
0.0000000001
 40
0.0
 40
0.0
 40
0.0
 40
0.0
 40
1.0
 40
1.0
 40
1.0
 40
1.0
 10
75.48780394604024
 20
-53.51154526573285
 30
0.0
 10
75.48780394604024
 20
-53.5087841761325
 30
0.0
 10
75.48780394604024
 20
-53.50579299573277
 30
0.0
 10
75.4875623507007
 20
-53.5027557971724
 30
0.0
  0
SPLINE
  5
158
330
70
100
AcDbEntity
  8
Livello 1
370
     9
100
AcDbSpline
210
0.0
220
0.0
230
1.0
 70
     8
 71
     3
 72
     8
 73
     4
 74
     0
 42
0.000000001
 43
0.0000000001
 40
0.0
 40
0.0
 40
0.0
 40
0.0
 40
1.0
 40
1.0
 40
1.0
 40
1.0
 10
75.10288504671713
 20
-53.48715564093239
 30
0.0
 10
75.10244787419676
 20
-53.47390241085203
 30
0.0
 10
75.10180361995733
 20
-53.46087927157234
 30
0.0
 10
75.10096378853706
 20
-53.44785613229201
 30
0.0
  0
SPLINE
  5
159
330
70
100
AcDbEntity
  8
Livello 1
370
     9
100
AcDbSpline
210
0.0
220
0.0
230
1.0
 70
     8
 71
     3
 72
     8
 73
     4
 74
     0
 42
0.000000001
 43
0.0000000001
 40
0.0
 40
0.0
 40
0.0
 40
0.0
 40
1.0
 40
1.0
 40
1.0
 40
1.0
 10
73.05417957257964
 20
-53.53547470893261
 30
0.0
 10
73.05438665429935
 20
-53.54849784821293
 30
0.0
 10
73.0548008177394
 20
-53.56170506013328
 30
0.0
 10
73.05544507197947
 20
-53.57477421757298
 30
0.0
  0
SPLINE
  5
15A
330
70
100
AcDbEntity
  8
Livello 1
370
     9
100
AcDbSpline
210
0.0
220
0.0
230
1.0
 70
     8
 71
     3
 72
     8
 73
     4
 74
     0
 42
0.000000001
 43
0.0000000001
 40
0.0
 40
0.0
 40
0.0
 40
0.0
 40
1.0
 40
1.0
 40
1.0
 40
1.0
 10
74.54378741179232
 20
-52.60857693020486
 30
0.0
 10
74.53759796927251
 20
-52.60535565900511
 30
0.0
 10
74.5313970222119
 20
-52.60241049676475
 30
0.0
 10
74.52518457061242
 20
-52.59937329820502
 30
0.0
  0
SPLINE
  5
15B
330
70
100
AcDbEntity
  8
Livello 1
370
     9
100
AcDbSpline
210
0.0
220
0.0
230
1.0
 70
     8
 71
     3
 72
     8
 73
     4
 74
     0
 42
0.000000001
 43
0.0000000001
 40
0.0
 40
0.0
 40
0.0
 40
0.0
 40
1.0
 40
1.0
 40
1.0
 40
1.0
 10
74.44869088415112
 20
-52.56605615036473
 30
0.0
 10
74.43007653843105
 20
-52.5589693537245
 30
0.0
 10
74.4110595338111
 20
-52.55215866604429
 30
0.0
 10
74.39203102465099
 20
-52.54613028708419
 30
0.0
  0
SPLINE
  5
15C
330
70
100
AcDbEntity
  8
Livello 1
370
     9
100
AcDbSpline
210
0.0
220
0.0
230
1.0
 70
    24
 71
     3
 72
     8
 73
     4
 74
     0
 42
0.000000001
 43
0.0000000001
 40
0.0
 40
0.0
 40
0.0
 40
0.0
 40
1.0
 40
1.0
 40
1.0
 40
1.0
 10
73.05417957257964
 20
-53.5147205187726
 30
0.0
 10
73.05417957257964
 20
-53.5207488977327
 30
0.0
 10
73.05417957257964
 20
-53.52691533117282
 30
0.0
 10
73.05417957257964
 20
-53.53308176461295
 30
0.0
  0
SPLINE
  5
15D
330
70
100
AcDbEntity
  8
Livello 1
370
     9
100
AcDbSpline
210
0.0
220
0.0
230
1.0
 70
     8
 71
     3
 72
     8
 73
     4
 74
     0
 42
0.000000001
 43
0.0000000001
 40
0.0
 40
0.0
 40
0.0
 40
0.0
 40
1.0
 40
1.0
 40
1.0
 40
1.0
 10
75.10244787419676
 20
-53.5681936206928
 30
0.0
 10
75.10288504671713
 20
-53.56110682405321
 30
0.0
 10
75.10308062389731
 20
-53.55429613637301
 30
0.0
 10
75.10331071469734
 20
-53.54720933973277
 30
0.0
  0
SPLINE
  5
15E
330
70
100
AcDbEntity
  8
Livello 1
370
     9
100
AcDbSpline
210
0.0
220
0.0
230
1.0
 70
     8
 71
     3
 72
     8
 73
     4
 74
     0
 42
0.000000001
 43
0.0000000001
 40
0.0
 40
0.0
 40
0.0
 40
0.0
 40
1.0
 40
1.0
 40
1.0
 40
1.0
 10
73.65129971220484
 20
-54.45298478302046
 30
0.0
 10
73.6600546671448
 20
-54.45698836294095
 30
0.0
 10
73.66860254036506
 20
-54.46085388838079
 30
0.0
 10
73.67759909064456
 20
-54.4644893230206
 30
0.0
  0
SPLINE
  5
15F
330
70
100
AcDbEntity
  8
Livello 1
370
     9
100
AcDbSpline
210
0.0
220
0.0
230
1.0
 70
     8
 71
     3
 72
     8
 73
     4
 74
     0
 42
0.000000001
 43
0.0000000001
 40
0.0
 40
0.0
 40
0.0
 40
0.0
 40
1.0
 40
1.0
 40
1.0
 40
1.0
 10
74.56239025297222
 20
-52.61824074380478
 30
0.0
 10
74.55618930591225
 20
-52.61497345444502
 30
0.0
 10
74.54999986339244
 20
-52.61175218324463
 30
0.0
 10
74.54378741179232
 20
-52.60857693020486
 30
0.0
  0
SPLINE
  5
160
330
70
100
AcDbEntity
  8
Livello 1
370
     9
100
AcDbSpline
210
0.0
220
0.0
230
1.0
 70
     8
 71
     3
 72
     8
 73
     4
 74
     0
 42
0.000000001
 43
0.0000000001
 40
0.0
 40
0.0
 40
0.0
 40
0.0
 40
1.0
 40
1.0
 40
1.0
 40
1.0
 10
73.63462963374454
 20
-54.44511567766077
 30
0.0
 10
73.64637576908423
 20
-54.45082192950083
 30
0.0
 10
73.65836349976475
 20
-54.45616003606085
 30
0.0
 10
73.67032822136495
 20
-54.46154416078087
 30
0.0
  0
SPLINE
  5
161
330
70
100
AcDbEntity
  8
Livello 1
370
     9
100
AcDbSpline
210
0.0
220
0.0
230
1.0
 70
     8
 71
     3
 72
     8
 73
     4
 74
     0
 42
0.000000001
 43
0.0000000001
 40
0.0
 40
0.0
 40
0.0
 40
0.0
 40
1.0
 40
1.0
 40
1.0
 40
1.0
 10
74.54185464907208
 20
-52.60751851252474
 30
0.0
 10
74.53633246987203
 20
-52.60471140476504
 30
0.0
 10
74.53076427251199
 20
-52.60195031516469
 30
0.0
 10
74.5250004979724
 20
-52.59937329820502
 30
0.0
  0
SPLINE
  5
162
330
70
100
AcDbEntity
  8
Livello 1
370
     9
100
AcDbSpline
210
0.0
220
0.0
230
1.0
 70
     8
 71
     3
 72
     8
 73
     4
 74
     0
 42
0.000000001
 43
0.0000000001
 40
0.0
 40
0.0
 40
0.0
 40
0.0
 40
1.0
 40
1.0
 40
1.0
 40
1.0
 10
75.09968678459705
 20
-53.60960996469345
 30
0.0
 10
75.10033103883714
 20
-53.60279927701324
 30
0.0
 10
75.10096378853706
 20
-53.59571248037365
 30
0.0
 10
75.1013779519771
 20
-53.58890179269344
 30
0.0
  0
SPLINE
  5
163
330
70
100
AcDbEntity
  8
Livello 1
370
     9
100
AcDbSpline
210
0.0
220
0.0
230
1.0
 70
     8
 71
     3
 72
     8
 73
     4
 74
     0
 42
0.000000001
 43
0.0000000001
 40
0.0
 40
0.0
 40
0.0
 40
0.0
 40
1.0
 40
1.0
 40
1.0
 40
1.0
 10
73.05630791247942
 20
-53.45448274733218
 30
0.0
 10
73.05585923541953
 20
-53.46147750765242
 30
0.0
 10
73.05544507197947
 20
-53.46838023165198
 30
0.0
 10
73.05522648571962
 20
-53.47519091933219
 30
0.0
  0
SPLINE
  5
164
330
70
100
AcDbEntity
  8
Livello 1
370
     9
100
AcDbSpline
210
0.0
220
0.0
230
1.0
 70
     8
 71
     3
 72
     8
 73
     4
 74
     0
 42
0.000000001
 43
0.0000000001
 40
0.0
 40
0.0
 40
0.0
 40
0.0
 40
1.0
 40
1.0
 40
1.0
 40
1.0
 10
73.05992033803955
 20
-53.41302038517154
 30
0.0
 10
73.05928758833963
 20
-53.41983107285174
 30
0.0
 10
73.05842474783969
 20
-53.42691786949198
 30
0.0
 10
73.05801058439964
 20
-53.43368253901218
 30
0.0
  0
SPLINE
  5
165
330
70
100
AcDbEntity
  8
Livello 1
370
     9
100
AcDbSpline
210
0.0
220
0.0
230
1.0
 70
     8
 71
     3
 72
     8
 73
     4
 74
     0
 42
0.000000001
 43
0.0000000001
 40
0.0
 40
0.0
 40
0.0
 40
0.0
 40
1.0
 40
1.0
 40
1.0
 40
1.0
 10
74.43136504691121
 20
-52.55965962612458
 30
0.0
 10
74.42494551359138
 20
-52.55726668180429
 30
0.0
 10
74.41833040309136
 20
-52.55491975564464
 30
0.0
 10
74.41192237431105
 20
-52.55257282948434
 30
0.0
  0
SPLINE
  5
166
330
70
100
AcDbEntity
  8
Livello 1
370
     9
100
AcDbSpline
210
0.0
220
0.0
230
1.0
 70
     8
 71
     3
 72
     8
 73
     4
 74
     0
 42
0.000000001
 43
0.0000000001
 40
0.0
 40
0.0
 40
0.0
 40
0.0
 40
1.0
 40
1.0
 40
1.0
 40
1.0
 10
73.05417957257964
 20
-53.51449042797256
 30
0.0
 10
73.05417957257964
 20
-53.52778967621294
 30
0.0
 10
73.05417957257964
 20
-53.54081281549262
 30
0.0
 10
73.05457072693937
 20
-53.55406604557298
 30
0.0
  0
SPLINE
  5
169
330
70
100
AcDbEntity
  8
Livello 1
370
     9
100
AcDbSpline
210
0.0
220
0.0
230
1.0
 70
     8
 71
     3
 72
     8
 73
     4
 74
     0
 42
0.000000001
 43
0.0000000001
 40
0.0
 40
0.0
 40
0.0
 40
0.0
 40
1.0
 40
1.0
 40
1.0
 40
1.0
 10
75.10225229701721
 20
-53.57026443789306
 30
0.0
 10
75.10267796499679
 20
-53.56349976837287
 30
0.0
 10
75.10288504671713
 20
-53.55664306253331
 30
0.0
 10
75.10308062389731
 20
-53.54960228405307
 30
0.0
  0
SPLINE
  5
16A
330
70
100
AcDbEntity
  8
Livello 1
370
     9
100
AcDbSpline
210
0.0
220
0.0
230
1.0
 70
     8
 71
     3
 72
     8
 73
     4
 74
     0
 42
0.000000001
 43
0.0000000001
 40
0.0
 40
0.0
 40
0.0
 40
0.0
 40
1.0
 40
1.0
 40
1.0
 40
1.0
 10
73.05417957257964
 20
-53.53547470893261
 30
0.0
 10
73.05438665429935
 20
-53.54251548741284
 30
0.0
 10
73.05457072693937
 20
-53.54937219325304
 30
0.0
 10
73.0548008177394
 20
-53.55618288093324
 30
0.0
  0
SPLINE
  5
16B
330
70
100
AcDbEntity
  8
Livello 1
370
     9
100
AcDbSpline
210
0.0
220
0.0
230
1.0
 70
     8
 71
     3
 72
     8
 73
     4
 74
     0
 42
0.000000001
 43
0.0000000001
 40
0.0
 40
0.0
 40
0.0
 40
0.0
 40
1.0
 40
1.0
 40
1.0
 40
1.0
 10
74.54378741179232
 20
-52.60857693020486
 30
0.0
 10
74.53759796927251
 20
-52.60535565900511
 30
0.0
 10
74.5313970222119
 20
-52.60241049676475
 30
0.0
 10
74.52518457061242
 20
-52.59937329820502
 30
0.0
  0
SPLINE
  5
16C
330
70
100
AcDbEntity
  8
Livello 1
370
     9
100
AcDbSpline
210
0.0
220
0.0
230
1.0
 70
     8
 71
     3
 72
     8
 73
     4
 74
     0
 42
0.000000001
 43
0.0000000001
 40
0.0
 40
0.0
 40
0.0
 40
0.0
 40
1.0
 40
1.0
 40
1.0
 40
1.0
 10
73.05522648571962
 20
-53.47519091933219
 30
0.0
 10
73.0548008177394
 20
-53.48223169781242
 30
0.0
 10
73.05457072693937
 20
-53.48931849445266
 30
0.0
 10
73.05438665429935
 20
-53.49612918213221
 30
0.0
  0
SPLINE
  5
16D
330
70
100
AcDbEntity
  8
Livello 1
370
     9
100
AcDbSpline
210
0.0
220
0.0
230
1.0
 70
     8
 71
     3
 72
     8
 73
     4
 74
     0
 42
0.000000001
 43
0.0000000001
 40
0.0
 40
0.0
 40
0.0
 40
0.0
 40
1.0
 40
1.0
 40
1.0
 40
1.0
 10
75.1013779519771
 20
-53.58890179269344
 30
0.0
 10
75.10180361995733
 20
-53.58209110501324
 30
0.0
 10
75.10225229701721
 20
-53.57500430837301
 30
0.0
 10
75.10244787419676
 20
-53.5681936206928
 30
0.0
  0
SPLINE
  5
16E
330
70
100
AcDbEntity
  8
Livello 1
370
     9
100
AcDbSpline
210
0.0
220
0.0
230
1.0
 70
     8
 71
     3
 72
     8
 73
     4
 74
     0
 42
0.000000001
 43
0.0000000001
 40
0.0
 40
0.0
 40
0.0
 40
0.0
 40
1.0
 40
1.0
 40
1.0
 40
1.0
 10
74.44869088415112
 20
-52.56605615036473
 30
0.0
 10
74.44291560507136
 20
-52.56389329684446
 30
0.0
 10
74.43715183053114
 20
-52.5617764614842
 30
0.0
 10
74.43136504691121
 20
-52.55965962612458
 30
0.0
  0
SPLINE
  5
16F
330
70
100
AcDbEntity
  8
Livello 1
370
     9
100
AcDbSpline
210
0.0
220
0.0
230
1.0
 70
     8
 71
     3
 72
     8
 73
     4
 74
     0
 42
0.000000001
 43
0.0000000001
 40
0.0
 40
0.0
 40
0.0
 40
0.0
 40
1.0
 40
1.0
 40
1.0
 40
1.0
 10
73.65149528938438
 20
-54.45298478302046
 30
0.0
 10
73.66027325340467
 20
-54.45698836294095
 30
0.0
 10
73.66924679460449
 20
-54.46108397918082
 30
0.0
 10
73.67823184034513
 20
-54.46494950462065
 30
0.0
  0
SPLINE
  5
170
330
70
100
AcDbEntity
  8
Livello 1
370
     9
100
AcDbSpline
210
0.0
220
0.0
230
1.0
 70
     8
 71
     3
 72
     8
 73
     4
 74
     0
 42
0.000000001
 43
0.0000000001
 40
0.0
 40
0.0
 40
0.0
 40
0.0
 40
1.0
 40
1.0
 40
1.0
 40
1.0
 10
73.67032822136495
 20
-54.46154416078087
 30
0.0
 10
73.67289373378446
 20
-54.46260257846101
 30
0.0
 10
73.67524065994476
 20
-54.46361497798113
 30
0.0
 10
73.67779466782476
 20
-54.46471941382062
 30
0.0
  0
SPLINE
  5
171
330
70
100
AcDbEntity
  8
Livello 1
370
     9
100
AcDbSpline
210
0.0
220
0.0
230
1.0
 70
     8
 71
     3
 72
     8
 73
     4
 74
     0
 42
0.000000001
 43
0.0000000001
 40
0.0
 40
0.0
 40
0.0
 40
0.0
 40
1.0
 40
1.0
 40
1.0
 40
1.0
 10
75.10288504671713
 20
-53.48715564093239
 30
0.0
 10
75.10267796499679
 20
-53.48016088061216
 30
0.0
 10
75.10244787419676
 20
-53.47325815661259
 30
0.0
 10
75.10203371075736
 20
-53.46644746893239
 30
0.0
  0
SPLINE
  5
172
330
70
100
AcDbEntity
  8
Livello 1
370
     9
100
AcDbSpline
210
0.0
220
0.0
230
1.0
 70
     8
 71
     3
 72
     8
 73
     4
 74
     0
 42
0.000000001
 43
0.0000000001
 40
0.0
 40
0.0
 40
0.0
 40
0.0
 40
1.0
 40
1.0
 40
1.0
 40
1.0
 10
74.4871390568317
 20
-52.58184037924476
 30
0.0
 10
74.47456459461192
 20
-52.57631820004473
 30
0.0
 10
74.46171402343146
 20
-52.57116416612472
 30
0.0
 10
74.44869088415112
 20
-52.56605615036473
 30
0.0
  0
SPLINE
  5
173
330
70
100
AcDbEntity
  8
Livello 1
370
     9
100
AcDbSpline
210
0.0
220
0.0
230
1.0
 70
     8
 71
     3
 72
     8
 73
     4
 74
     0
 42
0.000000001
 43
0.0000000001
 40
0.0
 40
0.0
 40
0.0
 40
0.0
 40
1.0
 40
1.0
 40
1.0
 40
1.0
 10
74.56025040853226
 20
-52.61713630796465
 30
0.0
 10
74.54872285945246
 20
-52.61092385636516
 30
0.0
 10
74.53697672411211
 20
-52.60494149556507
 30
0.0
 10
74.52518457061242
 20
-52.59937329820502
 30
0.0
  0
LINE
  5
174
330
70
100
AcDbEntity
  8
Livello 1
370
     9
100
AcDbLine
 10
73.66539277370482
 20
-54.45915121646057
 30
0.0
 11
73.6673140318849
 21
-54.46025565230072
 31
0.0
  0
SPLINE
  5
175
330
70
100
AcDbEntity
  8
Livello 1
370
     9
100
AcDbSpline
210
0.0
220
0.0
230
1.0
 70
     8
 71
     3
 72
     8
 73
     4
 74
     0
 42
0.000000001
 43
0.0000000001
 40
0.0
 40
0.0
 40
0.0
 40
0.0
 40
1.0
 40
1.0
 40
1.0
 40
1.0
 10
73.66817687238484
 20
-54.46066981574077
 30
0.0
 10
73.67161672984448
 20
-54.46195832422093
 30
0.0
 10
73.67504508276457
 20
-54.46347692350111
 30
0.0
 10
73.67842741752467
 20
-54.46494950462065
 30
0.0
  0
SPLINE
  5
176
330
70
100
AcDbEntity
  8
Livello 1
370
     9
100
AcDbSpline
210
0.0
220
0.0
230
1.0
 70
     8
 71
     3
 72
     8
 73
     4
 74
     0
 42
0.000000001
 43
0.0000000001
 40
0.0
 40
0.0
 40
0.0
 40
0.0
 40
1.0
 40
1.0
 40
1.0
 40
1.0
 10
74.56239025297222
 20
-52.61824074380478
 30
0.0
 10
74.55618930591225
 20
-52.61497345444502
 30
0.0
 10
74.54999986339244
 20
-52.61175218324463
 30
0.0
 10
74.54378741179232
 20
-52.60857693020486
 30
0.0
  0
SPLINE
  5
177
330
70
100
AcDbEntity
  8
Livello 1
370
     9
100
AcDbSpline
210
0.0
220
0.0
230
1.0
 70
     8
 71
     3
 72
     8
 73
     4
 74
     0
 42
0.000000001
 43
0.0000000001
 40
0.0
 40
0.0
 40
0.0
 40
0.0
 40
1.0
 40
1.0
 40
1.0
 40
1.0
 10
75.10115936571724
 20
-53.5912487188531
 30
0.0
 10
75.1016195473173
 20
-53.58439201301353
 30
0.0
 10
75.10203371075736
 20
-53.57735123453331
 30
0.0
 10
75.10225229701721
 20
-53.57026443789306
 30
0.0
  0
SPLINE
  5
178
330
70
100
AcDbEntity
  8
Livello 1
370
     9
100
AcDbSpline
210
0.0
220
0.0
230
1.0
 70
     8
 71
     3
 72
     8
 73
     4
 74
     0
 42
0.000000001
 43
0.0000000001
 40
0.0
 40
0.0
 40
0.0
 40
0.0
 40
1.0
 40
1.0
 40
1.0
 40
1.0
 10
73.65129971220484
 20
-54.45298478302046
 30
0.0
 10
73.6577077409845
 20
-54.45597596342082
 30
0.0
 10
73.66388567896478
 20
-54.45873705302052
 30
0.0
 10
73.67032822136495
 20
-54.46154416078087
 30
0.0
  0
SPLINE
  5
179
330
70
100
AcDbEntity
  8
Livello 1
370
     9
100
AcDbSpline
210
0.0
220
0.0
230
1.0
 70
     8
 71
     3
 72
     8
 73
     4
 74
     0
 42
0.000000001
 43
0.0000000001
 40
0.0
 40
0.0
 40
0.0
 40
0.0
 40
1.0
 40
1.0
 40
1.0
 40
1.0
 10
73.05438665429935
 20
-53.49612918213221
 30
0.0
 10
73.05417957257964
 20
-53.50915232141255
 30
0.0
 10
73.05393797723946
 20
-53.52245156965292
 30
0.0
 10
73.05417957257964
 20
-53.53547470893261
 30
0.0
  0
SPLINE
  5
17A
330
70
100
AcDbEntity
  8
Livello 1
370
     9
100
AcDbSpline
210
0.0
220
0.0
230
1.0
 70
     8
 71
     3
 72
     8
 73
     4
 74
     0
 42
0.000000001
 43
0.0000000001
 40
0.0
 40
0.0
 40
0.0
 40
0.0
 40
1.0
 40
1.0
 40
1.0
 40
1.0
 10
74.43136504691121
 20
-52.55965962612458
 30
0.0
 10
74.42560127237098
 20
-52.55749677260432
 30
0.0
 10
74.4198374978314
 20
-52.55533391908469
 30
0.0
 10
74.41407372329115
 20
-52.55340115636445
 30
0.0
  0
SPLINE
  5
17B
330
70
100
AcDbEntity
  8
Livello 1
370
     9
100
AcDbSpline
210
0.0
220
0.0
230
1.0
 70
     8
 71
     3
 72
     8
 73
     4
 74
     0
 42
0.000000001
 43
0.0000000001
 40
0.0
 40
0.0
 40
0.0
 40
0.0
 40
1.0
 40
1.0
 40
1.0
 40
1.0
 10
75.10244787419676
 20
-53.5681936206928
 30
0.0
 10
75.10267796499679
 20
-53.56198116909332
 30
0.0
 10
75.10308062389731
 20
-53.55576871749319
 30
0.0
 10
75.10308062389731
 20
-53.54960228405307
 30
0.0
  0
SPLINE
  5
17C
330
70
100
AcDbEntity
  8
Livello 1
370
     9
100
AcDbSpline
210
0.0
220
0.0
230
1.0
 70
     8
 71
     3
 72
     8
 73
     4
 74
     0
 42
0.000000001
 43
0.0000000001
 40
0.0
 40
0.0
 40
0.0
 40
0.0
 40
1.0
 40
1.0
 40
1.0
 40
1.0
 10
73.05992033803955
 20
-53.41302038517154
 30
0.0
 10
73.05928758833963
 20
-53.41918681861166
 30
0.0
 10
73.05864333409956
 20
-53.4254452883718
 30
0.0
 10
73.05801058439964
 20
-53.4313816310119
 30
0.0
  0
SPLINE
  5
17D
330
70
100
AcDbEntity
  8
Livello 1
370
     9
100
AcDbSpline
210
0.0
220
0.0
230
1.0
 70
     8
 71
     3
 72
     8
 73
     4
 74
     0
 42
0.000000001
 43
0.0000000001
 40
0.0
 40
0.0
 40
0.0
 40
0.0
 40
1.0
 40
1.0
 40
1.0
 40
1.0
 10
75.10331071469734
 20
-53.54720933973277
 30
0.0
 10
75.1035293009572
 20
-53.53418620045308
 30
0.0
 10
75.1035293009572
 20
-53.52111704301275
 30
0.0
 10
75.1035293009572
 20
-53.50786381293239
 30
0.0
  0
SPLINE
  5
17E
330
70
100
AcDbEntity
  8
Livello 1
370
     9
100
AcDbSpline
210
0.0
220
0.0
230
1.0
 70
     8
 71
     3
 72
     8
 73
     4
 74
     0
 42
0.000000001
 43
0.0000000001
 40
0.0
 40
0.0
 40
0.0
 40
0.0
 40
1.0
 40
1.0
 40
1.0
 40
1.0
 10
75.1035293009572
 20
-53.50786381293239
 30
0.0
 10
75.10331071469734
 20
-53.50105312525283
 30
0.0
 10
75.10308062389731
 20
-53.49405836493261
 30
0.0
 10
75.10288504671713
 20
-53.48715564093239
 30
0.0
  0
SPLINE
  5
17F
330
70
100
AcDbEntity
  8
Livello 1
370
     9
100
AcDbSpline
210
0.0
220
0.0
230
1.0
 70
     8
 71
     3
 72
     8
 73
     4
 74
     0
 42
0.000000001
 43
0.0000000001
 40
0.0
 40
0.0
 40
0.0
 40
0.0
 40
1.0
 40
1.0
 40
1.0
 40
1.0
 10
75.67415448496184
 20
-53.89791373709582
 30
0.0
 10
75.39397291779953
 20
-53.79598351269538
 30
0.0
 10
75.08020959837705
 20
-53.89045879517618
 30
0.0
 10
74.90325826863548
 20
-54.1304895177377
 30
0.0
  0
SPLINE
  5
180
330
70
100
AcDbEntity
  8
Livello 1
370
     9
100
AcDbSpline
210
0.0
220
0.0
230
1.0
 70
     8
 71
     3
 72
     8
 73
     4
 74
     0
 42
0.000000001
 43
0.0000000001
 40
0.0
 40
0.0
 40
0.0
 40
0.0
 40
1.0
 40
1.0
 40
1.0
 40
1.0
 10
75.5427151154608
 20
-54.25892620229886
 30
0.0
 10
75.42259621331986
 20
-54.21530098661858
 30
0.0
 10
75.2881771679586
 20
-54.25588900373913
 30
0.0
 10
75.2123047266577
 20
-54.35850950053965
 30
0.0
  0
SPLINE
  5
183
330
70
100
AcDbEntity
  8
Livello 1
370
     9
100
AcDbSpline
210
0.0
220
0.0
230
1.0
 70
     9
 71
     3
 72
    17
 73
    13
 74
     0
 42
0.000000001
 43
0.0000000001
 40
0.0
 40
0.0
 40
0.0
 40
0.0
 40
1.0
 40
1.0
 40
1.0
 40
2.0
 40
2.0
 40
2.0
 40
3.0
 40
3.0
 40
3.0
 40
4.0
 40
4.0
 40
4.0
 40
4.0
 10
82.45207723510045
 20
-58.85324124225832
 30
0.0
 10
82.45207723510045
 20
-58.85153857033875
 30
0.0
 10
82.45060465398026
 20
-58.8502960800186
 30
0.0
 10
82.4488674684402
 20
-58.8502960800186
 30
0.0
 10
82.44716479652
 20
-58.8502960800186
 30
0.0
 10
82.44566920632014
 20
-58.85153857033875
 30
0.0
 10
82.44566920632014
 20
-58.85324124225832
 30
0.0
 10
82.44566920632014
 20
-58.85517400497857
 30
0.0
 10
82.44716479652
 20
-58.85646251345872
 30
0.0
 10
82.4488674684402
 20
-58.85646251345872
 30
0.0
 10
82.45060465398026
 20
-58.85646251345872
 30
0.0
 10
82.45207723510045
 20
-58.85517400497857
 30
0.0
 10
82.45207723510045
 20
-58.85324124225832
 30
0.0
  0
SPLINE
  5
184
330
70
100
AcDbEntity
  8
Livello 1
100
AcDbSpline
210
0.0
220
0.0
230
1.0
 70
     9
 71
     3
 72
    17
 73
    13
 74
     0
 42
0.000000001
 43
0.0000000001
 40
0.0
 40
0.0
 40
0.0
 40
0.0
 40
1.0
 40
1.0
 40
1.0
 40
2.0
 40
2.0
 40
2.0
 40
3.0
 40
3.0
 40
3.0
 40
4.0
 40
4.0
 40
4.0
 40
4.0
 10
82.45305512100008
 20
-58.85052617081862
 30
0.0
 10
82.45305512100008
 20
-58.84877748073841
 30
0.0
 10
82.45154802626005
 20
-58.84753499041825
 30
0.0
 10
82.44989137250049
 20
-58.84753499041825
 30
0.0
 10
82.44815418696044
 20
-58.84753499041825
 30
0.0
 10
82.44664709222041
 20
-58.84877748073841
 30
0.0
 10
82.44664709222041
 20
-58.85052617081862
 30
0.0
 10
82.44664709222041
 20
-58.85241291537886
 30
0.0
 10
82.44815418696044
 20
-58.85370142385838
 30
0.0
 10
82.44989137250049
 20
-58.85370142385838
 30
0.0
 10
82.45154802626005
 20
-58.85370142385838
 30
0.0
 10
82.45305512100008
 20
-58.85241291537886
 30
0.0
 10
82.45305512100008
 20
-58.85052617081862
 30
0.0
  0
HATCH
  5
185
330
70
100
AcDbEntity
  8
Livello 1
 62
    28
420
  1250058
440
 33554687
100
AcDbHatch
 10
0.0
 20
0.0
 30
0.0
210
0.0
220
0.0
230
1.0
  2
SOLID
 70
     1
 71
     1
 91
        1
 92
        1
 93
        2
 72
     4
 94
        3
 73
     0
 74
     0
 95
       17
 96
       13
 40
0.0
 40
0.0
 40
0.0
 40
0.0
 40
1.0
 40
1.0
 40
1.0
 40
2.0
 40
2.0
 40
2.0
 40
3.0
 40
3.0
 40
3.0
 40
4.0
 40
4.0
 40
4.0
 40
4.0
 10
82.45305512100008
 20
-58.85052617081862
 10
82.45305512100008
 20
-58.84877748073841
 10
82.45154802626005
 20
-58.84753499041825
 10
82.44989137250049
 20
-58.84753499041825
 10
82.44815418696044
 20
-58.84753499041825
 10
82.44664709222041
 20
-58.84877748073841
 10
82.44664709222041
 20
-58.85052617081862
 10
82.44664709222041
 20
-58.85241291537886
 10
82.44815418696044
 20
-58.85370142385838
 10
82.44989137250049
 20
-58.85370142385838
 10
82.45154802626005
 20
-58.85370142385838
 10
82.45305512100008
 20
-58.85241291537886
 10
82.45305512100008
 20
-58.85052617081862
 97
        0
 72
     1
 10
82.45305512100008
 20
-58.85052617081862
 11
82.45305512100008
 21
-58.85052617081862
 97
        0
 75
     0
 76
     1
 98
        1
 10
0.0
 20
0.0
450
        0
451
        0
460
0.0
461
0.0
452
        0
462
0.0
453
        0
470

  0
SPLINE
  5
186
330
70
100
AcDbEntity
  8
Livello 1
370
     9
100
AcDbSpline
210
0.0
220
0.0
230
1.0
 70
     9
 71
     3
 72
    17
 73
    13
 74
     0
 42
0.000000001
 43
0.0000000001
 40
0.0
 40
0.0
 40
0.0
 40
0.0
 40
1.0
 40
1.0
 40
1.0
 40
2.0
 40
2.0
 40
2.0
 40
3.0
 40
3.0
 40
3.0
 40
4.0
 40
4.0
 40
4.0
 40
4.0
 10
82.49267675676049
 20
-64.713239754869
 30
0.0
 10
82.49267675676049
 20
-64.71153708294879
 30
0.0
 10
82.49121568018047
 20
-64.71006450182925
 30
0.0
 10
82.48947849464043
 20
-64.71006450182925
 30
0.0
 10
82.48777582272087
 20
-64.71006450182925
 30
0.0
 10
82.48628023252036
 20
-64.71153708294879
 30
0.0
 10
82.48628023252036
 20
-64.713239754869
 30
0.0
 10
82.48628023252036
 20
-64.71517251758925
 30
0.0
 10
82.48777582272087
 20
-64.71646102606877
 30
0.0
 10
82.48947849464043
 20
-64.71646102606877
 30
0.0
 10
82.49121568018047
 20
-64.71646102606877
 30
0.0
 10
82.49267675676049
 20
-64.71517251758925
 30
0.0
 10
82.49267675676049
 20
-64.713239754869
 30
0.0
  0
SPLINE
  5
187
330
70
100
AcDbEntity
  8
Livello 1
100
AcDbSpline
210
0.0
220
0.0
230
1.0
 70
     9
 71
     3
 72
    17
 73
    13
 74
     0
 42
0.000000001
 43
0.0000000001
 40
0.0
 40
0.0
 40
0.0
 40
0.0
 40
1.0
 40
1.0
 40
1.0
 40
2.0
 40
2.0
 40
2.0
 40
3.0
 40
3.0
 40
3.0
 40
4.0
 40
4.0
 40
4.0
 40
4.0
 10
82.49368915628062
 20
-64.71057070158868
 30
0.0
 10
82.49368915628062
 20
-64.7088220115091
 30
0.0
 10
82.49218206154059
 20
-64.70730341222891
 30
0.0
 10
82.4904563805407
 20
-64.70730341222891
 30
0.0
 10
82.48878822224034
 20
-64.70730341222891
 30
0.0
 10
82.48728112750031
 20
-64.7088220115091
 30
0.0
 10
82.48728112750031
 20
-64.71057070158868
 30
0.0
 10
82.48728112750031
 20
-64.71241142798891
 30
0.0
 10
82.48878822224034
 20
-64.71369993646907
 30
0.0
 10
82.4904563805407
 20
-64.71369993646907
 30
0.0
 10
82.49218206154059
 20
-64.71369993646907
 30
0.0
 10
82.49368915628062
 20
-64.71241142798891
 30
0.0
 10
82.49368915628062
 20
-64.71057070158868
 30
0.0
  0
HATCH
  5
188
330
70
100
AcDbEntity
  8
Livello 1
 62
    28
420
  1250058
440
 33554687
100
AcDbHatch
 10
0.0
 20
0.0
 30
0.0
210
0.0
220
0.0
230
1.0
  2
SOLID
 70
     1
 71
     1
 91
        1
 92
        1
 93
        2
 72
     4
 94
        3
 73
     0
 74
     0
 95
       17
 96
       13
 40
0.0
 40
0.0
 40
0.0
 40
0.0
 40
1.0
 40
1.0
 40
1.0
 40
2.0
 40
2.0
 40
2.0
 40
3.0
 40
3.0
 40
3.0
 40
4.0
 40
4.0
 40
4.0
 40
4.0
 10
82.49368915628062
 20
-64.71057070158868
 10
82.49368915628062
 20
-64.7088220115091
 10
82.49218206154059
 20
-64.70730341222891
 10
82.4904563805407
 20
-64.70730341222891
 10
82.48878822224034
 20
-64.70730341222891
 10
82.48728112750031
 20
-64.7088220115091
 10
82.48728112750031
 20
-64.71057070158868
 10
82.48728112750031
 20
-64.71241142798891
 10
82.48878822224034
 20
-64.71369993646907
 10
82.4904563805407
 20
-64.71369993646907
 10
82.49218206154059
 20
-64.71369993646907
 10
82.49368915628062
 20
-64.71241142798891
 10
82.49368915628062
 20
-64.71057070158868
 97
        0
 72
     1
 10
82.49368915628062
 20
-64.71057070158867
 11
82.49368915628062
 21
-64.71057070158868
 97
        0
 75
     0
 76
     1
 98
        1
 10
0.0
 20
0.0
450
        0
451
        0
460
0.0
461
0.0
452
        0
462
0.0
453
        0
470

  0
SPLINE
  5
1CC
330
70
100
AcDbEntity
  8
Livello 1
370
     9
100
AcDbSpline
210
0.0
220
0.0
230
1.0
 70
     8
 71
     3
 72
     8
 73
     4
 74
     0
 42
0.000000001
 43
0.0000000001
 40
0.0
 40
0.0
 40
0.0
 40
0.0
 40
1.0
 40
1.0
 40
1.0
 40
1.0
 10
18.89765045341422
 20
-53.0787444709286
 30
0.0
 10
18.66235960133233
 20
-52.36813204420266
 30
0.0
 10
17.91240164780599
 20
-51.96547314419959
 30
0.0
 10
17.1900200766597
 20
-52.16233883268088
 30
0.0
  0
SPLINE
  5
1CD
330
70
100
AcDbEntity
  8
Livello 1
370
     9
100
AcDbSpline
210
0.0
220
0.0
230
1.0
 70
     8
 71
     3
 72
     8
 73
     4
 74
     0
 42
0.000000001
 43
0.0000000001
 40
1.0
 40
1.0
 40
1.0
 40
1.0
 40
2.0
 40
2.0
 40
2.0
 40
2.0
 10
17.1900200766597
 20
-52.16233883268088
 30
0.0
 10
16.46768452367343
 20
-52.3589284122028
 30
0.0
 10
16.02548451968979
 20
-53.08601534020887
 30
0.0
 10
16.182774590571
 20
-53.81802621133554
 30
0.0
  0
SPLINE
  5
1CE
330
70
100
AcDbEntity
  8
Livello 1
370
     9
100
AcDbSpline
210
0.0
220
0.0
230
1.0
 70
     8
 71
     3
 72
     8
 73
     4
 74
     0
 42
0.000000001
 43
0.0000000001
 40
0.0
 40
0.0
 40
0.0
 40
0.0
 40
1.0
 40
1.0
 40
1.0
 40
1.0
 10
18.58091896267169
 20
-53.4313816310119
 30
0.0
 10
18.54799296919146
 20
-53.05822037156863
 30
0.0
 10
18.31376053478938
 20
-52.73250383508611
 30
0.0
 10
17.97032700670627
 20
-52.58271472428487
 30
0.0
  0
SPLINE
  5
1CF
330
70
100
AcDbEntity
  8
Livello 1
370
     9
100
AcDbSpline
210
0.0
220
0.0
230
1.0
 70
     8
 71
     3
 72
     8
 73
     4
 74
     0
 42
0.000000001
 43
0.0000000001
 40
1.0
 40
1.0
 40
1.0
 40
1.0
 40
2.0
 40
2.0
 40
2.0
 40
2.0
 10
17.97032700670627
 20
-52.58271472428487
 30
0.0
 10
17.62689347862349
 20
-52.4326495045236
 30
0.0
 10
17.22892843094004
 20
-52.48225708100397
 30
0.0
 10
16.93273254409733
 20
-52.71179566308547
 30
0.0
  0
SPLINE
  5
1D0
330
70
100
AcDbEntity
  8
Livello 1
370
     9
100
AcDbSpline
210
0.0
220
0.0
230
1.0
 70
     8
 71
     3
 72
     8
 73
     4
 74
     0
 42
0.000000001
 43
0.0000000001
 40
2.0
 40
2.0
 40
2.0
 40
2.0
 40
3.0
 40
3.0
 40
3.0
 40
3.0
 10
16.93273254409733
 20
-52.71179566308547
 30
0.0
 10
16.63630656645492
 20
-52.94133424516761
 30
0.0
 10
16.48902544537367
 20
-53.31426541381085
 30
0.0
 10
16.54845789901397
 20
-53.68425142021436
 30
0.0
  0
SPLINE
  5
1D1
330
70
100
AcDbEntity
  8
Livello 1
370
     9
100
AcDbSpline
210
0.0
220
0.0
230
1.0
 70
     8
 71
     3
 72
     8
 73
     4
 74
     0
 42
0.000000001
 43
0.0000000001
 40
0.0
 40
0.0
 40
0.0
 40
0.0
 40
1.0
 40
1.0
 40
1.0
 40
1.0
 10
17.96050212954634
 20
-57.52451289040698
 30
0.0
 10
17.96050212954634
 20
-57.77931544232905
 30
0.0
 10
18.06159252252716
 20
-58.02353381745173
 30
0.0
 10
18.24175361892864
 20
-58.20374093201289
 30
0.0
  0
SPLINE
  5
1D2
330
70
100
AcDbEntity
  8
Livello 1
370
     9
100
AcDbSpline
210
0.0
220
0.0
230
1.0
 70
     8
 71
     3
 72
     8
 73
     4
 74
     0
 42
0.000000001
 43
0.0000000001
 40
1.0
 40
1.0
 40
1.0
 40
1.0
 40
2.0
 40
2.0
 40
2.0
 40
2.0
 10
18.24175361892864
 20
-58.20374093201289
 30
0.0
 10
18.42212179705014
 20
-58.38390202841469
 30
0.0
 10
18.66642070395235
 20
-58.48500392593567
 30
0.0
 10
18.9211542286344
 20
-58.48500392593567
 30
0.0
  0
SPLINE
  5
1D3
330
70
100
AcDbEntity
  8
Livello 1
370
     9
100
AcDbSpline
210
0.0
220
0.0
230
1.0
 70
     8
 71
     3
 72
     8
 73
     4
 74
     0
 42
0.000000001
 43
0.0000000001
 40
0.0
 40
0.0
 40
0.0
 40
0.0
 40
1.0
 40
1.0
 40
1.0
 40
1.0
 10
20.66599028774968
 20
-52.29629769644209
 30
0.0
 10
20.51639675412831
 20
-52.21213048180128
 30
0.0
 10
20.33322146824677
 20
-52.21406324452153
 30
0.0
 10
20.18553768826532
 20
-52.30145173036209
 30
0.0
  0
SPLINE
  5
1D4
330
70
100
AcDbEntity
  8
Livello 1
370
     9
100
AcDbSpline
210
0.0
220
0.0
230
1.0
 70
     8
 71
     3
 72
     8
 73
     4
 74
     0
 42
0.000000001
 43
0.0000000001
 40
1.0
 40
1.0
 40
1.0
 40
1.0
 40
2.0
 40
2.0
 40
2.0
 40
2.0
 10
20.18553768826532
 20
-52.30145173036209
 30
0.0
 10
20.03784240374401
 20
-52.38888623436331
 30
0.0
 10
19.94809548720331
 20
-52.54829314060446
 30
0.0
 10
19.94979815912352
 20
-52.71994087740583
 30
0.0
  0
SPLINE
  5
1D5
330
70
100
AcDbEntity
  8
Livello 1
370
     9
100
AcDbSpline
210
0.0
220
0.0
230
1.0
 70
     8
 71
     3
 72
     8
 73
     4
 74
     0
 42
0.000000001
 43
0.0000000001
 40
2.0
 40
2.0
 40
2.0
 40
2.0
 40
3.0
 40
3.0
 40
3.0
 40
3.0
 10
19.94979815912352
 20
-52.71994087740583
 30
0.0
 10
19.95171941730328
 20
-52.89154259604721
 30
0.0
 10
20.04511327302427
 20
-53.04906275772878
 30
0.0
 10
20.19449972492562
 20
-53.13322997236959
 30
0.0
  0
SPLINE
  5
1D6
330
70
100
AcDbEntity
  8
Livello 1
370
     9
100
AcDbSpline
210
0.0
220
0.0
230
1.0
 70
     8
 71
     3
 72
     8
 73
     4
 74
     0
 42
0.000000001
 43
0.0000000001
 40
0.0
 40
0.0
 40
0.0
 40
0.0
 40
1.0
 40
1.0
 40
1.0
 40
1.0
 10
71.44441831760556
 20
-53.13322997236959
 30
0.0
 10
71.67564806706774
 20
-53.00309061588821
 30
0.0
 10
71.75753738278858
 20
-52.71027706380593
 30
0.0
 10
71.62735200814721
 20
-52.47903580980357
 30
0.0
  0
SPLINE
  5
1D7
330
70
100
AcDbEntity
  8
Livello 1
370
     9
100
AcDbSpline
210
0.0
220
0.0
230
1.0
 70
     8
 71
     3
 72
     8
 73
     4
 74
     0
 42
0.000000001
 43
0.0000000001
 40
1.0
 40
1.0
 40
1.0
 40
1.0
 40
2.0
 40
2.0
 40
2.0
 40
2.0
 10
71.62735200814721
 20
-52.47903580980357
 30
0.0
 10
71.49720114712632
 20
-52.24797862844188
 30
0.0
 10
71.20441060412371
 20
-52.16620435812137
 30
0.0
 10
70.97315784558183
 20
-52.29629769644209
 30
0.0
  0
SPLINE
  5
1D8
330
70
100
AcDbEntity
  8
Livello 1
370
     9
100
AcDbSpline
210
0.0
220
0.0
230
1.0
 70
     8
 71
     3
 72
     8
 73
     4
 74
     0
 42
0.000000001
 43
0.0000000001
 40
0.0
 40
0.0
 40
0.0
 40
0.0
 40
1.0
 40
1.0
 40
1.0
 40
1.0
 10
74.64785748063334
 20
-52.23283865380192
 30
0.0
 10
73.95583639054713
 20
-51.92723205323869
 30
0.0
 10
73.14606633355996
 20
-52.22280669492133
 30
0.0
 10
72.81351610031757
 20
-52.90221880916726
 30
0.0
  0
SPLINE
  5
1D9
330
70
100
AcDbEntity
  8
Livello 1
370
     9
100
AcDbSpline
210
0.0
220
0.0
230
1.0
 70
     8
 71
     3
 72
     8
 73
     4
 74
     0
 42
0.000000001
 43
0.0000000001
 40
1.0
 40
1.0
 40
1.0
 40
1.0
 40
2.0
 40
2.0
 40
2.0
 40
2.0
 10
72.81351610031757
 20
-52.90221880916726
 30
0.0
 10
72.48075878535482
 20
-53.58163092341319
 30
0.0
 10
72.74407469687665
 20
-54.4023648070206
 30
0.0
 10
73.40956631772247
 20
-54.76158256398342
 30
0.0
  0
SPLINE
  5
1DA
330
70
100
AcDbEntity
  8
Livello 1
370
     9
100
AcDbSpline
210
0.0
220
0.0
230
1.0
 70
     8
 71
     3
 72
     8
 73
     4
 74
     0
 42
0.000000001
 43
0.0000000001
 40
0.0
 40
0.0
 40
0.0
 40
0.0
 40
1.0
 40
1.0
 40
1.0
 40
1.0
 10
74.44869088415112
 20
-52.56605615036473
 30
0.0
 10
73.92720159048727
 20
-52.36426651876282
 30
0.0
 10
73.3401249142822
 20
-52.61773454404472
 30
0.0
 10
73.12960333682001
 20
-53.13599106196928
 30
0.0
  0
SPLINE
  5
1DB
330
70
100
AcDbEntity
  8
Livello 1
370
     9
100
AcDbSpline
210
0.0
220
0.0
230
1.0
 70
     8
 71
     3
 72
     8
 73
     4
 74
     0
 42
0.000000001
 43
0.0000000001
 40
1.0
 40
1.0
 40
1.0
 40
1.0
 40
2.0
 40
2.0
 40
2.0
 40
2.0
 10
73.12960333682001
 20
-53.13599106196928
 30
0.0
 10
72.91887467763811
 20
-53.65410952541384
 30
0.0
 10
73.16294349374061
 20
-54.24548889957912
 30
0.0
 10
73.67735749530502
 20
-54.4644893230206
 30
0.0
  0
SPLINE
  5
1DC
330
70
100
AcDbEntity
  8
Livello 1
370
     9
100
AcDbSpline
210
0.0
220
0.0
230
1.0
 70
     8
 71
     3
 72
     8
 73
     4
 74
     0
 42
0.000000001
 43
0.0000000001
 40
0.0
 40
0.0
 40
0.0
 40
0.0
 40
1.0
 40
1.0
 40
1.0
 40
1.0
 10
74.47968411491143
 20
-54.46471941382062
 30
0.0
 10
74.85667638617468
 20
-54.30443816253937
 30
0.0
 10
75.10180361995733
 20
-53.93537251933597
 30
0.0
 10
75.1035293009572
 20
-53.52585691349269
 30
0.0
  0
SPLINE
  5
1DD
330
70
100
AcDbEntity
  8
Livello 1
370
     9
100
AcDbSpline
210
0.0
220
0.0
230
1.0
 70
     8
 71
     3
 72
     8
 73
     4
 74
     0
 42
0.000000001
 43
0.0000000001
 40
1.0
 40
1.0
 40
1.0
 40
1.0
 40
2.0
 40
2.0
 40
2.0
 40
2.0
 10
75.1035293009572
 20
-53.52585691349269
 30
0.0
 10
75.10523197287678
 20
-53.11638732580941
 30
0.0
 10
74.86288883777482
 20
-52.74515882908576
 30
0.0
 10
74.4871390568317
 20
-52.58184037924476
 30
0.0
  0
SPLINE
  5
1DE
330
70
100
AcDbEntity
  8
Livello 1
370
     9
100
AcDbSpline
210
0.0
220
0.0
230
1.0
 70
     8
 71
     3
 72
     8
 73
     4
 74
     0
 42
0.000000001
 43
0.0000000001
 40
0.0
 40
0.0
 40
0.0
 40
0.0
 40
1.0
 40
1.0
 40
1.0
 40
1.0
 10
11.39288237060975
 20
-63.72605818654022
 30
0.0
 10
11.38048047648982
 20
-63.72522985966075
 30
0.0
 10
11.37128834902948
 20
-63.71326513806056
 30
0.0
 10
11.36489182478965
 20
-63.70176059806041
 30
0.0
  0
SPLINE
  5
1DF
330
70
100
AcDbEntity
  8
Livello 1
370
     9
100
AcDbSpline
210
0.0
220
0.0
230
1.0
 70
     8
 71
     3
 72
     8
 73
     4
 74
     0
 42
0.000000001
 43
0.0000000001
 40
1.0
 40
1.0
 40
1.0
 40
1.0
 40
2.0
 40
2.0
 40
2.0
 40
2.0
 10
11.36489182478965
 20
-63.70176059806041
 30
0.0
 10
11.35908203208941
 20
-63.69186669366047
 30
0.0
 10
11.35546960652961
 20
-63.68229491637993
 30
0.0
 10
11.35227134440953
 20
-63.67217092117996
 30
0.0
  0
SPLINE
  5
1E0
330
70
100
AcDbEntity
  8
Livello 1
370
     9
100
AcDbSpline
210
0.0
220
0.0
230
1.0
 70
     8
 71
     3
 72
     8
 73
     4
 74
     0
 42
0.000000001
 43
0.0000000001
 40
2.0
 40
2.0
 40
2.0
 40
2.0
 40
3.0
 40
3.0
 40
3.0
 40
3.0
 10
11.35227134440953
 20
-63.67217092117996
 30
0.0
 10
11.34819873724935
 20
-63.65937787269966
 30
0.0
 10
11.34458631168922
 20
-63.64594056997991
 30
0.0
 10
11.34158362674933
 20
-63.63245724909952
 30
0.0
  0
SPLINE
  5
1E1
330
70
100
AcDbEntity
  8
Livello 1
370
     9
100
AcDbSpline
210
0.0
220
0.0
230
1.0
 70
     8
 71
     3
 72
     8
 73
     4
 74
     0
 42
0.000000001
 43
0.0000000001
 40
3.0
 40
3.0
 40
3.0
 40
3.0
 40
4.0
 40
4.0
 40
4.0
 40
4.0
 10
11.34158362674933
 20
-63.63245724909952
 30
0.0
 10
11.33795969664936
 20
-63.61625885677945
 30
0.0
 10
11.33517559796934
 20
-63.60019851893937
 30
0.0
 10
11.33303575352939
 20
-63.58400012661929
 30
0.0
  0
SPLINE
  5
1E2
330
70
100
AcDbEntity
  8
Livello 1
370
     9
100
AcDbSpline
210
0.0
220
0.0
230
1.0
 70
     8
 71
     3
 72
     8
 73
     4
 74
     0
 42
0.000000001
 43
0.0000000001
 40
4.0
 40
4.0
 40
4.0
 40
4.0
 40
5.0
 40
5.0
 40
5.0
 40
5.0
 10
11.33303575352939
 20
-63.58400012661929
 30
0.0
 10
11.33047024110923
 20
-63.56554684445893
 30
0.0
 10
11.32831889212913
 20
-63.5469555078192
 30
0.0
 10
11.32684631100927
 20
-63.52859426197884
 30
0.0
  0
SPLINE
  5
1E3
330
70
100
AcDbEntity
  8
Livello 1
370
     9
100
AcDbSpline
210
0.0
220
0.0
230
1.0
 70
     8
 71
     3
 72
     8
 73
     4
 74
     0
 42
0.000000001
 43
0.0000000001
 40
5.0
 40
5.0
 40
5.0
 40
5.0
 40
6.0
 40
6.0
 40
6.0
 40
6.0
 10
11.32684631100927
 20
-63.52859426197884
 30
0.0
 10
11.3231993718293
 20
-63.48777615405827
 30
0.0
 10
11.32214095414916
 20
-63.44672795533832
 30
0.0
 10
11.32233653132903
 20
-63.40590984741775
 30
0.0
  0
SPLINE
  5
1E4
330
70
100
AcDbEntity
  8
Livello 1
370
     9
100
AcDbSpline
210
0.0
220
0.0
230
1.0
 70
     8
 71
     3
 72
     8
 73
     4
 74
     0
 42
0.000000001
 43
0.0000000001
 40
0.0
 40
0.0
 40
0.0
 40
0.0
 40
1.0
 40
1.0
 40
1.0
 40
1.0
 10
12.71409825784128
 20
-63.40590984741775
 30
0.0
 10
12.71346550814105
 20
-63.44695804613834
 30
0.0
 10
12.71043981412115
 20
-63.4880062448583
 30
0.0
 10
12.70426187614119
 20
-63.52859426197884
 30
0.0
  0
SPLINE
  5
1E5
330
70
100
AcDbEntity
  8
Livello 1
370
     9
100
AcDbSpline
210
0.0
220
0.0
230
1.0
 70
     8
 71
     3
 72
     8
 73
     4
 74
     0
 42
0.000000001
 43
0.0000000001
 40
1.0
 40
1.0
 40
1.0
 40
1.0
 40
2.0
 40
2.0
 40
2.0
 40
2.0
 10
12.70426187614119
 20
-63.52859426197884
 30
0.0
 10
12.69892376958117
 20
-63.56384417253936
 30
0.0
 10
12.69123873686086
 20
-63.59891001045922
 30
0.0
 10
12.67883684274093
 20
-63.63245724909952
 30
0.0
  0
SPLINE
  5
1E6
330
70
100
AcDbEntity
  8
Livello 1
370
     9
100
AcDbSpline
210
0.0
220
0.0
230
1.0
 70
     8
 71
     3
 72
     8
 73
     4
 74
     0
 42
0.000000001
 43
0.0000000001
 40
2.0
 40
2.0
 40
2.0
 40
2.0
 40
3.0
 40
3.0
 40
3.0
 40
3.0
 10
12.67883684274093
 20
-63.63245724909952
 30
0.0
 10
12.67391289962096
 20
-63.64617066077994
 30
0.0
 10
12.66814912508072
 20
-63.65937787269966
 30
0.0
 10
12.66152251004054
 20
-63.67217092117996
 30
0.0
  0
SPLINE
  5
1E7
330
70
100
AcDbEntity
  8
Livello 1
370
     9
100
AcDbSpline
210
0.0
220
0.0
230
1.0
 70
     8
 71
     3
 72
     8
 73
     4
 74
     0
 42
0.000000001
 43
0.0000000001
 40
3.0
 40
3.0
 40
3.0
 40
3.0
 40
4.0
 40
4.0
 40
4.0
 40
4.0
 10
12.66152251004054
 20
-63.67217092117996
 30
0.0
 10
12.65594280814065
 20
-63.68270907981997
 30
0.0
 10
12.64998345642056
 20
-63.69274103869994
 30
0.0
 10
12.64184974664067
 20
-63.70176059806041
 30
0.0
  0
SPLINE
  5
1E8
330
70
100
AcDbEntity
  8
Livello 1
370
     9
100
AcDbSpline
210
0.0
220
0.0
230
1.0
 70
     8
 71
     3
 72
     8
 73
     4
 74
     0
 42
0.000000001
 43
0.0000000001
 40
4.0
 40
4.0
 40
4.0
 40
4.0
 40
5.0
 40
5.0
 40
5.0
 40
5.0
 10
12.64184974664067
 20
-63.70176059806041
 30
0.0
 10
12.63051777474039
 20
-63.71455364654007
 30
0.0
 10
12.6155733772803
 20
-63.72541393230078
 30
0.0
 10
12.59911038054003
 20
-63.72605818654022
 30
0.0
  0
LINE
  5
1F0
330
70
100
AcDbEntity
  8
0
100
AcDbLine
 10
10.43049308598163
 20
-71.72823652636688
 30
0.0
 11
81.20844796562954
 21
-71.72823652636687
 31
0.0
  0
LINE
  5
1F1
330
70
100
AcDbEntity
  8
0
100
AcDbLine
 10
2.09736888431971
 20
-52.13647662676089
 30
0.0
 11
2.09736888431971
 21
-63.40590984741775
 31
0.0
  0
MTEXT
  5
1F3
330
70
100
AcDbEntity
  8
0
100
AcDbMText
 10
44.6279567272662
 20
-74.84314802725532
 30
0.0
 40
2.0
 41
368.2888276518611
 46
0.0
 71
     1
 72
     5
  1
220
 73
     1
 44
1.0
101
Embedded Object
 70
     1
 10
1.0
 20
0.0
 30
0.0
 11
44.6279567272662
 21
-74.84314802725532
 31
0.0
 40
368.2888276518611
 41
0.0
 42
4.999999999999999
 43
2.0
 71
     2
 72
     1
 44
368.2888276518611
 45
10.0
 73
     0
 74
     0
 46
0.0
  0
MTEXT
  5
1FC
330
70
100
AcDbEntity
  8
0
100
AcDbMText
 10
-4.176007907461006
 20
-57.03130488051713
 30
0.0
 40
2.0
 41
368.2888276518611
 46
0.0
 71
     1
 72
     5
  1
18
 73
     1
 44
1.0
101
Embedded Object
 70
     1
 10
1.0
 20
0.0
 30
0.0
 11
-4.176007907461006
 21
-57.03130488051713
 31
0.0
 40
368.2888276518611
 41
0.0
 42
2.666666666666666
 43
2.0
 71
     2
 72
     1
 44
368.2888276518611
 45
10.0
 73
     0
 74
     0
 46
0.0
  0
ENDSEC
  0
SECTION
  2
OBJECTS
  0
DICTIONARY
  5
C
330
0
100
AcDbDictionary
281
     1
  3
ACAD_CIP_PREVIOUS_PRODUCT_INFO
350
1C9
  3
ACAD_COLOR
350
63
  3
ACAD_DETAILVIEWSTYLE
350
6A
  3
ACAD_GROUP
350
D
  3
ACAD_LAYOUT
350
62
  3
ACAD_MATERIAL
350
10
  3
ACAD_MLEADERSTYLE
350
66
  3
ACAD_MLINESTYLE
350
5F
  3
ACAD_PLOTSETTINGS
350
61
  3
ACAD_PLOTSTYLENAME
350
E
  3
ACAD_SCALELIST
350
42
  3
ACAD_SECTIONVIEWSTYLE
350
68
  3
ACAD_TABLESTYLE
350
64
  3
ACAD_VISUALSTYLE
350
29
  3
ACDB_RECOMPOSE_DATA
350
20B
  3
AcDbVariableDictionary
350
1BF
  0
DICTIONARY
  5
1CA
330
70
100
AcDbDictionary
280
     1
281
     1
  3
ACAD_SORTENTS
360
1CB
  0
XRECORD
  5
1C9
102
{ACAD_REACTORS
330
C
102
}
330
C
100
AcDbXrecord
280
     1
300
ACD
300
2022
300

  0
DICTIONARY
  5
63
102
{ACAD_REACTORS
330
C
102
}
330
C
100
AcDbDictionary
281
     1
  0
DICTIONARY
  5
6A
102
{ACAD_REACTORS
330
C
102
}
330
C
100
AcDbDictionary
281
     1
  3
Imperial24
350
6B
  0
DICTIONARY
  5
D
102
{ACAD_REACTORS
330
C
102
}
330
C
100
AcDbDictionary
281
     1
  0
DICTIONARY
  5
62
102
{ACAD_REACTORS
330
C
102
}
330
C
100
AcDbDictionary
281
     1
  3
Layout1
350
6F
  3
Layout2
350
77
  3
Model
350
73
  0
DICTIONARY
  5
10
102
{ACAD_REACTORS
330
C
102
}
330
C
100
AcDbDictionary
281
     1
  3
ByBlock
350
19
  3
ByLayer
350
11
  3
Global
350
21
  0
DICTIONARY
  5
66
102
{ACAD_REACTORS
330
C
102
}
330
C
100
AcDbDictionary
281
     1
  3
Standard
350
67
  0
DICTIONARY
  5
5F
102
{ACAD_REACTORS
330
C
102
}
330
C
100
AcDbDictionary
281
     1
  3
Standard
350
60
  0
DICTIONARY
  5
61
102
{ACAD_REACTORS
330
C
102
}
330
C
100
AcDbDictionary
281
     1
  0
ACDBDICTIONARYWDFLT
  5
E
102
{ACAD_REACTORS
330
C
102
}
330
C
100
AcDbDictionary
281
     1
  3
Normal
350
F
100
AcDbDictionaryWithDefault
340
F
  0
DICTIONARY
  5
42
102
{ACAD_REACTORS
330
C
102
}
330
C
100
AcDbDictionary
281
     1
  3
A0
350
43
  3
A1
350
44
  3
A2
350
45
  3
A3
350
46
  3
A4
350
47
  3
A5
350
48
  3
A6
350
49
  3
A7
350
4A
  3
A8
350
4B
  3
A9
350
4C
  3
B0
350
4D
  3
B1
350
4E
  3
B2
350
4F
  3
B3
350
50
  3
B4
350
51
  3
B5
350
52
  3
B6
350
53
  0
DICTIONARY
  5
68
102
{ACAD_REACTORS
330
C
102
}
330
C
100
AcDbDictionary
281
     1
  3
Imperial24
350
69
  0
DICTIONARY
  5
64
102
{ACAD_REACTORS
330
C
102
}
330
C
100
AcDbDictionary
281
     1
  3
Standard
350
65
  0
DICTIONARY
  5
29
102
{ACAD_REACTORS
330
C
102
}
330
C
100
AcDbDictionary
281
     1
  3
2dWireframe
350
2F
  3
Basic
350
2E
  3
Brighten
350
35
  3
ColorChange
350
39
  3
Conceptual
350
32
  3
Dim
350
34
  3
EdgeColorOff
350
41
  3
Facepattern
350
38
  3
Flat
350
2A
  3
FlatWithEdges
350
2B
  3
Gouraud
350
2C
  3
GouraudWithEdges
350
2D
  3
Hidden
350
31
  3
JitterOff
350
3F
  3
Linepattern
350
37
  3
OverhangOff
350
40
  3
Realistic
350
33
  3
Shaded
350
3E
  3
Shaded with edges
350
3D
  3
Shades of Gray
350
3A
  3
Sketchy
350
3B
  3
Thicken
350
36
  3
Wireframe
350
30
  3
X-Ray
350
3C
  0
XRECORD
  5
20B
102
{ACAD_REACTORS
330
C
102
}
330
C
100
AcDbXrecord
280
     1
 90
        1
330
65
  0
DICTIONARY
  5
1BF
102
{ACAD_REACTORS
330
C
102
}
330
C
100
AcDbDictionary
281
     1
  3
CANNOSCALE
350
1C4
  3
CMLEADERSTYLE
350
1C1
  3
CTABLESTYLE
350
1C0
  3
CVIEWDETAILSTYLE
350
1C2
  3
CVIEWSECTIONSTYLE
350
1C3
  0
SORTENTSTABLE
  5
1CB
102
{ACAD_REACTORS
330
1CA
102
}
330
1CA
100
AcDbSortentsTable
330
70
331
174
  5
1DB
331
185
  5
1E7
331
188
  5
1E8
331
1CC
  5
174
331
1CD
  5
185
331
1CE
  5
188
331
1CF
  5
1CC
331
1D0
  5
1CD
331
1D1
  5
1CE
331
1D2
  5
1CF
331
1D3
  5
1D0
331
1D4
  5
1D1
331
1D5
  5
1D2
331
1D6
  5
1D3
331
1D7
  5
1D4
331
1D8
  5
1D5
331
1D9
  5
1D6
331
1DA
  5
1D7
331
1DB
  5
1D8
331
1DC
  5
1D9
331
1DD
  5
1DA
331
1DE
  5
1DC
331
1DF
  5
1DD
331
1E0
  5
1DE
331
1E1
  5
1DF
331
1E2
  5
1E0
331
1E3
  5
1E1
331
1E4
  5
1E2
331
1E5
  5
1E3
331
1E6
  5
1E4
331
1E7
  5
1E5
331
1E8
  5
1E6
  0
ACDBDETAILVIEWSTYLE
  5
6B
102
{ACAD_REACTORS
330
6A
102
}
330
6A
100
AcDbModelDocViewStyle
 70
     0
  3
Imperial24
290
     0
300
Imperial24
 90
        0
100
AcDbDetailViewStyle
 70
     0
 71
     0
 90
        3
 71
     1
340
55
 62
   256
 40
0.24
340
0
 62
   256
 40
0.24
300

 40
0.36
280
     3
 71
     2
340
5D
 90
       25
 62
   256
 71
     3
340
55
 62
   256
 40
0.24
 90
        1
 40
0.75
 90
        1
300
%<\AcVar ViewType \f "%tc1">% %<\AcVar ViewDetailId>%\PSCALE %<\AcVar ViewScale \f "%sn">%
 71
     4
340
5D
 90
       25
 62
   256
340
5D
 90
       25
 62
   256
280
     0
  0
LAYOUT
  5
6F
102
{ACAD_REACTORS
330
62
102
}
330
62
100
AcDbPlotSettings
  1

  2

  4

  6

 40
0.0
 41
0.0
 42
0.0
 43
0.0
 44
0.0
 45
0.0
 46
0.0
 47
0.0
 48
0.0
 49
0.0
140
0.0
141
0.0
142
1.0
143
1.0
 70
   688
 72
     0
 73
     0
 74
     5
  7

 75
    16
147
1.0
 76
     0
 77
     2
 78
   300
148
0.0
149
0.0
100
AcDbLayout
  1
Layout1
 70
     1
 71
     1
 10
0.0
 20
0.0
 11
12.0
 21
9.0
 12
0.0
 22
0.0
 32
0.0
 14
1.000000000000000E+20
 24
1.000000000000000E+20
 34
1.000000000000000E+20
 15
-1.000000000000000E+20
 25
-1.000000000000000E+20
 35
-1.000000000000000E+20
146
0.0
 13
0.0
 23
0.0
 33
0.0
 16
1.0
 26
0.0
 36
0.0
 17
0.0
 27
1.0
 37
0.0
 76
     0
330
6C
  0
LAYOUT
  5
77
102
{ACAD_REACTORS
330
62
102
}
330
62
100
AcDbPlotSettings
  1

  2

  4

  6

 40
0.0
 41
0.0
 42
0.0
 43
0.0
 44
0.0
 45
0.0
 46
0.0
 47
0.0
 48
0.0
 49
0.0
140
0.0
141
0.0
142
1.0
143
1.0
 70
   688
 72
     0
 73
     0
 74
     5
  7

 75
    16
147
1.0
 76
     0
 77
     2
 78
   300
148
0.0
149
0.0
100
AcDbLayout
  1
Layout2
 70
     1
 71
     2
 10
0.0
 20
0.0
 11
12.0
 21
9.0
 12
0.0
 22
0.0
 32
0.0
 14
0.0
 24
0.0
 34
0.0
 15
0.0
 25
0.0
 35
0.0
146
0.0
 13
0.0
 23
0.0
 33
0.0
 16
1.0
 26
0.0
 36
0.0
 17
0.0
 27
1.0
 37
0.0
 76
     0
330
74
  0
LAYOUT
  5
73
102
{ACAD_REACTORS
330
62
102
}
330
62
100
AcDbPlotSettings
  1

  2

  4

  6

 40
0.0
 41
0.0
 42
0.0
 43
0.0
 44
0.0
 45
0.0
 46
0.0
 47
0.0
 48
0.0
 49
0.0
140
0.0
141
0.0
142
1.0
143
1.0
 70
  1712
 72
     0
 73
     0
 74
     0
  7

 75
     0
147
1.0
 76
     0
 77
     2
 78
   300
148
0.0
149
0.0
100
AcDbLayout
  1
Model
 70
     1
 71
     0
 10
0.0
 20
0.0
 11
12.0
 21
9.0
 12
0.0
 22
0.0
 32
0.0
 14
0.0
 24
0.0
 34
0.0
 15
0.0
 25
0.0
 35
0.0
146
0.0
 13
0.0
 23
0.0
 33
0.0
 16
1.0
 26
0.0
 36
0.0
 17
0.0
 27
1.0
 37
0.0
 76
     0
330
70
331
57
  0
MATERIAL
  5
19
102
{ACAD_XDICTIONARY
360
1A
102
}
102
{ACAD_REACTORS
330
10
102
}
330
10
100
AcDbMaterial
  1
ByBlock
 72
     0
 43
0.0208333333333333
 43
0.0
 43
0.0
 43
0.0
 43
0.0
 43
0.0208333333333333
 43
0.0
 43
0.0
 43
0.0
 43
0.0
 43
1.0
 43
0.0
 43
0.0
 43
0.0
 43
0.0
 43
1.0
 77
     0
 47
0.0208333333333333
 47
0.0
 47
0.0
 47
0.0
 47
0.0
 47
0.0208333333333333
 47
0.0
 47
0.0
 47
0.0
 47
0.0
 47
1.0
 47
0.0
 47
0.0
 47
0.0
 47
0.0
 47
1.0
171
     0
 49
0.0208333333333333
 49
0.0
 49
0.0
 49
0.0
 49
0.0
 49
0.0208333333333333
 49
0.0
 49
0.0
 49
0.0
 49
0.0
 49
1.0
 49
0.0
 49
0.0
 49
0.0
 49
0.0
 49
1.0
175
     0
142
0.0208333333333333
142
0.0
142
0.0
142
0.0
142
0.0
142
0.0208333333333333
142
0.0
142
0.0
142
0.0
142
0.0
142
1.0
142
0.0
142
0.0
142
0.0
142
0.0
142
1.0
179
     0
144
0.0208333333333333
144
0.0
144
0.0
144
0.0
144
0.0
144
0.0208333333333333
144
0.0
144
0.0
144
0.0
144
0.0
144
1.0
144
0.0
144
0.0
144
0.0
144
0.0
144
1.0
147
0.0208333333333333
147
0.0
147
0.0
147
0.0
147
0.0
147
0.0208333333333333
147
0.0
147
0.0
147
0.0
147
0.0
147
1.0
147
0.0
147
0.0
147
0.0
147
0.0
147
1.0
  0
MATERIAL
  5
11
102
{ACAD_XDICTIONARY
360
12
102
}
102
{ACAD_REACTORS
330
10
102
}
330
10
100
AcDbMaterial
  1
ByLayer
 72
     0
 43
0.0208333333333333
 43
0.0
 43
0.0
 43
0.0
 43
0.0
 43
0.0208333333333333
 43
0.0
 43
0.0
 43
0.0
 43
0.0
 43
1.0
 43
0.0
 43
0.0
 43
0.0
 43
0.0
 43
1.0
 77
     0
 47
0.0208333333333333
 47
0.0
 47
0.0
 47
0.0
 47
0.0
 47
0.0208333333333333
 47
0.0
 47
0.0
 47
0.0
 47
0.0
 47
1.0
 47
0.0
 47
0.0
 47
0.0
 47
0.0
 47
1.0
171
     0
 49
0.0208333333333333
 49
0.0
 49
0.0
 49
0.0
 49
0.0
 49
0.0208333333333333
 49
0.0
 49
0.0
 49
0.0
 49
0.0
 49
1.0
 49
0.0
 49
0.0
 49
0.0
 49
0.0
 49
1.0
175
     0
142
0.0208333333333333
142
0.0
142
0.0
142
0.0
142
0.0
142
0.0208333333333333
142
0.0
142
0.0
142
0.0
142
0.0
142
1.0
142
0.0
142
0.0
142
0.0
142
0.0
142
1.0
179
     0
144
0.0208333333333333
144
0.0
144
0.0
144
0.0
144
0.0
144
0.0208333333333333
144
0.0
144
0.0
144
0.0
144
0.0
144
1.0
144
0.0
144
0.0
144
0.0
144
0.0
144
1.0
147
0.0208333333333333
147
0.0
147
0.0
147
0.0
147
0.0
147
0.0208333333333333
147
0.0
147
0.0
147
0.0
147
0.0
147
1.0
147
0.0
147
0.0
147
0.0
147
0.0
147
1.0
  0
MATERIAL
  5
21
102
{ACAD_XDICTIONARY
360
22
102
}
102
{ACAD_REACTORS
330
10
102
}
330
10
100
AcDbMaterial
  1
Global
 72
     0
 43
0.0208333333333333
 43
0.0
 43
0.0
 43
0.0
 43
0.0
 43
0.0208333333333333
 43
0.0
 43
0.0
 43
0.0
 43
0.0
 43
1.0
 43
0.0
 43
0.0
 43
0.0
 43
0.0
 43
1.0
 77
     0
 47
0.0208333333333333
 47
0.0
 47
0.0
 47
0.0
 47
0.0
 47
0.0208333333333333
 47
0.0
 47
0.0
 47
0.0
 47
0.0
 47
1.0
 47
0.0
 47
0.0
 47
0.0
 47
0.0
 47
1.0
171
     0
 49
0.0208333333333333
 49
0.0
 49
0.0
 49
0.0
 49
0.0
 49
0.0208333333333333
 49
0.0
 49
0.0
 49
0.0
 49
0.0
 49
1.0
 49
0.0
 49
0.0
 49
0.0
 49
0.0
 49
1.0
175
     0
142
0.0208333333333333
142
0.0
142
0.0
142
0.0
142
0.0
142
0.0208333333333333
142
0.0
142
0.0
142
0.0
142
0.0
142
1.0
142
0.0
142
0.0
142
0.0
142
0.0
142
1.0
179
     0
144
0.0208333333333333
144
0.0
144
0.0
144
0.0
144
0.0
144
0.0208333333333333
144
0.0
144
0.0
144
0.0
144
0.0
144
1.0
144
0.0
144
0.0
144
0.0
144
0.0
144
1.0
147
0.0208333333333333
147
0.0
147
0.0
147
0.0
147
0.0
147
0.0208333333333333
147
0.0
147
0.0
147
0.0
147
0.0
147
1.0
147
0.0
147
0.0
147
0.0
147
0.0
147
1.0
  0
MLEADERSTYLE
  5
67
102
{ACAD_REACTORS
330
66
102
}
330
66
100
AcDbMLeaderStyle
179
     2
170
     2
171
     1
172
     0
 90
        2
 40
0.0
 41
0.0
173
     1
 91
-1056964608
340
5B
 92
       -2
290
     1
 42
0.09
291
     1
 43
0.36
  3
Standard
 44
0.18
300

342
55
174
     1
178
     6
175
     1
176
     0
 93
-1056964608
 45
0.18
292
     0
297
     0
 46
0.18
 94
-1056964608
 47
1.0
 49
1.0
140
1.0
293
     1
141
0.0
294
     1
177
     0
142
1.0
295
     0
296
     0
143
0.125
271
     0
272
     9
273
     9
298
     1
  0
MLINESTYLE
  5
60
102
{ACAD_REACTORS
330
5F
102
}
330
5F
100
AcDbMlineStyle
  2
STANDARD
 70
     0
  3

 62
   256
 51
90.0
 52
90.0
 71
     2
 49
0.5
 62
   256
  6
BYLAYER
 49
-0.5
 62
   256
  6
BYLAYER
  0
ACDBPLACEHOLDER
  5
F
102
{ACAD_REACTORS
330
E
102
}
330
E
  0
SCALE
  5
43
102
{ACAD_REACTORS
330
42
102
}
330
42
100
AcDbScale
 70
     0
300
1:1
140
1.0
141
1.0
290
     1
  0
SCALE
  5
44
102
{ACAD_REACTORS
330
42
102
}
330
42
100
AcDbScale
 70
     0
300
1/128" = 1'-0"
140
0.0078125
141
12.0
290
     0
  0
SCALE
  5
45
102
{ACAD_REACTORS
330
42
102
}
330
42
100
AcDbScale
 70
     0
300
1/64" = 1'-0"
140
0.015625
141
12.0
290
     0
  0
SCALE
  5
46
102
{ACAD_REACTORS
330
42
102
}
330
42
100
AcDbScale
 70
     0
300
1/32" = 1'-0"
140
0.03125
141
12.0
290
     0
  0
SCALE
  5
47
102
{ACAD_REACTORS
330
42
102
}
330
42
100
AcDbScale
 70
     0
300
1/16" = 1'-0"
140
0.0625
141
12.0
290
     0
  0
SCALE
  5
48
102
{ACAD_REACTORS
330
42
102
}
330
42
100
AcDbScale
 70
     0
300
3/32" = 1'-0"
140
0.09375
141
12.0
290
     0
  0
SCALE
  5
49
102
{ACAD_REACTORS
330
42
102
}
330
42
100
AcDbScale
 70
     0
300
1/8" = 1'-0"
140
0.125
141
12.0
290
     0
  0
SCALE
  5
4A
102
{ACAD_REACTORS
330
42
102
}
330
42
100
AcDbScale
 70
     0
300
3/16" = 1'-0"
140
0.1875
141
12.0
290
     0
  0
SCALE
  5
4B
102
{ACAD_REACTORS
330
42
102
}
330
42
100
AcDbScale
 70
     0
300
1/4" = 1'-0"
140
0.25
141
12.0
290
     0
  0
SCALE
  5
4C
102
{ACAD_REACTORS
330
42
102
}
330
42
100
AcDbScale
 70
     0
300
3/8" = 1'-0"
140
0.375
141
12.0
290
     0
  0
SCALE
  5
4D
102
{ACAD_REACTORS
330
42
102
}
330
42
100
AcDbScale
 70
     0
300
1/2" = 1'-0"
140
0.5
141
12.0
290
     0
  0
SCALE
  5
4E
102
{ACAD_REACTORS
330
42
102
}
330
42
100
AcDbScale
 70
     0
300
3/4" = 1'-0"
140
0.75
141
12.0
290
     0
  0
SCALE
  5
4F
102
{ACAD_REACTORS
330
42
102
}
330
42
100
AcDbScale
 70
     0
300
1" = 1'-0"
140
1.0
141
12.0
290
     0
  0
SCALE
  5
50
102
{ACAD_REACTORS
330
42
102
}
330
42
100
AcDbScale
 70
     0
300
1-1/2" = 1'-0"
140
1.5
141
12.0
290
     0
  0
SCALE
  5
51
102
{ACAD_REACTORS
330
42
102
}
330
42
100
AcDbScale
 70
     0
300
3" = 1'-0"
140
3.0
141
12.0
290
     0
  0
SCALE
  5
52
102
{ACAD_REACTORS
330
42
102
}
330
42
100
AcDbScale
 70
     0
300
6" = 1'-0"
140
6.0
141
12.0
290
     0
  0
SCALE
  5
53
102
{ACAD_REACTORS
330
42
102
}
330
42
100
AcDbScale
 70
     0
300
1'-0" = 1'-0"
140
12.0
141
12.0
290
     0
  0
ACDBSECTIONVIEWSTYLE
  5
69
102
{ACAD_REACTORS
330
68
102
}
330
68
100
AcDbModelDocViewStyle
 70
     0
  3
Imperial24
290
     0
300
Imperial24
 90
        0
100
AcDbSectionViewStyle
 70
     0
 71
     0
 90
       78
 71
     1
340
55
 62
   256
 40
0.24
340
0
340
0
 62
   256
 40
0.24
300
I, O, Q, S, X, Z
 40
0.48
 90
        3
 40
0.18
 90
        1
 71
     2
340
5D
 90
       25
 62
   256
340
5D
 90
       50
 62
   256
 40
0.24
 40
0.0
 40
0.24
 71
     3
340
55
 62
   256
 40
0.24
 90
        1
 40
0.75
 90
        1
300
%<\AcVar ViewType \f "%tc1">% %<\AcVar ViewSectionStartId>%-%<\AcVar ViewSectionEndId>%\PSCALE %<\AcVar ViewScale \f "%sn">%
 71
     4
 62
   256
 62
   257
300
ANSI31
 40
1.0
 90
        0
290
     0
290
     0
 90
        6
 40
0.0
 40
1.570796326794896
 40
0.2617993877991494
 40
1.308996938995747
 40
-0.2617993877991494
 40
1.832595714594046
  0
TABLESTYLE
  5
65
102
{ACAD_XDICTIONARY
360
209
102
}
102
{ACAD_REACTORS
330
64
102
}
330
64
100
AcDbTableStyle
280
     0
  3
Standard
 70
     0
 71
     0
 40
0.06
 41
0.06
280
     0
281
     0
  7
Standard
140
0.18
170
     2
 62
     0
 63
     7
283
     0
 90
      512
 91
        0
  1

274
    -2
284
     1
 64
     0
275
    -2
285
     1
 65
     0
276
    -2
286
     1
 66
     0
277
    -2
287
     1
 67
     0
278
    -2
288
     1
 68
     0
279
    -2
289
     1
 69
     0
  7
Standard
140
0.25
170
     5
 62
     0
 63
     7
283
     0
 90
      512
 91
        0
  1

274
    -2
284
     1
 64
     0
275
    -2
285
     1
 65
     0
276
    -2
286
     1
 66
     0
277
    -2
287
     1
 67
     0
278
    -2
288
     1
 68
     0
279
    -2
289
     1
 69
     0
  7
Standard
140
0.18
170
     5
 62
     0
 63
     7
283
     0
 90
      512
 91
        0
  1

274
    -2
284
     1
 64
     0
275
    -2
285
     1
 65
     0
276
    -2
286
     1
 66
     0
277
    -2
287
     1
 67
     0
278
    -2
288
     1
 68
     0
279
    -2
289
     1
 69
     0
  0
VISUALSTYLE
  5
2F
102
{ACAD_REACTORS
330
29
102
}
330
29
100
AcDbVisualStyle
  2
2dWireframe
 70
     4
177
     3
291
     0
 70
    58
 90
        0
176
     1
 90
        2
176
     1
 90
        0
176
     1
 90
        0
176
     1
 40
0.6
176
     1
 40
30.0
176
     1
 62
     7
420
 16777215
176
     1
 90
        1
176
     1
 90
        4
176
     1
 62
     7
176
     1
 62
   257
176
     1
 90
        1
176
     1
 90
        1
176
     1
 40
1.0
176
     1
 90
        0
176
     1
 62
   257
176
     1
 40
1.0
176
     1
 90
        1
176
     1
 90
        6
176
     1
 90
        2
176
     1
 62
     7
176
     1
 90
        5
176
     1
 90
        0
176
     1
 90
        0
176
     1
290
     0
176
     1
 90
        1
176
     1
 40
0.0
176
     1
 90
        0
176
     1
290
     1
176
     1
290
     1
176
     1
290
     0
176
     1
290
     0
176
     1
290
     0
176
     1
290
     0
176
     1
290
     0
176
     1
290
     0
176
     1
290
     0
176
     1
 90
       50
176
     1
 40
0.0
176
     1
 40
1.0
176
     1
 90
        0
176
     1
 62
    18
420
        0
176
     1
 90
       50
176
     1
 90
        3
176
     1
 62
     5
420
      255
176
     1
290
     0
176
     1
 90
       50
176
     1
 90
       50
176
     1
 90
       50
176
     1
290
     0
176
     1
 90
       50
176
     1
 62
   256
176
     0
 40
1.0
176
     0
 90
        2
176
     1
  1
strokes_ogs.tif
176
     1
290
     0
176
     1
 40
1.0
176
     1
 40
1.0
176
     1
  0
VISUALSTYLE
  5
2E
102
{ACAD_REACTORS
330
29
102
}
330
29
100
AcDbVisualStyle
  2
Basic
 70
     7
177
     3
291
     1
 70
    58
 90
        1
176
     1
 90
        0
176
     1
 90
        1
176
     1
 90
        0
176
     1
 40
0.6
176
     1
 40
30.0
176
     1
 62
     7
420
 16777215
176
     1
 90
        0
176
     1
 90
        4
176
     1
 62
     7
176
     1
 62
   257
176
     1
 90
        1
176
     1
 90
        1
176
     1
 40
1.0
176
     1
 90
        8
176
     1
 62
     7
176
     1
 40
1.0
176
     1
 90
        1
176
     1
 90
        6
176
     1
 90
        2
176
     1
 62
     7
176
     1
 90
        5
176
     1
 90
        0
176
     1
 90
        0
176
     1
290
     0
176
     1
 90
        1
176
     1
 40
0.0
176
     1
 90
        0
176
     1
290
     0
176
     1
290
     1
176
     1
290
     1
176
     1
290
     0
176
     1
290
     0
176
     1
290
     0
176
     1
290
     0
176
     1
290
     0
176
     1
290
     0
176
     1
 90
       50
176
     1
 40
0.0
176
     1
 40
1.0
176
     1
 90
        0
176
     1
 62
    18
420
        0
176
     1
 90
       50
176
     1
 90
        3
176
     1
 62
     5
420
      255
176
     1
290
     0
176
     1
 90
       50
176
     1
 90
       50
176
     1
 90
       50
176
     1
290
     0
176
     1
 90
       50
176
     1
 62
   256
176
     0
 40
1.0
176
     0
 90
        2
176
     1
  1
strokes_ogs.tif
176
     1
290
     0
176
     1
 40
1.0
176
     1
 40
1.0
176
     1
  0
VISUALSTYLE
  5
35
102
{ACAD_REACTORS
330
29
102
}
330
29
100
AcDbVisualStyle
  2
Brighten
 70
    12
177
     3
291
     1
 70
    58
 90
        2
176
     1
 90
        2
176
     1
 90
        0
176
     1
 90
        0
176
     1
 40
0.6
176
     1
 40
30.0
176
     1
 62
     7
420
 16777215
176
     1
 90
        1
176
     1
 90
        4
176
     1
 62
     7
176
     1
 62
   257
176
     1
 90
        1
176
     1
 90
        1
176
     1
 40
1.0
176
     1
 90
        8
176
     1
 62
     7
176
     1
 40
1.0
176
     1
 90
        1
176
     1
 90
        6
176
     1
 90
        2
176
     1
 62
     7
176
     1
 90
        5
176
     1
 90
        0
176
     1
 90
        0
176
     1
290
     0
176
     1
 90
        1
176
     1
 40
50.0
176
     1
 90
        0
176
     1
290
     0
176
     1
290
     1
176
     1
290
     1
176
     1
290
     0
176
     1
290
     0
176
     1
290
     0
176
     1
290
     0
176
     1
290
     0
176
     1
290
     0
176
     1
 90
       50
176
     1
 40
0.0
176
     1
 40
1.0
176
     1
 90
        0
176
     1
 62
    18
420
        0
176
     1
 90
       50
176
     1
 90
        3
176
     1
 62
     5
420
      255
176
     1
290
     0
176
     1
 90
       50
176
     1
 90
       50
176
     1
 90
       50
176
     1
290
     0
176
     1
 90
       50
176
     1
 62
   256
176
     0
 40
1.0
176
     0
 90
        2
176
     1
  1
strokes_ogs.tif
176
     1
290
     0
176
     1
 40
1.0
176
     1
 40
1.0
176
     1
  0
VISUALSTYLE
  5
39
102
{ACAD_REACTORS
330
29
102
}
330
29
100
AcDbVisualStyle
  2
ColorChange
 70
    16
177
     3
291
     1
 70
    58
 90
        2
176
     1
 90
        2
176
     1
 90
        3
176
     1
 90
        0
176
     1
 40
0.6
176
     1
 40
30.0
176
     1
 62
     8
420
  8421504
176
     1
 90
        1
176
     1
 90
        4
176
     1
 62
     7
176
     1
 62
   257
176
     1
 90
        1
176
     1
 90
        1
176
     1
 40
1.0
176
     1
 90
        8
176
     1
 62
     8
420
  8421504
176
     1
 40
1.0
176
     1
 90
        1
176
     1
 90
        6
176
     1
 90
        2
176
     1
 62
     7
176
     1
 90
        5
176
     1
 90
        0
176
     1
 90
        0
176
     1
290
     0
176
     1
 90
        1
176
     1
 40
0.0
176
     1
 90
        0
176
     1
290
     0
176
     1
290
     1
176
     1
290
     1
176
     1
290
     0
176
     1
290
     0
176
     1
290
     0
176
     1
290
     0
176
     1
290
     0
176
     1
290
     0
176
     1
 90
       50
176
     1
 40
0.0
176
     1
 40
1.0
176
     1
 90
        0
176
     1
 62
    18
420
        0
176
     1
 90
       50
176
     1
 90
        3
176
     1
 62
     5
420
      255
176
     1
290
     0
176
     1
 90
       50
176
     1
 90
       50
176
     1
 90
       50
176
     1
290
     0
176
     1
 90
       50
176
     1
 62
   256
176
     0
 40
1.0
176
     0
 90
        2
176
     1
  1
strokes_ogs.tif
176
     1
290
     0
176
     1
 40
1.0
176
     1
 40
1.0
176
     1
  0
VISUALSTYLE
  5
32
102
{ACAD_REACTORS
330
29
102
}
330
29
100
AcDbVisualStyle
  2
Conceptual
 70
     9
177
     3
291
     0
 70
    58
 90
        3
176
     1
 90
        2
176
     1
 90
        0
176
     1
 90
        0
176
     1
 40
0.6
176
     1
 40
30.0
176
     1
 62
     7
420
 16777215
176
     1
 90
        2
176
     1
 90
        2
176
     1
 62
     7
176
     1
 62
   257
176
     1
 90
        1
176
     1
 90
        1
176
     1
 40
179.0
176
     1
 90
        8
176
     1
 62
     7
176
     1
 40
1.0
176
     1
 90
        1
176
     1
 90
        6
176
     1
 90
        2
176
     1
 62
     7
176
     1
 90
        3
176
     1
 90
        0
176
     1
 90
        0
176
     1
290
     0
176
     1
 90
        1
176
     1
 40
0.0
176
     1
 90
        0
176
     1
290
     0
176
     1
290
     1
176
     1
290
     1
176
     1
290
     0
176
     1
290
     0
176
     1
290
     0
176
     1
290
     0
176
     1
290
     0
176
     1
290
     0
176
     1
 90
       50
176
     1
 40
0.0
176
     1
 40
1.0
176
     1
 90
        0
176
     1
 62
    18
420
        0
176
     1
 90
       50
176
     1
 90
        3
176
     1
 62
     5
420
      255
176
     1
290
     0
176
     1
 90
       50
176
     1
 90
       50
176
     1
 90
       50
176
     1
290
     0
176
     1
 90
       50
176
     1
 62
   256
176
     0
 40
1.0
176
     0
 90
        2
176
     1
  1
strokes_ogs.tif
176
     1
290
     0
176
     1
 40
1.0
176
     1
 40
1.0
176
     1
  0
VISUALSTYLE
  5
34
102
{ACAD_REACTORS
330
29
102
}
330
29
100
AcDbVisualStyle
  2
Dim
 70
    11
177
     3
291
     1
 70
    58
 90
        2
176
     1
 90
        2
176
     1
 90
        0
176
     1
 90
        0
176
     1
 40
0.6
176
     1
 40
30.0
176
     1
 62
     7
420
 16777215
176
     1
 90
        1
176
     1
 90
        4
176
     1
 62
     7
176
     1
 62
   257
176
     1
 90
        1
176
     1
 90
        1
176
     1
 40
1.0
176
     1
 90
        8
176
     1
 62
     7
176
     1
 40
1.0
176
     1
 90
        1
176
     1
 90
        6
176
     1
 90
        2
176
     1
 62
     7
176
     1
 90
        5
176
     1
 90
        0
176
     1
 90
        0
176
     1
290
     0
176
     1
 90
        1
176
     1
 40
-50.0
176
     1
 90
        0
176
     1
290
     0
176
     1
290
     1
176
     1
290
     1
176
     1
290
     0
176
     1
290
     0
176
     1
290
     0
176
     1
290
     0
176
     1
290
     0
176
     1
290
     0
176
     1
 90
       50
176
     1
 40
0.0
176
     1
 40
1.0
176
     1
 90
        0
176
     1
 62
    18
420
        0
176
     1
 90
       50
176
     1
 90
        3
176
     1
 62
     5
420
      255
176
     1
290
     0
176
     1
 90
       50
176
     1
 90
       50
176
     1
 90
       50
176
     1
290
     0
176
     1
 90
       50
176
     1
 62
   256
176
     0
 40
1.0
176
     0
 90
        2
176
     1
  1
strokes_ogs.tif
176
     1
290
     0
176
     1
 40
1.0
176
     1
 40
1.0
176
     1
  0
VISUALSTYLE
  5
41
102
{ACAD_REACTORS
330
29
102
}
330
29
100
AcDbVisualStyle
  2
EdgeColorOff
 70
    22
177
     3
291
     1
 70
    58
 90
        2
176
     0
 90
        2
176
     0
 90
        0
176
     0
 90
        0
176
     0
 40
0.6
176
     0
 40
30.0
176
     0
 62
     7
420
 16777215
176
     0
 90
        1
176
     0
 90
        4
176
     0
 62
     7
176
     0
 62
   257
176
     0
 90
        1
176
     0
 90
        1
176
     0
 40
1.0
176
     0
 90
        8
176
     2
 62
     7
176
     0
 40
1.0
176
     0
 90
        1
176
     0
 90
        6
176
     0
 90
        2
176
     0
 62
     7
176
     0
 90
        5
176
     0
 90
        0
176
     0
 90
        0
176
     0
290
     0
176
     0
 90
        1
176
     0
 40
0.0
176
     0
 90
        0
176
     0
290
     0
176
     0
290
     1
176
     0
290
     1
176
     0
290
     0
176
     0
290
     0
176
     0
290
     0
176
     0
290
     0
176
     0
290
     0
176
     0
290
     0
176
     0
 90
       50
176
     0
 40
0.0
176
     0
 40
1.0
176
     0
 90
        0
176
     0
 62
    18
420
        0
176
     0
 90
       50
176
     0
 90
        3
176
     0
 62
     5
420
      255
176
     0
290
     0
176
     0
 90
       50
176
     0
 90
       50
176
     0
 90
       50
176
     0
290
     0
176
     0
 90
       50
176
     0
 62
   256
176
     0
 40
1.0
176
     0
 90
        2
176
     0
  1
strokes_ogs.tif
176
     0
290
     0
176
     0
 40
1.0
176
     0
 40
1.0
176
     0
  0
VISUALSTYLE
  5
38
102
{ACAD_REACTORS
330
29
102
}
330
29
100
AcDbVisualStyle
  2
Facepattern
 70
    15
177
     3
291
     1
 70
    58
 90
        2
176
     1
 90
        2
176
     1
 90
        0
176
     1
 90
        0
176
     1
 40
0.6
176
     1
 40
30.0
176
     1
 62
     7
420
 16777215
176
     1
 90
        1
176
     1
 90
        4
176
     1
 62
     7
176
     1
 62
   257
176
     1
 90
        1
176
     1
 90
        1
176
     1
 40
1.0
176
     1
 90
        8
176
     1
 62
     7
176
     1
 40
1.0
176
     1
 90
        1
176
     1
 90
        6
176
     1
 90
        2
176
     1
 62
     7
176
     1
 90
        5
176
     1
 90
        0
176
     1
 90
        0
176
     1
290
     0
176
     1
 90
        1
176
     1
 40
0.0
176
     1
 90
        0
176
     1
290
     0
176
     1
290
     1
176
     1
290
     1
176
     1
290
     0
176
     1
290
     0
176
     1
290
     0
176
     1
290
     0
176
     1
290
     0
176
     1
290
     0
176
     1
 90
       50
176
     1
 40
0.0
176
     1
 40
1.0
176
     1
 90
        0
176
     1
 62
    18
420
        0
176
     1
 90
       50
176
     1
 90
        3
176
     1
 62
     5
420
      255
176
     1
290
     0
176
     1
 90
       50
176
     1
 90
       50
176
     1
 90
       50
176
     1
290
     0
176
     1
 90
       50
176
     1
 62
   256
176
     0
 40
1.0
176
     0
 90
        2
176
     1
  1
strokes_ogs.tif
176
     1
290
     0
176
     1
 40
1.0
176
     1
 40
1.0
176
     1
  0
VISUALSTYLE
  5
2A
102
{ACAD_REACTORS
330
29
102
}
330
29
100
AcDbVisualStyle
  2
Flat
 70
     0
177
     3
291
     1
 70
    58
 90
        2
176
     1
 90
        1
176
     1
 90
        1
176
     1
 90
        2
176
     1
 40
0.6
176
     1
 40
30.0
176
     1
 62
     7
420
 16777215
176
     1
 90
        0
176
     1
 90
        0
176
     1
 62
     7
176
     1
 62
   257
176
     1
 90
        1
176
     1
 90
        1
176
     1
 40
1.0
176
     1
 90
        8
176
     1
 62
     7
176
     1
 40
1.0
176
     1
 90
        1
176
     1
 90
        6
176
     1
 90
        2
176
     1
 62
     7
176
     1
 90
        5
176
     1
 90
        0
176
     1
 90
        0
176
     1
290
     0
176
     1
 90
       13
176
     1
 40
0.0
176
     1
 90
        0
176
     1
290
     0
176
     1
290
     1
176
     1
290
     1
176
     1
290
     0
176
     1
290
     0
176
     1
290
     0
176
     1
290
     0
176
     1
290
     0
176
     1
290
     0
176
     1
 90
       50
176
     1
 40
0.0
176
     1
 40
1.0
176
     1
 90
        0
176
     1
 62
    18
420
        0
176
     1
 90
       50
176
     1
 90
        3
176
     1
 62
     5
420
      255
176
     1
290
     0
176
     1
 90
       50
176
     1
 90
       50
176
     1
 90
       50
176
     1
290
     0
176
     1
 90
       50
176
     1
 62
   256
176
     0
 40
1.0
176
     0
 90
        2
176
     1
  1
strokes_ogs.tif
176
     1
290
     0
176
     1
 40
1.0
176
     1
 40
1.0
176
     1
  0
VISUALSTYLE
  5
2B
102
{ACAD_REACTORS
330
29
102
}
330
29
100
AcDbVisualStyle
  2
FlatWithEdges
 70
     1
177
     3
291
     1
 70
    58
 90
        2
176
     1
 90
        1
176
     1
 90
        1
176
     1
 90
        2
176
     1
 40
0.6
176
     1
 40
30.0
176
     1
 62
     7
420
 16777215
176
     1
 90
        1
176
     1
 90
        0
176
     1
 62
     7
176
     1
 62
   257
176
     1
 90
        1
176
     1
 90
        1
176
     1
 40
1.0
176
     1
 90
        0
176
     1
 62
   257
176
     1
 40
1.0
176
     1
 90
        1
176
     1
 90
        6
176
     1
 90
        2
176
     1
 62
     7
176
     1
 90
        5
176
     1
 90
        0
176
     1
 90
        0
176
     1
290
     0
176
     1
 90
       13
176
     1
 40
0.0
176
     1
 90
        0
176
     1
290
     0
176
     1
290
     1
176
     1
290
     1
176
     1
290
     0
176
     1
290
     0
176
     1
290
     0
176
     1
290
     0
176
     1
290
     0
176
     1
290
     0
176
     1
 90
       50
176
     1
 40
0.0
176
     1
 40
1.0
176
     1
 90
        0
176
     1
 62
    18
420
        0
176
     1
 90
       50
176
     1
 90
        3
176
     1
 62
     5
420
      255
176
     1
290
     0
176
     1
 90
       50
176
     1
 90
       50
176
     1
 90
       50
176
     1
290
     0
176
     1
 90
       50
176
     1
 62
   256
176
     0
 40
1.0
176
     0
 90
        2
176
     1
  1
strokes_ogs.tif
176
     1
290
     0
176
     1
 40
1.0
176
     1
 40
1.0
176
     1
  0
VISUALSTYLE
  5
2C
102
{ACAD_REACTORS
330
29
102
}
330
29
100
AcDbVisualStyle
  2
Gouraud
 70
     2
177
     3
291
     1
 70
    58
 90
        2
176
     1
 90
        2
176
     1
 90
        1
176
     1
 90
        2
176
     1
 40
0.6
176
     1
 40
30.0
176
     1
 62
     7
420
 16777215
176
     1
 90
        0
176
     1
 90
        0
176
     1
 62
     7
176
     1
 62
   257
176
     1
 90
        1
176
     1
 90
        1
176
     1
 40
1.0
176
     1
 90
        0
176
     1
 62
     7
176
     1
 40
1.0
176
     1
 90
        1
176
     1
 90
        6
176
     1
 90
        2
176
     1
 62
     7
176
     1
 90
        5
176
     1
 90
        0
176
     1
 90
        0
176
     1
290
     0
176
     1
 90
       13
176
     1
 40
0.0
176
     1
 90
        0
176
     1
290
     0
176
     1
290
     1
176
     1
290
     1
176
     1
290
     0
176
     1
290
     0
176
     1
290
     0
176
     1
290
     0
176
     1
290
     0
176
     1
290
     0
176
     1
 90
       50
176
     1
 40
0.0
176
     1
 40
1.0
176
     1
 90
        0
176
     1
 62
    18
420
        0
176
     1
 90
       50
176
     1
 90
        3
176
     1
 62
     5
420
      255
176
     1
290
     0
176
     1
 90
       50
176
     1
 90
       50
176
     1
 90
       50
176
     1
290
     0
176
     1
 90
       50
176
     1
 62
   256
176
     0
 40
1.0
176
     0
 90
        2
176
     1
  1
strokes_ogs.tif
176
     1
290
     0
176
     1
 40
1.0
176
     1
 40
1.0
176
     1
  0
VISUALSTYLE
  5
2D
102
{ACAD_REACTORS
330
29
102
}
330
29
100
AcDbVisualStyle
  2
GouraudWithEdges
 70
     3
177
     3
291
     1
 70
    58
 90
        2
176
     1
 90
        2
176
     1
 90
        1
176
     1
 90
        2
176
     1
 40
0.6
176
     1
 40
30.0
176
     1
 62
     7
420
 16777215
176
     1
 90
        1
176
     1
 90
        0
176
     1
 62
     7
176
     1
 62
   257
176
     1
 90
        1
176
     1
 90
        1
176
     1
 40
1.0
176
     1
 90
        0
176
     1
 62
   257
176
     1
 40
1.0
176
     1
 90
        1
176
     1
 90
        6
176
     1
 90
        2
176
     1
 62
     7
176
     1
 90
        5
176
     1
 90
        0
176
     1
 90
        0
176
     1
290
     0
176
     1
 90
       13
176
     1
 40
0.0
176
     1
 90
        0
176
     1
290
     0
176
     1
290
     1
176
     1
290
     1
176
     1
290
     0
176
     1
290
     0
176
     1
290
     0
176
     1
290
     0
176
     1
290
     0
176
     1
290
     0
176
     1
 90
       50
176
     1
 40
0.0
176
     1
 40
1.0
176
     1
 90
        0
176
     1
 62
    18
420
        0
176
     1
 90
       50
176
     1
 90
        3
176
     1
 62
     5
420
      255
176
     1
290
     0
176
     1
 90
       50
176
     1
 90
       50
176
     1
 90
       50
176
     1
290
     0
176
     1
 90
       50
176
     1
 62
   256
176
     0
 40
1.0
176
     0
 90
        2
176
     1
  1
strokes_ogs.tif
176
     1
290
     0
176
     1
 40
1.0
176
     1
 40
1.0
176
     1
  0
VISUALSTYLE
  5
31
102
{ACAD_REACTORS
330
29
102
}
330
29
100
AcDbVisualStyle
  2
Hidden
 70
     6
177
     3
291
     0
 70
    58
 90
        1
176
     1
 90
        2
176
     1
 90
        2
176
     1
 90
        0
176
     1
 40
0.6
176
     1
 40
30.0
176
     1
 62
     7
420
 16777215
176
     1
 90
        2
176
     1
 90
        2
176
     1
 62
     7
176
     1
 62
   257
176
     1
 90
        2
176
     1
 90
        1
176
     1
 40
40.0
176
     1
 90
        0
176
     1
 62
   257
176
     1
 40
1.0
176
     1
 90
        1
176
     1
 90
        6
176
     1
 90
        2
176
     1
 62
     7
176
     1
 90
        3
176
     1
 90
        0
176
     1
 90
        0
176
     1
290
     0
176
     1
 90
        1
176
     1
 40
0.0
176
     1
 90
        0
176
     1
290
     0
176
     1
290
     1
176
     1
290
     1
176
     1
290
     0
176
     1
290
     0
176
     1
290
     0
176
     1
290
     0
176
     1
290
     0
176
     1
290
     0
176
     1
 90
       50
176
     1
 40
0.0
176
     1
 40
1.0
176
     1
 90
        0
176
     1
 62
    18
420
        0
176
     1
 90
       50
176
     1
 90
        3
176
     1
 62
     5
420
      255
176
     1
290
     0
176
     1
 90
       50
176
     1
 90
       50
176
     1
 90
       50
176
     1
290
     0
176
     1
 90
       50
176
     1
 62
   256
176
     0
 40
1.0
176
     0
 90
        2
176
     1
  1
strokes_ogs.tif
176
     1
290
     0
176
     1
 40
1.0
176
     1
 40
1.0
176
     1
  0
VISUALSTYLE
  5
3F
102
{ACAD_REACTORS
330
29
102
}
330
29
100
AcDbVisualStyle
  2
JitterOff
 70
    20
177
     3
291
     1
 70
    58
 90
        2
176
     0
 90
        2
176
     0
 90
        0
176
     0
 90
        0
176
     0
 40
0.6
176
     0
 40
30.0
176
     0
 62
     7
420
 16777215
176
     0
 90
        1
176
     0
 90
        4
176
     0
 62
     7
176
     0
 62
   257
176
     0
 90
        1
176
     0
 90
        1
176
     0
 40
1.0
176
     0
 90
       10
176
     2
 62
     7
176
     0
 40
1.0
176
     0
 90
        1
176
     0
 90
        6
176
     0
 90
        2
176
     0
 62
     7
176
     0
 90
        5
176
     0
 90
        0
176
     0
 90
        0
176
     0
290
     0
176
     0
 90
        1
176
     0
 40
0.0
176
     0
 90
        0
176
     0
290
     0
176
     0
290
     1
176
     0
290
     1
176
     0
290
     0
176
     0
290
     0
176
     0
290
     0
176
     0
290
     0
176
     0
290
     0
176
     0
290
     0
176
     0
 90
       50
176
     0
 40
0.0
176
     0
 40
1.0
176
     0
 90
        0
176
     0
 62
    18
420
        0
176
     0
 90
       50
176
     0
 90
        3
176
     0
 62
     5
420
      255
176
     0
290
     0
176
     0
 90
       50
176
     0
 90
       50
176
     0
 90
       50
176
     0
290
     0
176
     0
 90
       50
176
     0
 62
   256
176
     0
 40
1.0
176
     0
 90
        2
176
     0
  1
strokes_ogs.tif
176
     0
290
     0
176
     0
 40
1.0
176
     0
 40
1.0
176
     0
  0
VISUALSTYLE
  5
37
102
{ACAD_REACTORS
330
29
102
}
330
29
100
AcDbVisualStyle
  2
Linepattern
 70
    14
177
     3
291
     1
 70
    58
 90
        2
176
     1
 90
        2
176
     1
 90
        0
176
     1
 90
        0
176
     1
 40
0.6
176
     1
 40
30.0
176
     1
 62
     7
420
 16777215
176
     1
 90
        1
176
     1
 90
        4
176
     1
 62
     7
176
     1
 62
   257
176
     1
 90
        7
176
     1
 90
        7
176
     1
 40
1.0
176
     1
 90
        8
176
     1
 62
     7
176
     1
 40
1.0
176
     1
 90
        1
176
     1
 90
        6
176
     1
 90
        2
176
     1
 62
     7
176
     1
 90
        5
176
     1
 90
        0
176
     1
 90
        0
176
     1
290
     0
176
     1
 90
        1
176
     1
 40
0.0
176
     1
 90
        0
176
     1
290
     0
176
     1
290
     1
176
     1
290
     1
176
     1
290
     0
176
     1
290
     0
176
     1
290
     0
176
     1
290
     0
176
     1
290
     0
176
     1
290
     0
176
     1
 90
       50
176
     1
 40
0.0
176
     1
 40
1.0
176
     1
 90
        0
176
     1
 62
    18
420
        0
176
     1
 90
       50
176
     1
 90
        3
176
     1
 62
     5
420
      255
176
     1
290
     0
176
     1
 90
       50
176
     1
 90
       50
176
     1
 90
       50
176
     1
290
     0
176
     1
 90
       50
176
     1
 62
   256
176
     0
 40
1.0
176
     0
 90
        2
176
     1
  1
strokes_ogs.tif
176
     1
290
     0
176
     1
 40
1.0
176
     1
 40
1.0
176
     1
  0
VISUALSTYLE
  5
40
102
{ACAD_REACTORS
330
29
102
}
330
29
100
AcDbVisualStyle
  2
OverhangOff
 70
    21
177
     3
291
     1
 70
    58
 90
        2
176
     0
 90
        2
176
     0
 90
        0
176
     0
 90
        0
176
     0
 40
0.6
176
     0
 40
30.0
176
     0
 62
     7
420
 16777215
176
     0
 90
        1
176
     0
 90
        4
176
     0
 62
     7
176
     0
 62
   257
176
     0
 90
        1
176
     0
 90
        1
176
     0
 40
1.0
176
     0
 90
        9
176
     2
 62
     7
176
     0
 40
1.0
176
     0
 90
        1
176
     0
 90
        6
176
     0
 90
        2
176
     0
 62
     7
176
     0
 90
        5
176
     0
 90
        0
176
     0
 90
        0
176
     0
290
     0
176
     0
 90
        1
176
     0
 40
0.0
176
     0
 90
        0
176
     0
290
     0
176
     0
290
     1
176
     0
290
     1
176
     0
290
     0
176
     0
290
     0
176
     0
290
     0
176
     0
290
     0
176
     0
290
     0
176
     0
290
     0
176
     0
 90
       50
176
     0
 40
0.0
176
     0
 40
1.0
176
     0
 90
        0
176
     0
 62
    18
420
        0
176
     0
 90
       50
176
     0
 90
        3
176
     0
 62
     5
420
      255
176
     0
290
     0
176
     0
 90
       50
176
     0
 90
       50
176
     0
 90
       50
176
     0
290
     0
176
     0
 90
       50
176
     0
 62
   256
176
     0
 40
1.0
176
     0
 90
        2
176
     0
  1
strokes_ogs.tif
176
     0
290
     0
176
     0
 40
1.0
176
     0
 40
1.0
176
     0
  0
VISUALSTYLE
  5
33
102
{ACAD_REACTORS
330
29
102
}
330
29
100
AcDbVisualStyle
  2
Realistic
 70
     8
177
     3
291
     0
 70
    58
 90
        2
176
     1
 90
        3
176
     1
 90
        0
176
     1
 90
        2
176
     1
 40
0.6
176
     1
 40
30.0
176
     1
 62
     7
420
 16777215
176
     1
 90
        0
176
     1
 90
        0
176
     1
 62
     7
176
     1
 62
   257
176
     1
 90
        1
176
     1
 90
        1
176
     1
 40
1.0
176
     1
 90
        8
176
     1
 62
   257
176
     1
 40
1.0
176
     1
 90
        1
176
     1
 90
        6
176
     1
 90
        2
176
     1
 62
     7
176
     1
 90
        3
176
     1
 90
        0
176
     1
 90
        0
176
     1
290
     0
176
     1
 90
       13
176
     1
 40
0.0
176
     1
 90
        0
176
     1
290
     0
176
     1
290
     1
176
     1
290
     1
176
     1
290
     0
176
     1
290
     0
176
     1
290
     0
176
     1
290
     0
176
     1
290
     0
176
     1
290
     0
176
     1
 90
       50
176
     1
 40
0.0
176
     1
 40
1.0
176
     1
 90
        0
176
     1
 62
    18
420
        0
176
     1
 90
       50
176
     1
 90
        3
176
     1
 62
     5
420
      255
176
     1
290
     0
176
     1
 90
       50
176
     1
 90
       50
176
     1
 90
       50
176
     1
290
     0
176
     1
 90
       50
176
     1
 62
   256
176
     0
 40
1.0
176
     0
 90
        2
176
     1
  1
strokes_ogs.tif
176
     1
290
     0
176
     1
 40
1.0
176
     1
 40
1.0
176
     1
  0
VISUALSTYLE
  5
3E
102
{ACAD_REACTORS
330
29
102
}
330
29
100
AcDbVisualStyle
  2
Shaded
 70
    27
177
     3
291
     0
 70
    58
 90
        2
176
     1
 90
        2
176
     1
 90
        1
176
     1
 90
        2
176
     1
 40
0.6
176
     1
 40
30.0
176
     1
 62
     7
420
 16777215
176
     1
 90
        0
176
     1
 90
        4
176
     1
 62
     7
176
     1
 62
   257
176
     1
 90
        1
176
     1
 90
        1
176
     1
 40
1.0
176
     1
 90
        8
176
     1
 62
   257
176
     1
 40
1.0
176
     1
 90
        1
176
     1
 90
        6
176
     1
 90
        2
176
     1
 62
     8
420
  7895160
176
     1
 90
        3
176
     1
 90
        0
176
     1
 90
        0
176
     1
290
     0
176
     1
 90
        5
176
     1
 40
0.0
176
     1
 90
        0
176
     1
290
     0
176
     1
290
     1
176
     1
290
     1
176
     1
290
     0
176
     1
290
     0
176
     1
290
     0
176
     1
290
     0
176
     1
290
     0
176
     1
290
     0
176
     1
 90
       50
176
     1
 40
0.0
176
     1
 40
1.0
176
     1
 90
        0
176
     1
 62
    18
420
        0
176
     1
 90
       50
176
     1
 90
        3
176
     1
 62
     5
420
      255
176
     1
290
     0
176
     1
 90
       50
176
     1
 90
       50
176
     1
 90
       50
176
     1
290
     0
176
     1
 90
       50
176
     1
 62
   256
176
     0
 40
1.0
176
     0
 90
        2
176
     1
  1
strokes_ogs.tif
176
     1
290
     0
176
     1
 40
1.0
176
     1
 40
1.0
176
     1
  0
VISUALSTYLE
  5
3D
102
{ACAD_REACTORS
330
29
102
}
330
29
100
AcDbVisualStyle
  2
Shaded with edges
 70
    26
177
     3
291
     0
 70
    58
 90
        2
176
     1
 90
        2
176
     1
 90
        1
176
     1
 90
        2
176
     1
 40
0.6
176
     1
 40
30.0
176
     1
 62
     7
420
 16777215
176
     1
 90
        1
176
     1
 90
        2
176
     1
 62
     7
176
     1
 62
   257
176
     1
 90
        2
176
     1
 90
        1
176
     1
 40
1.0
176
     1
 90
        8
176
     1
 62
   257
176
     1
 40
1.0
176
     1
 90
        1
176
     1
 90
        6
176
     1
 90
        2
176
     1
 62
     7
176
     1
 90
        3
176
     1
 90
        0
176
     1
 90
        0
176
     1
290
     0
176
     1
 90
        5
176
     1
 40
0.0
176
     1
 90
        0
176
     1
290
     0
176
     1
290
     1
176
     1
290
     1
176
     1
290
     0
176
     1
290
     0
176
     1
290
     0
176
     1
290
     0
176
     1
290
     0
176
     1
290
     0
176
     1
 90
       50
176
     1
 40
0.0
176
     1
 40
1.0
176
     1
 90
        0
176
     1
 62
    18
420
        0
176
     1
 90
       50
176
     1
 90
        3
176
     1
 62
     5
420
      255
176
     1
290
     0
176
     1
 90
       50
176
     1
 90
       50
176
     1
 90
       50
176
     1
290
     0
176
     1
 90
       50
176
     1
 62
   256
176
     0
 40
1.0
176
     0
 90
        2
176
     1
  1
strokes_ogs.tif
176
     1
290
     0
176
     1
 40
1.0
176
     1
 40
1.0
176
     1
  0
VISUALSTYLE
  5
3A
102
{ACAD_REACTORS
330
29
102
}
330
29
100
AcDbVisualStyle
  2
Shades of Gray
 70
    23
177
     3
291
     0
 70
    58
 90
        2
176
     1
 90
        2
176
     1
 90
        3
176
     1
 90
        0
176
     1
 40
0.6
176
     1
 40
30.0
176
     1
 62
     7
420
 16777215
176
     1
 90
        2
176
     1
 90
        2
176
     1
 62
     7
176
     1
 62
     7
176
     1
 90
        1
176
     1
 90
        1
176
     1
 40
40.0
176
     1
 90
        8
176
     1
 62
     7
176
     1
 40
1.0
176
     1
 90
        1
176
     1
 90
        6
176
     1
 90
        2
176
     1
 62
     7
176
     1
 90
        3
176
     1
 90
        0
176
     1
 90
        0
176
     1
290
     0
176
     1
 90
        1
176
     1
 40
0.0
176
     1
 90
        0
176
     1
290
     0
176
     1
290
     1
176
     1
290
     1
176
     1
290
     0
176
     1
290
     0
176
     1
290
     0
176
     1
290
     0
176
     1
290
     0
176
     1
290
     0
176
     1
 90
       50
176
     1
 40
0.0
176
     1
 40
1.0
176
     1
 90
        0
176
     1
 62
    18
420
        0
176
     1
 90
       50
176
     1
 90
        3
176
     1
 62
     5
420
      255
176
     1
290
     0
176
     1
 90
       50
176
     1
 90
       50
176
     1
 90
       50
176
     1
290
     0
176
     1
 90
       50
176
     1
 62
   256
176
     0
 40
1.0
176
     0
 90
        2
176
     1
  1
strokes_ogs.tif
176
     1
290
     0
176
     1
 40
1.0
176
     1
 40
1.0
176
     1
  0
VISUALSTYLE
  5
3B
102
{ACAD_REACTORS
330
29
102
}
330
29
100
AcDbVisualStyle
  2
Sketchy
 70
    24
177
     3
291
     0
 70
    58
 90
        1
176
     1
 90
        2
176
     1
 90
        2
176
     1
 90
        0
176
     1
 40
0.6
176
     1
 40
30.0
176
     1
 62
     7
420
 16777215
176
     1
 90
        2
176
     1
 90
        2
176
     1
 62
     7
176
     1
 62
     7
176
     1
 90
        1
176
     1
 90
        1
176
     1
 40
40.0
176
     1
 90
       11
176
     1
 62
     7
176
     1
 40
1.0
176
     1
 90
        1
176
     1
 90
        6
176
     1
 90
        2
176
     1
 62
     7
176
     1
 90
        6
176
     1
 90
        0
176
     1
 90
        0
176
     1
290
     0
176
     1
 90
        1
176
     1
 40
0.0
176
     1
 90
        0
176
     1
290
     0
176
     1
290
     1
176
     1
290
     1
176
     1
290
     0
176
     1
290
     0
176
     1
290
     0
176
     1
290
     0
176
     1
290
     0
176
     1
290
     0
176
     1
 90
       50
176
     1
 40
0.0
176
     1
 40
1.0
176
     1
 90
        0
176
     1
 62
    18
420
        0
176
     1
 90
       50
176
     1
 90
        3
176
     1
 62
     5
420
      255
176
     1
290
     0
176
     1
 90
       50
176
     1
 90
       50
176
     1
 90
       50
176
     1
290
     0
176
     1
 90
       50
176
     1
 62
   256
176
     0
 40
1.0
176
     0
 90
        2
176
     1
  1
strokes_ogs.tif
176
     1
290
     0
176
     1
 40
1.0
176
     1
 40
1.0
176
     1
  0
VISUALSTYLE
  5
36
102
{ACAD_REACTORS
330
29
102
}
330
29
100
AcDbVisualStyle
  2
Thicken
 70
    13
177
     3
291
     1
 70
    58
 90
        2
176
     1
 90
        2
176
     1
 90
        0
176
     1
 90
        0
176
     1
 40
0.6
176
     1
 40
30.0
176
     1
 62
     7
420
 16777215
176
     1
 90
        1
176
     1
 90
        4
176
     1
 62
     7
176
     1
 62
   257
176
     1
 90
        1
176
     1
 90
        1
176
     1
 40
1.0
176
     1
 90
       12
176
     1
 62
     7
176
     1
 40
1.0
176
     1
 90
        1
176
     1
 90
        6
176
     1
 90
        2
176
     1
 62
     7
176
     1
 90
        5
176
     1
 90
        0
176
     1
 90
        0
176
     1
290
     0
176
     1
 90
        1
176
     1
 40
0.0
176
     1
 90
        0
176
     1
290
     0
176
     1
290
     1
176
     1
290
     1
176
     1
290
     0
176
     1
290
     0
176
     1
290
     0
176
     1
290
     0
176
     1
290
     0
176
     1
290
     0
176
     1
 90
       50
176
     1
 40
0.0
176
     1
 40
1.0
176
     1
 90
        0
176
     1
 62
    18
420
        0
176
     1
 90
       50
176
     1
 90
        3
176
     1
 62
     5
420
      255
176
     1
290
     0
176
     1
 90
       50
176
     1
 90
       50
176
     1
 90
       50
176
     1
290
     0
176
     1
 90
       50
176
     1
 62
   256
176
     0
 40
1.0
176
     0
 90
        2
176
     1
  1
strokes_ogs.tif
176
     1
290
     0
176
     1
 40
1.0
176
     1
 40
1.0
176
     1
  0
VISUALSTYLE
  5
30
102
{ACAD_REACTORS
330
29
102
}
330
29
100
AcDbVisualStyle
  2
Wireframe
 70
     5
177
     3
291
     0
 70
    58
 90
        0
176
     1
 90
        2
176
     1
 90
        0
176
     1
 90
        0
176
     1
 40
0.6
176
     1
 40
30.0
176
     1
 62
     7
420
 16777215
176
     1
 90
        1
176
     1
 90
        4
176
     1
 62
     7
176
     1
 62
   257
176
     1
 90
        1
176
     1
 90
        1
176
     1
 40
1.0
176
     1
 90
        0
176
     1
 62
   257
176
     1
 40
1.0
176
     1
 90
        1
176
     1
 90
        6
176
     1
 90
        2
176
     1
 62
     7
176
     1
 90
        3
176
     1
 90
        0
176
     1
 90
        0
176
     1
290
     0
176
     1
 90
        1
176
     1
 40
0.0
176
     1
 90
        0
176
     1
290
     0
176
     1
290
     1
176
     1
290
     1
176
     1
290
     0
176
     1
290
     0
176
     1
290
     0
176
     1
290
     0
176
     1
290
     0
176
     1
290
     0
176
     1
 90
       50
176
     1
 40
0.0
176
     1
 40
1.0
176
     1
 90
        0
176
     1
 62
    18
420
        0
176
     1
 90
       50
176
     1
 90
        3
176
     1
 62
     5
420
      255
176
     1
290
     0
176
     1
 90
       50
176
     1
 90
       50
176
     1
 90
       50
176
     1
290
     0
176
     1
 90
       50
176
     1
 62
   256
176
     0
 40
1.0
176
     0
 90
        2
176
     1
  1
strokes_ogs.tif
176
     1
290
     0
176
     1
 40
1.0
176
     1
 40
1.0
176
     1
  0
VISUALSTYLE
  5
3C
102
{ACAD_REACTORS
330
29
102
}
330
29
100
AcDbVisualStyle
  2
X-Ray
 70
    25
177
     3
291
     0
 70
    58
 90
        2
176
     1
 90
        2
176
     1
 90
        1
176
     1
 90
        1
176
     1
 40
0.5
176
     1
 40
30.0
176
     1
 62
     7
420
 16777215
176
     1
 90
        1
176
     1
 90
        0
176
     1
 62
     7
176
     1
 62
   257
176
     1
 90
        1
176
     1
 90
        1
176
     1
 40
1.0
176
     1
 90
        8
176
     1
 62
     7
176
     1
 40
1.0
176
     1
 90
        1
176
     1
 90
        6
176
     1
 90
        2
176
     1
 62
     7
176
     1
 90
        3
176
     1
 90
        0
176
     1
 90
        0
176
     1
290
     0
176
     1
 90
       13
176
     1
 40
0.0
176
     1
 90
        0
176
     1
290
     0
176
     1
290
     1
176
     1
290
     1
176
     1
290
     0
176
     1
290
     0
176
     1
290
     0
176
     1
290
     0
176
     1
290
     0
176
     1
290
     0
176
     1
 90
       50
176
     1
 40
0.0
176
     1
 40
1.0
176
     1
 90
        0
176
     1
 62
    18
420
        0
176
     1
 90
       50
176
     1
 90
        3
176
     1
 62
     5
420
      255
176
     1
290
     0
176
     1
 90
       50
176
     1
 90
       50
176
     1
 90
       50
176
     1
290
     0
176
     1
 90
       50
176
     1
 62
   256
176
     0
 40
1.0
176
     0
 90
        2
176
     1
  1
strokes_ogs.tif
176
     1
290
     0
176
     1
 40
1.0
176
     1
 40
1.0
176
     1
  0
DICTIONARYVAR
  5
1C4
102
{ACAD_REACTORS
330
1BF
102
}
330
1BF
100
DictionaryVariables
280
     0
  1
1:1
  0
DICTIONARYVAR
  5
1C1
102
{ACAD_REACTORS
330
1BF
102
}
330
1BF
100
DictionaryVariables
280
     0
  1
STANDARD
  0
DICTIONARYVAR
  5
1C0
102
{ACAD_REACTORS
330
1BF
102
}
330
1BF
100
DictionaryVariables
280
     0
  1
STANDARD
  0
DICTIONARYVAR
  5
1C2
102
{ACAD_REACTORS
330
1BF
102
}
330
1BF
100
DictionaryVariables
280
     0
  1
Imperial24
  0
DICTIONARYVAR
  5
1C3
102
{ACAD_REACTORS
330
1BF
102
}
330
1BF
100
DictionaryVariables
280
     0
  1
Imperial24
  0
DICTIONARY
  5
1A
330
19
100
AcDbDictionary
280
     1
281
     1
  3
BUMPTILE
360
1C
  3
DIFFUSETILE
360
1B
  3
OPACITYTILE
360
1F
  3
REFLECTIONTILE
360
1E
  3
REFRACTIONTILE
360
20
  3
SPECULARTILE
360
1D
  0
DICTIONARY
  5
12
330
11
100
AcDbDictionary
280
     1
281
     1
  3
BUMPTILE
360
14
  3
DIFFUSETILE
360
13
  3
OPACITYTILE
360
17
  3
REFLECTIONTILE
360
16
  3
REFRACTIONTILE
360
18
  3
SPECULARTILE
360
15
  0
DICTIONARY
  5
22
330
21
100
AcDbDictionary
280
     1
281
     1
  3
BUMPTILE
360
24
  3
DIFFUSETILE
360
23
  3
OPACITYTILE
360
27
  3
REFLECTIONTILE
360
26
  3
REFRACTIONTILE
360
28
  3
SPECULARTILE
360
25
  0
DICTIONARY
  5
209
330
65
100
AcDbDictionary
280
     1
281
     1
  3
ACAD_ROUNDTRIP_2008_TABLESTYLE_CELLSTYLEMAP
360
20A
  0
XRECORD
  5
1C
102
{ACAD_REACTORS
330
1A
102
}
330
1A
100
AcDbXrecord
280
     1
270
     1
271
     1
  0
XRECORD
  5
1B
102
{ACAD_REACTORS
330
1A
102
}
330
1A
100
AcDbXrecord
280
     1
270
     1
271
     1
  0
XRECORD
  5
1F
102
{ACAD_REACTORS
330
1A
102
}
330
1A
100
AcDbXrecord
280
     1
270
     1
271
     1
  0
XRECORD
  5
1E
102
{ACAD_REACTORS
330
1A
102
}
330
1A
100
AcDbXrecord
280
     1
270
     1
271
     1
  0
XRECORD
  5
20
102
{ACAD_REACTORS
330
1A
102
}
330
1A
100
AcDbXrecord
280
     1
270
     1
271
     1
  0
XRECORD
  5
1D
102
{ACAD_REACTORS
330
1A
102
}
330
1A
100
AcDbXrecord
280
     1
270
     1
271
     1
  0
XRECORD
  5
14
102
{ACAD_REACTORS
330
12
102
}
330
12
100
AcDbXrecord
280
     1
270
     1
271
     1
  0
XRECORD
  5
13
102
{ACAD_REACTORS
330
12
102
}
330
12
100
AcDbXrecord
280
     1
270
     1
271
     1
  0
XRECORD
  5
17
102
{ACAD_REACTORS
330
12
102
}
330
12
100
AcDbXrecord
280
     1
270
     1
271
     1
  0
XRECORD
  5
16
102
{ACAD_REACTORS
330
12
102
}
330
12
100
AcDbXrecord
280
     1
270
     1
271
     1
  0
XRECORD
  5
18
102
{ACAD_REACTORS
330
12
102
}
330
12
100
AcDbXrecord
280
     1
270
     1
271
     1
  0
XRECORD
  5
15
102
{ACAD_REACTORS
330
12
102
}
330
12
100
AcDbXrecord
280
     1
270
     1
271
     1
  0
XRECORD
  5
24
102
{ACAD_REACTORS
330
22
102
}
330
22
100
AcDbXrecord
280
     1
270
     1
271
     1
  0
XRECORD
  5
23
102
{ACAD_REACTORS
330
22
102
}
330
22
100
AcDbXrecord
280
     1
270
     1
271
     1
  0
XRECORD
  5
27
102
{ACAD_REACTORS
330
22
102
}
330
22
100
AcDbXrecord
280
     1
270
     1
271
     1
  0
XRECORD
  5
26
102
{ACAD_REACTORS
330
22
102
}
330
22
100
AcDbXrecord
280
     1
270
     1
271
     1
  0
XRECORD
  5
28
102
{ACAD_REACTORS
330
22
102
}
330
22
100
AcDbXrecord
280
     1
270
     1
271
     1
  0
XRECORD
  5
25
102
{ACAD_REACTORS
330
22
102
}
330
22
100
AcDbXrecord
280
     1
270
     1
271
     1
  0
CELLSTYLEMAP
  5
20A
102
{ACAD_REACTORS
330
209
102
}
330
209
100
AcDbCellStyleMap
 90
        3
300
CELLSTYLE
  1
TABLEFORMAT_BEGIN
 90
        5
170
     1
 91
        0
 92
    32768
 62
   257
 93
        1
300
CONTENTFORMAT
  1
CONTENTFORMAT_BEGIN
 90
        0
 91
        0
 92
      512
 93
        0
300

 40
0.0
140
1.0
 94
        5
 62
     0
340
55
144
0.25
309
CONTENTFORMAT_END
171
     0
 94
        0
309
TABLEFORMAT_END
  1
CELLSTYLE_BEGIN
 90
        1
 91
        1
300
_TITLE
309
CELLSTYLE_END
300
CELLSTYLE
  1
TABLEFORMAT_BEGIN
 90
        5
170
     1
 91
        0
 92
        0
 62
   257
 93
        1
300
CONTENTFORMAT
  1
CONTENTFORMAT_BEGIN
 90
        0
 91
        0
 92
      512
 93
        0
300

 40
0.0
140
1.0
 94
        5
 62
     0
340
55
144
0.18
309
CONTENTFORMAT_END
171
     0
 94
        0
309
TABLEFORMAT_END
  1
CELLSTYLE_BEGIN
 90
        2
 91
        1
300
_HEADER
309
CELLSTYLE_END
300
CELLSTYLE
  1
TABLEFORMAT_BEGIN
 90
        5
170
     1
 91
        0
 92
        0
 62
   257
 93
        1
300
CONTENTFORMAT
  1
CONTENTFORMAT_BEGIN
 90
        0
 91
        0
 92
      512
 93
        0
300

 40
0.0
140
1.0
 94
        2
 62
     0
340
55
144
0.18
309
CONTENTFORMAT_END
171
     0
 94
        0
309
TABLEFORMAT_END
  1
CELLSTYLE_BEGIN
 90
        3
 91
        2
300
_DATA
309
CELLSTYLE_END
  0
ENDSEC
  0
EOF
