  0
SECTION
  2
HEADER
  9
$ACADVER
  1
AC1027
  9
$ACADMAINTVER
 70
   125
  9
$DWGCODEPAGE
  3
ANSI_1252
  9
$LASTSAVEDBY
  1
ufficio.tecnico
  9
$REQUIREDVERSIONS
160
                 0
  9
$INSBASE
 10
0.0
 20
0.0
 30
0.0
  9
$EXTMIN
 10
3.31828152043779
 20
-16.23964390253984
 30
0.0
  9
$EXTMAX
 10
17.37888752820736
 20
-13.69489339060549
 30
0.0
  9
$LIMMIN
 10
0.0
 20
0.0
  9
$LIMMAX
 10
12.0
 20
9.0
  9
$ORTHOMODE
 70
     1
  9
$REGENMODE
 70
     1
  9
$FILLMODE
 70
     1
  9
$QTEXTMODE
 70
     0
  9
$MIRRTEXT
 70
     0
  9
$LTSCALE
 40
1.0
  9
$ATTMODE
 70
     1
  9
$TEXTSIZE
 40
0.2
  9
$TRACEWID
 40
0.05
  9
$TEXTSTYLE
  7
Standard
  9
$CLAYER
  8
0
  9
$CELTYPE
  6
ByLayer
  9
$CECOLOR
 62
   256
  9
$CELTSCALE
 40
1.0
  9
$DISPSILH
 70
     0
  9
$DIMSCALE
 40
1.0
  9
$DIMASZ
 40
0.18
  9
$DIMEXO
 40
0.0625
  9
$DIMDLI
 40
0.38
  9
$DIMRND
 40
0.0
  9
$DIMDLE
 40
0.0
  9
$DIMEXE
 40
0.18
  9
$DIMTP
 40
0.0
  9
$DIMTM
 40
0.0
  9
$DIMTXT
 40
0.18
  9
$DIMCEN
 40
0.09
  9
$DIMTSZ
 40
0.0
  9
$DIMTOL
 70
     0
  9
$DIMLIM
 70
     0
  9
$DIMTIH
 70
     1
  9
$DIMTOH
 70
     1
  9
$DIMSE1
 70
     0
  9
$DIMSE2
 70
     0
  9
$DIMTAD
 70
     0
  9
$DIMZIN
 70
     0
  9
$DIMBLK
  1

  9
$DIMASO
 70
     1
  9
$DIMSHO
 70
     1
  9
$DIMPOST
  1

  9
$DIMAPOST
  1

  9
$DIMALT
 70
     0
  9
$DIMALTD
 70
     2
  9
$DIMALTF
 40
25.4
  9
$DIMLFAC
 40
1.0
  9
$DIMTOFL
 70
     0
  9
$DIMTVP
 40
0.0
  9
$DIMTIX
 70
     0
  9
$DIMSOXD
 70
     0
  9
$DIMSAH
 70
     0
  9
$DIMBLK1
  1

  9
$DIMBLK2
  1

  9
$DIMSTYLE
  2
Standard
  9
$DIMCLRD
 70
     0
  9
$DIMCLRE
 70
     0
  9
$DIMCLRT
 70
     0
  9
$DIMTFAC
 40
1.0
  9
$DIMGAP
 40
0.09
  9
$DIMJUST
 70
     0
  9
$DIMSD1
 70
     0
  9
$DIMSD2
 70
     0
  9
$DIMTOLJ
 70
     1
  9
$DIMTZIN
 70
     0
  9
$DIMALTZ
 70
     0
  9
$DIMALTTZ
 70
     0
  9
$DIMUPT
 70
     0
  9
$DIMDEC
 70
     4
  9
$DIMTDEC
 70
     4
  9
$DIMALTU
 70
     2
  9
$DIMALTTD
 70
     2
  9
$DIMTXSTY
  7
Standard
  9
$DIMAUNIT
 70
     0
  9
$DIMADEC
 70
     0
  9
$DIMALTRND
 40
0.0
  9
$DIMAZIN
 70
     0
  9
$DIMDSEP
 70
    46
  9
$DIMATFIT
 70
     3
  9
$DIMFRAC
 70
     0
  9
$DIMLDRBLK
  1

  9
$DIMLUNIT
 70
     2
  9
$DIMLWD
 70
    -2
  9
$DIMLWE
 70
    -2
  9
$DIMTMOVE
 70
     0
  9
$DIMFXL
 40
1.0
  9
$DIMFXLON
 70
     0
  9
$DIMJOGANG
 40
0.7853981633974483
  9
$DIMTFILL
 70
     0
  9
$DIMTFILLCLR
 70
     0
  9
$DIMARCSYM
 70
     0
  9
$DIMLTYPE
  6

  9
$DIMLTEX1
  6

  9
$DIMLTEX2
  6

  9
$DIMTXTDIRECTION
 70
     0
  9
$LUNITS
 70
     2
  9
$LUPREC
 70
     4
  9
$SKETCHINC
 40
0.1
  9
$FILLETRAD
 40
0.0
  9
$AUNITS
 70
     0
  9
$AUPREC
 70
     0
  9
$MENU
  1
.
  9
$ELEVATION
 40
0.0
  9
$PELEVATION
 40
0.0
  9
$THICKNESS
 40
0.0
  9
$LIMCHECK
 70
     0
  9
$CHAMFERA
 40
0.0
  9
$CHAMFERB
 40
0.0
  9
$CHAMFERC
 40
0.0
  9
$CHAMFERD
 40
0.0
  9
$SKPOLY
 70
     0
  9
$TDCREATE
 40
2459858.678946759
  9
$TDUCREATE
 40
2459858.595613426
  9
$TDUPDATE
 40
2459864.605057870
  9
$TDUUPDATE
 40
2459864.521724537
  9
$TDINDWG
 40
0.0010416667
  9
$TDUSRTIMER
 40
0.0010416667
  9
$USRTIMER
 70
     1
  9
$ANGBASE
 50
0.0
  9
$ANGDIR
 70
     0
  9
$PDMODE
 70
     0
  9
$PDSIZE
 40
0.0
  9
$PLINEWID
 40
0.0
  9
$SPLFRAME
 70
     0
  9
$SPLINETYPE
 70
     6
  9
$SPLINESEGS
 70
     8
  9
$HANDSEED
  5
1C2
  9
$SURFTAB1
 70
     6
  9
$SURFTAB2
 70
     6
  9
$SURFTYPE
 70
     6
  9
$SURFU
 70
     6
  9
$SURFV
 70
     6
  9
$UCSBASE
  2

  9
$UCSNAME
  2

  9
$UCSORG
 10
0.0
 20
0.0
 30
0.0
  9
$UCSXDIR
 10
1.0
 20
0.0
 30
0.0
  9
$UCSYDIR
 10
0.0
 20
1.0
 30
0.0
  9
$UCSORTHOREF
  2

  9
$UCSORTHOVIEW
 70
     0
  9
$UCSORGTOP
 10
0.0
 20
0.0
 30
0.0
  9
$UCSORGBOTTOM
 10
0.0
 20
0.0
 30
0.0
  9
$UCSORGLEFT
 10
0.0
 20
0.0
 30
0.0
  9
$UCSORGRIGHT
 10
0.0
 20
0.0
 30
0.0
  9
$UCSORGFRONT
 10
0.0
 20
0.0
 30
0.0
  9
$UCSORGBACK
 10
0.0
 20
0.0
 30
0.0
  9
$PUCSBASE
  2

  9
$PUCSNAME
  2

  9
$PUCSORG
 10
0.0
 20
0.0
 30
0.0
  9
$PUCSXDIR
 10
1.0
 20
0.0
 30
0.0
  9
$PUCSYDIR
 10
0.0
 20
1.0
 30
0.0
  9
$PUCSORTHOREF
  2

  9
$PUCSORTHOVIEW
 70
     0
  9
$PUCSORGTOP
 10
0.0
 20
0.0
 30
0.0
  9
$PUCSORGBOTTOM
 10
0.0
 20
0.0
 30
0.0
  9
$PUCSORGLEFT
 10
0.0
 20
0.0
 30
0.0
  9
$PUCSORGRIGHT
 10
0.0
 20
0.0
 30
0.0
  9
$PUCSORGFRONT
 10
0.0
 20
0.0
 30
0.0
  9
$PUCSORGBACK
 10
0.0
 20
0.0
 30
0.0
  9
$USERI1
 70
     0
  9
$USERI2
 70
     0
  9
$USERI3
 70
     0
  9
$USERI4
 70
     0
  9
$USERI5
 70
     0
  9
$USERR1
 40
0.0
  9
$USERR2
 40
0.0
  9
$USERR3
 40
0.0
  9
$USERR4
 40
0.0
  9
$USERR5
 40
0.0
  9
$WORLDVIEW
 70
     1
  9
$SHADEDGE
 70
     3
  9
$SHADEDIF
 70
    70
  9
$TILEMODE
 70
     1
  9
$MAXACTVP
 70
    64
  9
$PINSBASE
 10
0.0
 20
0.0
 30
0.0
  9
$PLIMCHECK
 70
     0
  9
$PEXTMIN
 10
1.000000000000000E+20
 20
1.000000000000000E+20
 30
1.000000000000000E+20
  9
$PEXTMAX
 10
-1.000000000000000E+20
 20
-1.000000000000000E+20
 30
-1.000000000000000E+20
  9
$PLIMMIN
 10
0.0
 20
0.0
  9
$PLIMMAX
 10
12.0
 20
9.0
  9
$UNITMODE
 70
     0
  9
$VISRETAIN
 70
     1
  9
$PLINEGEN
 70
     0
  9
$PSLTSCALE
 70
     1
  9
$TREEDEPTH
 70
  3020
  9
$CMLSTYLE
  2
Standard
  9
$CMLJUST
 70
     0
  9
$CMLSCALE
 40
1.0
  9
$PROXYGRAPHICS
 70
     1
  9
$MEASUREMENT
 70
     0
  9
$CELWEIGHT
370
    -1
  9
$ENDCAPS
280
     0
  9
$JOINSTYLE
280
     0
  9
$LWDISPLAY
290
     1
  9
$INSUNITS
 70
     5
  9
$HYPERLINKBASE
  1

  9
$STYLESHEET
  1

  9
$XEDIT
290
     1
  9
$CEPSNTYPE
380
     0
  9
$PSTYLEMODE
290
     1
  9
$FINGERPRINTGUID
  2
{1B4A0C08-6001-B54B-BDBA-18B46BDFE1D4}
  9
$VERSIONGUID
  2
{CC64E052-A601-A04E-9DBE-F090DDB95E95}
  9
$EXTNAMES
290
     1
  9
$PSVPSCALE
 40
0.0
  9
$OLESTARTUP
290
     0
  9
$SORTENTS
280
   127
  9
$INDEXCTL
280
     0
  9
$HIDETEXT
280
     1
  9
$XCLIPFRAME
280
     2
  9
$HALOGAP
280
     0
  9
$OBSCOLOR
 70
   257
  9
$OBSLTYPE
280
     0
  9
$INTERSECTIONDISPLAY
280
     0
  9
$INTERSECTIONCOLOR
 70
   257
  9
$DIMASSOC
280
     2
  9
$PROJECTNAME
  1

  9
$CAMERADISPLAY
290
     0
  9
$LENSLENGTH
 40
50.0
  9
$CAMERAHEIGHT
 40
0.0
  9
$STEPSPERSEC
 40
2.0
  9
$STEPSIZE
 40
6.0
  9
$3DDWFPREC
 40
2.0
  9
$PSOLWIDTH
 40
0.25
  9
$PSOLHEIGHT
 40
4.0
  9
$LOFTANG1
 40
1.570796326794896
  9
$LOFTANG2
 40
1.570796326794896
  9
$LOFTMAG1
 40
0.0
  9
$LOFTMAG2
 40
0.0
  9
$LOFTPARAM
 70
     7
  9
$LOFTNORMALS
280
     1
  9
$LATITUDE
 40
37.795
  9
$LONGITUDE
 40
-122.394
  9
$NORTHDIRECTION
 40
0.0
  9
$TIMEZONE
 70
 -8000
  9
$LIGHTGLYPHDISPLAY
280
     1
  9
$TILEMODELIGHTSYNCH
280
     1
  9
$CMATERIAL
347
11
  9
$SOLIDHIST
280
     0
  9
$SHOWHIST
280
     1
  9
$DWFFRAME
280
     2
  9
$DGNFRAME
280
     0
  9
$REALWORLDSCALE
290
     1
  9
$INTERFERECOLOR
 62
     1
  9
$INTERFEREOBJVS
345
33
  9
$INTERFEREVPVS
346
30
  9
$CSHADOW
280
     0
  9
$SHADOWPLANELOCATION
 40
0.0
  0
ENDSEC
  0
SECTION
  2
CLASSES
  0
CLASS
  1
ACDBDICTIONARYWDFLT
  2
AcDbDictionaryWithDefault
  3
ObjectDBX Classes
 90
        0
 91
        1
280
     0
281
     0
  0
CLASS
  1
MATERIAL
  2
AcDbMaterial
  3
ObjectDBX Classes
 90
     1153
 91
        3
280
     0
281
     0
  0
CLASS
  1
VISUALSTYLE
  2
AcDbVisualStyle
  3
ObjectDBX Classes
 90
     4095
 91
       24
280
     0
281
     0
  0
CLASS
  1
SCALE
  2
AcDbScale
  3
ObjectDBX Classes
 90
     1153
 91
       17
280
     0
281
     0
  0
CLASS
  1
TABLESTYLE
  2
AcDbTableStyle
  3
ObjectDBX Classes
 90
     4095
 91
        1
280
     0
281
     0
  0
CLASS
  1
MLEADERSTYLE
  2
AcDbMLeaderStyle
  3
ACDB_MLEADERSTYLE_CLASS
 90
     4095
 91
        1
280
     0
281
     0
  0
CLASS
  1
ACDBSECTIONVIEWSTYLE
  2
AcDbSectionViewStyle
  3
ObjectDBX Classes
 90
     1025
 91
        1
280
     0
281
     0
  0
CLASS
  1
ACDBDETAILVIEWSTYLE
  2
AcDbDetailViewStyle
  3
ObjectDBX Classes
 90
     1025
 91
        1
280
     0
281
     0
  0
CLASS
  1
DICTIONARYVAR
  2
AcDbDictionaryVar
  3
ObjectDBX Classes
 90
        0
 91
        5
280
     0
281
     0
  0
CLASS
  1
SORTENTSTABLE
  2
AcDbSortentsTable
  3
ObjectDBX Classes
 90
        0
 91
        3
280
     0
281
     0
  0
CLASS
  1
CELLSTYLEMAP
  2
AcDbCellStyleMap
  3
ObjectDBX Classes
 90
     1152
 91
        2
280
     0
281
     0
  0
ENDSEC
  0
SECTION
  2
TABLES
  0
TABLE
  2
VPORT
  5
8
330
0
100
AcDbSymbolTable
 70
     1
1001
ACAD
1000
DbSaveVer
1071
      249
  0
VPORT
  5
57
330
8
100
AcDbSymbolTableRecord
100
AcDbViewportTableRecord
  2
*Active
 70
     0
 10
0.0
 20
0.0
 11
1.0
 21
1.0
 12
-4.634008027065149
 22
-0.167599370677932
 13
0.0
 23
0.0
 14
1.0
 24
1.0
 15
0.0
 25
0.0
 16
0.0
 26
0.0
 36
1.0
 17
10.50000721959722
 27
-14.85000416295415
 37
0.0
 40
30.81674827231854
 41
1.855329949238578
 42
50.0
 43
0.0
 44
0.0
 50
0.0
 51
0.0
 71
     0
 72
   100
 73
     1
 74
     1
 75
     0
 76
     0
 77
     0
 78
     0
281
     0
 65
     1
110
0.0
120
0.0
130
0.0
111
1.0
121
0.0
131
0.0
112
0.0
122
1.0
132
0.0
 79
     0
146
0.0
348
2F
 60
     3
 61
     5
292
     1
282
     1
141
0.0
142
0.0
 63
   250
421
  3355443
1001
ACAD_NAV_VCDISPLAY
1070
     3
  0
ENDTAB
  0
TABLE
  2
LTYPE
  5
5
330
0
100
AcDbSymbolTable
 70
     3
  0
LTYPE
  5
5B
330
5
100
AcDbSymbolTableRecord
100
AcDbLinetypeTableRecord
  2
ByBlock
 70
     0
  3

 72
    65
 73
     0
 40
0.0
  0
LTYPE
  5
5C
330
5
100
AcDbSymbolTableRecord
100
AcDbLinetypeTableRecord
  2
ByLayer
 70
     0
  3

 72
    65
 73
     0
 40
0.0
  0
LTYPE
  5
5D
330
5
100
AcDbSymbolTableRecord
100
AcDbLinetypeTableRecord
  2
Continuous
 70
     0
  3
Solid line
 72
    65
 73
     0
 40
0.0
  0
ENDTAB
  0
TABLE
  2
LAYER
  5
2
330
0
100
AcDbSymbolTable
 70
     2
  0
LAYER
  5
54
330
2
100
AcDbSymbolTableRecord
100
AcDbLayerTableRecord
  2
0
 70
     0
 62
     7
  6
Continuous
370
    -3
390
F
347
21
348
0
  0
LAYER
  5
78
330
2
100
AcDbSymbolTableRecord
100
AcDbLayerTableRecord
  2
Livello 1
 70
     0
 62
     7
  6
Continuous
370
     0
390
F
347
21
348
0
  0
ENDTAB
  0
TABLE
  2
STYLE
  5
3
330
0
100
AcDbSymbolTable
 70
     2
  0
STYLE
  5
55
330
3
100
AcDbSymbolTableRecord
100
AcDbTextStyleTableRecord
  2
Standard
 70
     0
 40
0.0
 41
1.0
 50
0.0
 71
     0
 42
0.2
  3
txt
  4

  0
STYLE
  5
5A
330
3
100
AcDbSymbolTableRecord
100
AcDbTextStyleTableRecord
  2
Annotative
 70
     0
 40
0.0
 41
1.0
 50
0.0
 71
     0
 42
0.2
  3
txt
  4

1001
AcadAnnotative
1000
AnnotativeData
1002
{
1070
     1
1070
     1
1002
}
  0
ENDTAB
  0
TABLE
  2
VIEW
  5
6
330
0
100
AcDbSymbolTable
 70
     0
  0
ENDTAB
  0
TABLE
  2
UCS
  5
7
330
0
100
AcDbSymbolTable
 70
     0
  0
ENDTAB
  0
TABLE
  2
APPID
  5
9
330
0
100
AcDbSymbolTable
 70
     4
  0
APPID
  5
56
330
9
100
AcDbSymbolTableRecord
100
AcDbRegAppTableRecord
  2
ACAD
 70
     0
  0
APPID
  5
5E
330
9
100
AcDbSymbolTableRecord
100
AcDbRegAppTableRecord
  2
AcadAnnotative
 70
     0
  0
APPID
  5
197
330
9
100
AcDbSymbolTableRecord
100
AcDbRegAppTableRecord
  2
ACAD_EXEMPT_FROM_CAD_STANDARDS
 70
     0
  0
APPID
  5
1A3
330
9
100
AcDbSymbolTableRecord
100
AcDbRegAppTableRecord
  2
ACAD_NAV_VCDISPLAY
 70
     0
  0
ENDTAB
  0
TABLE
  2
DIMSTYLE
  5
A
330
0
100
AcDbSymbolTable
 70
     3
100
AcDbDimStyleTable
 71
     1
340
58
  0
DIMSTYLE
105
58
330
A
100
AcDbSymbolTableRecord
100
AcDbDimStyleTableRecord
  2
Standard
 70
     0
340
55
  0
DIMSTYLE
105
59
330
A
100
AcDbSymbolTableRecord
100
AcDbDimStyleTableRecord
  2
Annotative
 70
     0
340
55
1001
AcadAnnotative
1000
AnnotativeData
1002
{
1070
     1
1070
     1
1002
}
  0
ENDTAB
  0
TABLE
  2
BLOCK_RECORD
  5
1
330
0
100
AcDbSymbolTable
 70
    17
  0
BLOCK_RECORD
  5
70
102
{ACAD_XDICTIONARY
360
182
102
}
330
1
100
AcDbSymbolTableRecord
100
AcDbBlockTableRecord
  2
*Model_Space
340
73
 70
     0
280
     1
281
     0
  0
BLOCK_RECORD
  5
6C
330
1
100
AcDbSymbolTableRecord
100
AcDbBlockTableRecord
  2
*Paper_Space
340
6F
 70
     0
280
     1
281
     0
  0
BLOCK_RECORD
  5
74
330
1
100
AcDbSymbolTableRecord
100
AcDbBlockTableRecord
  2
*Paper_Space0
340
77
 70
     0
280
     1
281
     0
  0
BLOCK_RECORD
  5
79
330
1
100
AcDbSymbolTableRecord
100
AcDbBlockTableRecord
  2
Block_0
340
0
 70
     0
280
     1
281
     0
  0
BLOCK_RECORD
  5
7D
330
1
100
AcDbSymbolTableRecord
100
AcDbBlockTableRecord
  2
Block_1
340
0
102
{BLKREFS
331
7E
102
}
 70
     0
280
     1
281
     0
  0
BLOCK_RECORD
  5
8E
330
1
100
AcDbSymbolTableRecord
100
AcDbBlockTableRecord
  2
Block_2
340
0
 70
     0
280
     1
281
     0
  0
BLOCK_RECORD
  5
95
330
1
100
AcDbSymbolTableRecord
100
AcDbBlockTableRecord
  2
Block_3
340
0
 70
     0
280
     1
281
     0
  0
BLOCK_RECORD
  5
9C
330
1
100
AcDbSymbolTableRecord
100
AcDbBlockTableRecord
  2
Block_4
340
0
 70
     0
280
     1
281
     0
  0
BLOCK_RECORD
  5
A0
330
1
100
AcDbSymbolTableRecord
100
AcDbBlockTableRecord
  2
Block_5
340
0
102
{BLKREFS
331
A1
102
}
 70
     0
280
     1
281
     0
  0
BLOCK_RECORD
  5
A4
330
1
100
AcDbSymbolTableRecord
100
AcDbBlockTableRecord
  2
Block_6
340
0
102
{BLKREFS
331
A5
102
}
 70
     0
280
     1
281
     0
  0
BLOCK_RECORD
  5
AD
330
1
100
AcDbSymbolTableRecord
100
AcDbBlockTableRecord
  2
Block_7
340
0
102
{BLKREFS
331
AE
102
}
 70
     0
280
     1
281
     0
  0
BLOCK_RECORD
  5
B4
330
1
100
AcDbSymbolTableRecord
100
AcDbBlockTableRecord
  2
Block_8
340
0
102
{BLKREFS
331
B5
102
}
 70
     0
280
     1
281
     0
  0
BLOCK_RECORD
  5
BB
330
1
100
AcDbSymbolTableRecord
100
AcDbBlockTableRecord
  2
Block_9
340
0
 70
     0
280
     1
281
     0
  0
BLOCK_RECORD
  5
BF
330
1
100
AcDbSymbolTableRecord
100
AcDbBlockTableRecord
  2
Block_10
340
0
102
{BLKREFS
331
C0
102
}
 70
     0
280
     1
281
     0
  0
BLOCK_RECORD
  5
C9
330
1
100
AcDbSymbolTableRecord
100
AcDbBlockTableRecord
  2
Block_11
340
0
 70
     0
280
     1
281
     0
  0
BLOCK_RECORD
  5
D0
330
1
100
AcDbSymbolTableRecord
100
AcDbBlockTableRecord
  2
Block_12
340
0
 70
     0
280
     1
281
     0
  0
ENDTAB
  0
ENDSEC
  0
SECTION
  2
BLOCKS
  0
BLOCK
  5
71
330
70
100
AcDbEntity
  8
0
100
AcDbBlockBegin
  2
*Model_Space
 70
     0
 10
0.0
 20
0.0
 30
0.0
  3
*Model_Space
  1

  0
ENDBLK
  5
72
330
70
100
AcDbEntity
  8
0
100
AcDbBlockEnd
  0
BLOCK
  5
6D
330
6C
100
AcDbEntity
 67
     1
  8
0
100
AcDbBlockBegin
  2
*Paper_Space
 70
     0
 10
0.0
 20
0.0
 30
0.0
  3
*Paper_Space
  1

  0
ENDBLK
  5
6E
330
6C
100
AcDbEntity
 67
     1
  8
0
100
AcDbBlockEnd
  0
BLOCK
  5
75
330
74
100
AcDbEntity
 67
     1
  8
0
100
AcDbBlockBegin
  2
*Paper_Space0
 70
     0
 10
0.0
 20
0.0
 30
0.0
  3
*Paper_Space0
  1

  0
ENDBLK
  5
76
330
74
100
AcDbEntity
 67
     1
  8
0
100
AcDbBlockEnd
  0
BLOCK
  5
7B
330
79
100
AcDbEntity
  8
0
100
AcDbBlockBegin
  2
Block_0
 70
     0
 10
0.0
 20
0.0
 30
0.0
  3
Block_0
  1

  0
INSERT
  5
7E
330
79
100
AcDbEntity
  8
Livello 1
100
AcDbBlockReference
  2
Block_1
 10
0.0
 20
0.0
 30
0.0
  0
ENDBLK
  5
7C
330
79
100
AcDbEntity
  8
0
100
AcDbBlockEnd
  0
BLOCK
  5
7F
330
7D
100
AcDbEntity
  8
0
100
AcDbBlockBegin
  2
Block_1
 70
     0
 10
0.0
 20
0.0
 30
0.0
  3
Block_1
  1

  0
SPLINE
  5
81
330
7D
100
AcDbEntity
  8
Livello 1
100
AcDbSpline
210
0.0
220
0.0
230
1.0
 70
     9
 71
     3
 72
    17
 73
    13
 74
     0
 42
0.000000001
 43
0.0000000001
 40
0.0
 40
0.0
 40
0.0
 40
0.0
 40
1.0
 40
1.0
 40
1.0
 40
2.0
 40
2.0
 40
2.0
 40
3.0
 40
3.0
 40
3.0
 40
4.0
 40
4.0
 40
4.0
 40
4.0
 10
10.00288641785518
 20
-15.39254882427686
 30
0.0
 10
10.00967325596112
 20
-15.40102375917057
 30
0.0
 10
10.020094669804
 20
-15.40684597054065
 30
0.0
 10
10.03365112053846
 20
-15.40684597054065
 30
0.0
 10
10.06296888311793
 20
-15.40684597054065
 30
0.0
 10
10.07750718606569
 20
-15.38018093148481
 30
0.0
 10
10.07750718606569
 20
-15.35355034338383
 30
0.0
 10
10.07750718606569
 20
-15.34190592064369
 30
0.0
 10
10.07483723706462
 20
-15.33053710554236
 30
0.0
 10
10.06901502569455
 20
-15.32109754391278
 30
0.0
 10
10.06901502569455
 20
-15.32109754391278
 30
0.0
 10
10.00288641785518
 20
-15.39254882427686
 30
0.0
 10
10.00288641785518
 20
-15.39254882427686
 30
0.0
  0
SPLINE
  5
82
330
7D
100
AcDbEntity
  8
Livello 1
100
AcDbSpline
210
0.0
220
0.0
230
1.0
 70
     9
 71
     3
 72
    17
 73
    13
 74
     0
 42
0.000000001
 43
0.0000000001
 40
0.0
 40
0.0
 40
0.0
 40
0.0
 40
1.0
 40
1.0
 40
1.0
 40
2.0
 40
2.0
 40
2.0
 40
3.0
 40
3.0
 40
3.0
 40
4.0
 40
4.0
 40
4.0
 40
4.0
 10
10.06465697990571
 20
-15.31479301917477
 30
0.0
 10
10.05764621059322
 20
-15.30607692759709
 30
0.0
 10
10.04722479675034
 20
-15.30025471622702
 30
0.0
 10
10.03365112053846
 20
-15.30025471622702
 30
0.0
 10
10.00435058343641
 20
-15.30025471622702
 30
0.0
 10
9.989812280488656
 20
-15.326885304328
 30
0.0
 10
9.989812280488656
 20
-15.35355034338383
 30
0.0
 10
9.989812280488656
 20
-15.36516031516912
 30
0.0
 10
9.992482229489725
 20
-15.3765635812253
 30
0.0
 10
9.998528372066338
 20
-15.38624429953885
 30
0.0
 10
9.998528372066338
 20
-15.38624429953885
 30
0.0
 10
10.06465697990571
 20
-15.31479301917477
 30
0.0
 10
10.06465697990571
 20
-15.31479301917477
 30
0.0
  0
SPLINE
  5
83
330
7D
100
AcDbEntity
  8
Livello 1
100
AcDbSpline
210
0.0
220
0.0
230
1.0
 70
    11
 71
     3
 72
    41
 73
    37
 74
     0
 42
0.000000001
 43
0.0000000001
 40
0.0
 40
0.0
 40
0.0
 40
0.0
 40
1.0
 40
1.0
 40
1.0
 40
2.0
 40
2.0
 40
2.0
 40
3.0
 40
3.0
 40
3.0
 40
4.0
 40
4.0
 40
4.0
 40
5.0
 40
5.0
 40
5.0
 40
6.0
 40
6.0
 40
6.0
 40
7.0
 40
7.0
 40
7.0
 40
8.0
 40
8.0
 40
8.0
 40
9.0
 40
9.0
 40
9.0
 40
10.0
 40
10.0
 40
10.0
 40
11.0
 40
11.0
 40
11.0
 40
12.0
 40
12.0
 40
12.0
 40
12.0
 10
10.09276895906535
 20
-15.29515597490885
 30
0.0
 10
10.09276895906535
 20
-15.29515597490885
 30
0.0
 10
10.0796775962214
 20
-15.30945312117263
 30
0.0
 10
10.0796775962214
 20
-15.30945312117263
 30
0.0
 10
10.08841091327651
 20
-15.32157985728071
 30
0.0
 10
10.09276895906535
 20
-15.33708278696434
 30
0.0
 10
10.09276895906535
 20
-15.35355034338383
 30
0.0
 10
10.09276895906535
 20
-15.38937933643043
 30
0.0
 10
10.07192613137958
 20
-15.41966172574578
 30
0.0
 10
10.03365112053846
 20
-15.41966172574578
 30
0.0
 10
10.01646009406706
 20
-15.41966172574578
 30
0.0
 10
10.00264526117121
 20
-15.41359835769173
 30
0.0
 10
9.992964542857661
 20
-15.40319416932628
 30
0.0
 10
9.992964542857661
 20
-15.40319416932628
 30
0.0
 10
9.978667396593873
 20
-15.41869709900991
 30
0.0
 10
9.978667396593873
 20
-15.41869709900991
 30
0.0
 10
9.978667396593873
 20
-15.41869709900991
 30
0.0
 10
9.973344724069162
 20
-15.4138395143757
 30
0.0
 10
9.973344724069162
 20
-15.4138395143757
 30
0.0
 10
9.973344724069162
 20
-15.4138395143757
 30
0.0
 10
9.988124183700884
 20
-15.39761311464018
 30
0.0
 10
9.988124183700884
 20
-15.39761311464018
 30
0.0
 10
9.979149709961809
 20
-15.38600314285489
 30
0.0
 10
9.974550507489
 20
-15.37025905648729
 30
0.0
 10
9.974550507489
 20
-15.35355034338383
 30
0.0
 10
9.974550507489
 20
-15.31768689938238
 30
0.0
 10
9.995393335174762
 20
-15.28740451006703
 30
0.0
 10
10.03365112053846
 20
-15.28740451006703
 30
0.0
 10
10.05110052917125
 20
-15.28740451006703
 30
0.0
 10
10.06515651875107
 20
-15.29370903480504
 30
0.0
 10
10.07483723706462
 20
-15.30387206648653
 30
0.0
 10
10.07483723706462
 20
-15.30387206648653
 30
0.0
 10
10.08742906106321
 20
-15.2903328412295
 30
0.0
 10
10.08742906106321
 20
-15.2903328412295
 30
0.0
 10
10.08742906106321
 20
-15.2903328412295
 30
0.0
 10
10.09276895906535
 20
-15.29515597490885
 30
0.0
 10
10.09276895906535
 20
-15.29515597490885
 30
0.0
  0
HATCH
  5
84
330
7D
100
AcDbEntity
  8
Livello 1
 62
    18
420
        0
440
 33554687
100
AcDbHatch
 10
0.0
 20
0.0
 30
0.0
210
0.0
220
0.0
230
1.0
  2
SOLID
 70
     1
 71
     1
 91
        3
 92
        1
 93
        1
 72
     4
 94
        3
 73
     0
 74
     0
 95
       17
 96
       13
 40
0.0
 40
0.0
 40
0.0
 40
0.0
 40
1.0
 40
1.0
 40
1.0
 40
2.0
 40
2.0
 40
2.0
 40
3.0
 40
3.0
 40
3.0
 40
4.0
 40
4.0
 40
4.0
 40
4.0
 10
10.00288641785518
 20
-15.39254882427686
 10
10.00967325596112
 20
-15.40102375917057
 10
10.020094669804
 20
-15.40684597054065
 10
10.03365112053846
 20
-15.40684597054065
 10
10.06296888311793
 20
-15.40684597054065
 10
10.07750718606569
 20
-15.38018093148481
 10
10.07750718606569
 20
-15.35355034338383
 10
10.07750718606569
 20
-15.34190592064369
 10
10.07483723706462
 20
-15.33053710554236
 10
10.06901502569455
 20
-15.32109754391278
 10
10.06901502569455
 20
-15.32109754391278
 10
10.00288641785518
 20
-15.39254882427686
 10
10.00288641785518
 20
-15.39254882427686
 97
        0
 97
        1
330
81
 92
        1
 93
        1
 72
     4
 94
        3
 73
     0
 74
     0
 95
       17
 96
       13
 40
0.0
 40
0.0
 40
0.0
 40
0.0
 40
1.0
 40
1.0
 40
1.0
 40
2.0
 40
2.0
 40
2.0
 40
3.0
 40
3.0
 40
3.0
 40
4.0
 40
4.0
 40
4.0
 40
4.0
 10
10.06465697990571
 20
-15.31479301917477
 10
10.05764621059322
 20
-15.30607692759709
 10
10.04722479675034
 20
-15.30025471622702
 10
10.03365112053846
 20
-15.30025471622702
 10
10.00435058343641
 20
-15.30025471622702
 10
9.989812280488656
 20
-15.326885304328
 10
9.989812280488656
 20
-15.35355034338383
 10
9.989812280488656
 20
-15.36516031516912
 10
9.992482229489725
 20
-15.3765635812253
 10
9.998528372066338
 20
-15.38624429953885
 10
9.998528372066338
 20
-15.38624429953885
 10
10.06465697990571
 20
-15.31479301917477
 10
10.06465697990571
 20
-15.31479301917477
 97
        0
 97
        1
330
82
 92
        1
 93
        1
 72
     4
 94
        3
 73
     0
 74
     0
 95
       41
 96
       37
 40
0.0
 40
0.0
 40
0.0
 40
0.0
 40
1.0
 40
1.0
 40
1.0
 40
2.0
 40
2.0
 40
2.0
 40
3.0
 40
3.0
 40
3.0
 40
4.0
 40
4.0
 40
4.0
 40
5.0
 40
5.0
 40
5.0
 40
6.0
 40
6.0
 40
6.0
 40
7.0
 40
7.0
 40
7.0
 40
8.0
 40
8.0
 40
8.0
 40
9.0
 40
9.0
 40
9.0
 40
10.0
 40
10.0
 40
10.0
 40
11.0
 40
11.0
 40
11.0
 40
12.0
 40
12.0
 40
12.0
 40
12.0
 10
10.09276895906535
 20
-15.29515597490885
 10
10.09276895906535
 20
-15.29515597490885
 10
10.0796775962214
 20
-15.30945312117263
 10
10.0796775962214
 20
-15.30945312117263
 10
10.08841091327651
 20
-15.32157985728071
 10
10.09276895906535
 20
-15.33708278696434
 10
10.09276895906535
 20
-15.35355034338383
 10
10.09276895906535
 20
-15.38937933643043
 10
10.07192613137958
 20
-15.41966172574578
 10
10.03365112053846
 20
-15.41966172574578
 10
10.01646009406706
 20
-15.41966172574578
 10
10.00264526117121
 20
-15.41359835769173
 10
9.992964542857661
 20
-15.40319416932628
 10
9.992964542857661
 20
-15.40319416932628
 10
9.978667396593873
 20
-15.41869709900991
 10
9.978667396593873
 20
-15.41869709900991
 10
9.978667396593873
 20
-15.41869709900991
 10
9.973344724069162
 20
-15.4138395143757
 10
9.973344724069162
 20
-15.4138395143757
 10
9.973344724069162
 20
-15.4138395143757
 10
9.988124183700884
 20
-15.39761311464018
 10
9.988124183700884
 20
-15.39761311464018
 10
9.979149709961809
 20
-15.38600314285489
 10
9.974550507489
 20
-15.37025905648729
 10
9.974550507489
 20
-15.35355034338383
 10
9.974550507489
 20
-15.31768689938238
 10
9.995393335174762
 20
-15.28740451006703
 10
10.03365112053846
 20
-15.28740451006703
 10
10.05110052917125
 20
-15.28740451006703
 10
10.06515651875107
 20
-15.29370903480504
 10
10.07483723706462
 20
-15.30387206648653
 10
10.07483723706462
 20
-15.30387206648653
 10
10.08742906106321
 20
-15.2903328412295
 10
10.08742906106321
 20
-15.2903328412295
 10
10.08742906106321
 20
-15.2903328412295
 10
10.09276895906535
 20
-15.29515597490885
 10
10.09276895906535
 20
-15.29515597490885
 97
        0
 97
        1
330
83
 75
     2
 76
     1
 98
        1
 10
0.0
 20
0.0
450
        0
451
        0
460
0.0
461
0.0
452
        0
462
0.0
453
        0
470

  0
SPLINE
  5
85
330
7D
100
AcDbEntity
  8
Livello 1
100
AcDbSpline
210
0.0
220
0.0
230
1.0
 70
     9
 71
     3
 72
    17
 73
    13
 74
     0
 42
0.000000001
 43
0.0000000001
 40
0.0
 40
0.0
 40
0.0
 40
0.0
 40
1.0
 40
1.0
 40
1.0
 40
2.0
 40
2.0
 40
2.0
 40
3.0
 40
3.0
 40
3.0
 40
4.0
 40
4.0
 40
4.0
 40
4.0
 10
10.27472167711882
 20
-15.30146049964685
 30
0.0
 10
10.27472167711882
 20
-15.27748263506952
 30
0.0
 10
10.26187147095884
 20
-15.25784559080359
 30
0.0
 10
10.23232977717282
 20
-15.25784559080359
 30
0.0
 10
10.20809353043409
 20
-15.25784559080359
 30
0.0
 10
10.19162597401459
 20
-15.27796494843745
 30
0.0
 10
10.19162597401459
 20
-15.30146049964685
 30
0.0
 10
10.19162597401459
 20
-15.3261618342761
 30
0.0
 10
10.20664659033028
 20
-15.34628119190995
 30
0.0
 10
10.23257093385678
 20
-15.34628119190995
 30
0.0
 10
10.25921874743519
 20
-15.34628119190995
 30
0.0
 10
10.27472167711882
 20
-15.32640299096006
 30
0.0
 10
10.27472167711882
 20
-15.30146049964685
 30
0.0
  0
SPLINE
  5
86
330
7D
100
AcDbEntity
  8
Livello 1
100
AcDbSpline
210
0.0
220
0.0
230
1.0
 70
     9
 71
     3
 72
    35
 73
    31
 74
     0
 42
0.000000001
 43
0.0000000001
 40
0.0
 40
0.0
 40
0.0
 40
0.0
 40
1.0
 40
1.0
 40
1.0
 40
2.0
 40
2.0
 40
2.0
 40
3.0
 40
3.0
 40
3.0
 40
4.0
 40
4.0
 40
4.0
 40
5.0
 40
5.0
 40
5.0
 40
6.0
 40
6.0
 40
6.0
 40
7.0
 40
7.0
 40
7.0
 40
8.0
 40
8.0
 40
8.0
 40
9.0
 40
9.0
 40
9.0
 40
10.0
 40
10.0
 40
10.0
 40
10.0
 10
10.19574286311947
 20
-15.37535779780546
 30
0.0
 10
10.19841281212053
 20
-15.39399576438066
 30
0.0
 10
10.21148694948706
 20
-15.40684597054065
 30
0.0
 10
10.23110676827555
 20
-15.40684597054065
 30
0.0
 10
10.27058756253652
 20
-15.40684597054065
 30
0.0
 10
10.27785671401039
 20
-15.36178412159358
 30
0.0
 10
10.27785671401039
 20
-15.3310194189103
 30
0.0
 10
10.27785671401039
 20
-15.3310194189103
 30
0.0
 10
10.27737440064246
 20
-15.3310194189103
 30
0.0
 10
10.27737440064246
 20
-15.3310194189103
 30
0.0
 10
10.26938177911668
 20
-15.34772813201376
 30
0.0
 10
10.25146728259338
 20
-15.35909694711508
 30
0.0
 10
10.23232977717282
 20
-15.35909694711508
 30
0.0
 10
10.19841281212053
 20
-15.35909694711508
 30
0.0
 10
10.17636420101493
 20
-15.33560139590568
 30
0.0
 10
10.17636420101493
 20
-15.30242512638272
 30
0.0
 10
10.17636420101493
 20
-15.26949001354374
 30
0.0
 10
10.20034206559227
 20
-15.24502983559846
 30
0.0
 10
10.23377671727662
 20
-15.24502983559846
 30
0.0
 10
10.27496283380278
 20
-15.24502983559846
 30
0.0
 10
10.29311848701005
 20
-15.2690077001758
 30
0.0
 10
10.29311848701005
 20
-15.33511908253774
 30
0.0
 10
10.29311848701005
 20
-15.3552384401716
 30
0.0
 10
10.28803697116931
 20
-15.41966172574578
 30
0.0
 10
10.23257093385678
 20
-15.41966172574578
 30
0.0
 10
10.20277085790938
 20
-15.41966172574578
 30
0.0
 10
10.18411566585674
 20
-15.40488226611405
 30
0.0
 10
10.18048109011981
 20
-15.37535779780546
 30
0.0
 10
10.18048109011981
 20
-15.37535779780546
 30
0.0
 10
10.19574286311947
 20
-15.37535779780546
 30
0.0
 10
10.19574286311947
 20
-15.37535779780546
 30
0.0
  0
HATCH
  5
87
330
7D
100
AcDbEntity
  8
Livello 1
 62
    18
420
        0
440
 33554687
100
AcDbHatch
 10
0.0
 20
0.0
 30
0.0
210
0.0
220
0.0
230
1.0
  2
SOLID
 70
     1
 71
     1
 91
        2
 92
        1
 93
        1
 72
     4
 94
        3
 73
     0
 74
     0
 95
       17
 96
       13
 40
0.0
 40
0.0
 40
0.0
 40
0.0
 40
1.0
 40
1.0
 40
1.0
 40
2.0
 40
2.0
 40
2.0
 40
3.0
 40
3.0
 40
3.0
 40
4.0
 40
4.0
 40
4.0
 40
4.0
 10
10.27472167711882
 20
-15.30146049964685
 10
10.27472167711882
 20
-15.27748263506952
 10
10.26187147095884
 20
-15.25784559080359
 10
10.23232977717282
 20
-15.25784559080359
 10
10.20809353043409
 20
-15.25784559080359
 10
10.19162597401459
 20
-15.27796494843745
 10
10.19162597401459
 20
-15.30146049964685
 10
10.19162597401459
 20
-15.3261618342761
 10
10.20664659033028
 20
-15.34628119190995
 10
10.23257093385678
 20
-15.34628119190995
 10
10.25921874743519
 20
-15.34628119190995
 10
10.27472167711882
 20
-15.32640299096006
 10
10.27472167711882
 20
-15.30146049964685
 97
        0
 97
        1
330
85
 92
        1
 93
        1
 72
     4
 94
        3
 73
     0
 74
     0
 95
       35
 96
       31
 40
0.0
 40
0.0
 40
0.0
 40
0.0
 40
1.0
 40
1.0
 40
1.0
 40
2.0
 40
2.0
 40
2.0
 40
3.0
 40
3.0
 40
3.0
 40
4.0
 40
4.0
 40
4.0
 40
5.0
 40
5.0
 40
5.0
 40
6.0
 40
6.0
 40
6.0
 40
7.0
 40
7.0
 40
7.0
 40
8.0
 40
8.0
 40
8.0
 40
9.0
 40
9.0
 40
9.0
 40
10.0
 40
10.0
 40
10.0
 40
10.0
 10
10.19574286311947
 20
-15.37535779780546
 10
10.19841281212053
 20
-15.39399576438066
 10
10.21148694948706
 20
-15.40684597054065
 10
10.23110676827555
 20
-15.40684597054065
 10
10.27058756253652
 20
-15.40684597054065
 10
10.27785671401039
 20
-15.36178412159358
 10
10.27785671401039
 20
-15.3310194189103
 10
10.27785671401039
 20
-15.3310194189103
 10
10.27737440064246
 20
-15.3310194189103
 10
10.27737440064246
 20
-15.3310194189103
 10
10.26938177911668
 20
-15.34772813201376
 10
10.25146728259338
 20
-15.35909694711508
 10
10.23232977717282
 20
-15.35909694711508
 10
10.19841281212053
 20
-15.35909694711508
 10
10.17636420101493
 20
-15.33560139590568
 10
10.17636420101493
 20
-15.30242512638272
 10
10.17636420101493
 20
-15.26949001354374
 10
10.20034206559227
 20
-15.24502983559846
 10
10.23377671727662
 20
-15.24502983559846
 10
10.27496283380278
 20
-15.24502983559846
 10
10.29311848701005
 20
-15.2690077001758
 10
10.29311848701005
 20
-15.33511908253774
 10
10.29311848701005
 20
-15.3552384401716
 10
10.28803697116931
 20
-15.41966172574578
 10
10.23257093385678
 20
-15.41966172574578
 10
10.20277085790938
 20
-15.41966172574578
 10
10.18411566585674
 20
-15.40488226611405
 10
10.18048109011981
 20
-15.37535779780546
 10
10.18048109011981
 20
-15.37535779780546
 10
10.19574286311947
 20
-15.37535779780546
 10
10.19574286311947
 20
-15.37535779780546
 97
        0
 97
        1
330
86
 75
     2
 76
     1
 98
        1
 10
0.0
 20
0.0
450
        0
451
        0
460
0.0
461
0.0
452
        0
462
0.0
453
        0
470

  0
SPLINE
  5
88
330
7D
100
AcDbEntity
  8
Livello 1
100
AcDbSpline
210
0.0
220
0.0
230
1.0
 70
     9
 71
     3
 72
    17
 73
    13
 74
     0
 42
0.000000001
 43
0.0000000001
 40
0.0
 40
0.0
 40
0.0
 40
0.0
 40
1.0
 40
1.0
 40
1.0
 40
2.0
 40
2.0
 40
2.0
 40
3.0
 40
3.0
 40
3.0
 40
4.0
 40
4.0
 40
4.0
 40
4.0
 10
10.32617417819102
 20
-15.33222520233014
 30
0.0
 10
10.32617417819102
 20
-15.36178412159358
 30
0.0
 10
10.33125569403177
 20
-15.40684597054065
 30
0.0
 10
10.37001301824083
 20
-15.40684597054065
 30
0.0
 10
10.40877034244989
 20
-15.40684597054065
 30
0.0
 10
10.41386908376806
 20
-15.36178412159358
 30
0.0
 10
10.41386908376806
 20
-15.33222520233014
 30
0.0
 10
10.41386908376806
 20
-15.30290743975066
 30
0.0
 10
10.40877034244989
 20
-15.25784559080359
 30
0.0
 10
10.37001301824083
 20
-15.25784559080359
 30
0.0
 10
10.33125569403177
 20
-15.25784559080359
 30
0.0
 10
10.32617417819102
 20
-15.30290743975066
 30
0.0
 10
10.32617417819102
 20
-15.33222520233014
 30
0.0
  0
SPLINE
  5
89
330
7D
100
AcDbEntity
  8
Livello 1
100
AcDbSpline
210
0.0
220
0.0
230
1.0
 70
     9
 71
     3
 72
    17
 73
    13
 74
     0
 42
0.000000001
 43
0.0000000001
 40
0.0
 40
0.0
 40
0.0
 40
0.0
 40
1.0
 40
1.0
 40
1.0
 40
2.0
 40
2.0
 40
2.0
 40
3.0
 40
3.0
 40
3.0
 40
4.0
 40
4.0
 40
4.0
 40
4.0
 10
10.42913085676771
 20
-15.33222520233014
 30
0.0
 10
10.42913085676771
 20
-15.37194715327507
 30
0.0
 10
10.41943291297674
 20
-15.41966172574578
 30
0.0
 10
10.37001301824083
 20
-15.41966172574578
 30
0.0
 10
10.32061034898235
 20
-15.41966172574578
 30
0.0
 10
10.31091240519137
 20
-15.37194715327507
 30
0.0
 10
10.31091240519137
 20
-15.3324663590141
 30
0.0
 10
10.31091240519137
 20
-15.29274440806917
 30
0.0
 10
10.32061034898235
 20
-15.24502983559846
 30
0.0
 10
10.37001301824083
 20
-15.24502983559846
 30
0.0
 10
10.41943291297674
 20
-15.24502983559846
 30
0.0
 10
10.42913085676771
 20
-15.29274440806917
 30
0.0
 10
10.42913085676771
 20
-15.33222520233014
 30
0.0
  0
HATCH
  5
8A
330
7D
100
AcDbEntity
  8
Livello 1
 62
    18
420
        0
440
 33554687
100
AcDbHatch
 10
0.0
 20
0.0
 30
0.0
210
0.0
220
0.0
230
1.0
  2
SOLID
 70
     1
 71
     1
 91
        2
 92
        1
 93
        1
 72
     4
 94
        3
 73
     0
 74
     0
 95
       17
 96
       13
 40
0.0
 40
0.0
 40
0.0
 40
0.0
 40
1.0
 40
1.0
 40
1.0
 40
2.0
 40
2.0
 40
2.0
 40
3.0
 40
3.0
 40
3.0
 40
4.0
 40
4.0
 40
4.0
 40
4.0
 10
10.32617417819102
 20
-15.33222520233014
 10
10.32617417819102
 20
-15.36178412159358
 10
10.33125569403177
 20
-15.40684597054065
 10
10.37001301824083
 20
-15.40684597054065
 10
10.40877034244989
 20
-15.40684597054065
 10
10.41386908376806
 20
-15.36178412159358
 10
10.41386908376806
 20
-15.33222520233014
 10
10.41386908376806
 20
-15.30290743975066
 10
10.40877034244989
 20
-15.25784559080359
 10
10.37001301824083
 20
-15.25784559080359
 10
10.33125569403177
 20
-15.25784559080359
 10
10.32617417819102
 20
-15.30290743975066
 10
10.32617417819102
 20
-15.33222520233014
 97
        0
 97
        1
330
88
 92
        1
 93
        1
 72
     4
 94
        3
 73
     0
 74
     0
 95
       17
 96
       13
 40
0.0
 40
0.0
 40
0.0
 40
0.0
 40
1.0
 40
1.0
 40
1.0
 40
2.0
 40
2.0
 40
2.0
 40
3.0
 40
3.0
 40
3.0
 40
4.0
 40
4.0
 40
4.0
 40
4.0
 10
10.42913085676771
 20
-15.33222520233014
 10
10.42913085676771
 20
-15.37194715327507
 10
10.41943291297674
 20
-15.41966172574578
 10
10.37001301824083
 20
-15.41966172574578
 10
10.32061034898235
 20
-15.41966172574578
 10
10.31091240519137
 20
-15.37194715327507
 10
10.31091240519137
 20
-15.3324663590141
 10
10.31091240519137
 20
-15.29274440806917
 10
10.32061034898235
 20
-15.24502983559846
 10
10.37001301824083
 20
-15.24502983559846
 10
10.41943291297674
 20
-15.24502983559846
 10
10.42913085676771
 20
-15.29274440806917
 10
10.42913085676771
 20
-15.33222520233014
 97
        0
 97
        1
330
89
 75
     2
 76
     1
 98
        1
 10
0.0
 20
0.0
450
        0
451
        0
460
0.0
461
0.0
452
        0
462
0.0
453
        0
470

  0
SPLINE
  5
8B
330
7D
100
AcDbEntity
  8
Livello 1
100
AcDbSpline
210
0.0
220
0.0
230
1.0
 70
     9
 71
     3
 72
    17
 73
    13
 74
     0
 42
0.000000001
 43
0.0000000001
 40
0.0
 40
0.0
 40
0.0
 40
0.0
 40
1.0
 40
1.0
 40
1.0
 40
2.0
 40
2.0
 40
2.0
 40
3.0
 40
3.0
 40
3.0
 40
4.0
 40
4.0
 40
4.0
 40
4.0
 10
10.46070515689003
 20
-15.33222520233014
 30
0.0
 10
10.46070515689003
 20
-15.36178412159358
 30
0.0
 10
10.46578667273077
 20
-15.40684597054065
 30
0.0
 10
10.50454399693983
 20
-15.40684597054065
 30
0.0
 10
10.54330132114889
 20
-15.40684597054065
 30
0.0
 10
10.54840006246706
 20
-15.36178412159358
 30
0.0
 10
10.54840006246706
 20
-15.33222520233014
 30
0.0
 10
10.54840006246706
 20
-15.30290743975066
 30
0.0
 10
10.54330132114889
 20
-15.25784559080359
 30
0.0
 10
10.50454399693983
 20
-15.25784559080359
 30
0.0
 10
10.46578667273077
 20
-15.25784559080359
 30
0.0
 10
10.46070515689003
 20
-15.30290743975066
 30
0.0
 10
10.46070515689003
 20
-15.33222520233014
 30
0.0
  0
SPLINE
  5
8C
330
7D
100
AcDbEntity
  8
Livello 1
100
AcDbSpline
210
0.0
220
0.0
230
1.0
 70
     9
 71
     3
 72
    17
 73
    13
 74
     0
 42
0.000000001
 43
0.0000000001
 40
0.0
 40
0.0
 40
0.0
 40
0.0
 40
1.0
 40
1.0
 40
1.0
 40
2.0
 40
2.0
 40
2.0
 40
3.0
 40
3.0
 40
3.0
 40
4.0
 40
4.0
 40
4.0
 40
4.0
 10
10.56366183546672
 20
-15.33222520233014
 30
0.0
 10
10.56366183546672
 20
-15.37194715327507
 30
0.0
 10
10.55394666619831
 20
-15.41966172574578
 30
0.0
 10
10.50454399693983
 20
-15.41966172574578
 30
0.0
 10
10.45514132768135
 20
-15.41966172574578
 30
0.0
 10
10.44544338389037
 20
-15.37194715327507
 30
0.0
 10
10.44544338389037
 20
-15.3324663590141
 30
0.0
 10
10.44544338389037
 20
-15.29274440806917
 30
0.0
 10
10.45514132768135
 20
-15.24502983559846
 30
0.0
 10
10.50454399693983
 20
-15.24502983559846
 30
0.0
 10
10.55394666619831
 20
-15.24502983559846
 30
0.0
 10
10.56366183546672
 20
-15.29274440806917
 30
0.0
 10
10.56366183546672
 20
-15.33222520233014
 30
0.0
  0
HATCH
  5
8D
330
7D
100
AcDbEntity
  8
Livello 1
 62
    18
420
        0
440
 33554687
100
AcDbHatch
 10
0.0
 20
0.0
 30
0.0
210
0.0
220
0.0
230
1.0
  2
SOLID
 70
     1
 71
     1
 91
        2
 92
        1
 93
        1
 72
     4
 94
        3
 73
     0
 74
     0
 95
       17
 96
       13
 40
0.0
 40
0.0
 40
0.0
 40
0.0
 40
1.0
 40
1.0
 40
1.0
 40
2.0
 40
2.0
 40
2.0
 40
3.0
 40
3.0
 40
3.0
 40
4.0
 40
4.0
 40
4.0
 40
4.0
 10
10.46070515689003
 20
-15.33222520233014
 10
10.46070515689003
 20
-15.36178412159358
 10
10.46578667273077
 20
-15.40684597054065
 10
10.50454399693983
 20
-15.40684597054065
 10
10.54330132114889
 20
-15.40684597054065
 10
10.54840006246706
 20
-15.36178412159358
 10
10.54840006246706
 20
-15.33222520233014
 10
10.54840006246706
 20
-15.30290743975066
 10
10.54330132114889
 20
-15.25784559080359
 10
10.50454399693983
 20
-15.25784559080359
 10
10.46578667273077
 20
-15.25784559080359
 10
10.46070515689003
 20
-15.30290743975066
 10
10.46070515689003
 20
-15.33222520233014
 97
        0
 97
        1
330
8B
 92
        1
 93
        1
 72
     4
 94
        3
 73
     0
 74
     0
 95
       17
 96
       13
 40
0.0
 40
0.0
 40
0.0
 40
0.0
 40
1.0
 40
1.0
 40
1.0
 40
2.0
 40
2.0
 40
2.0
 40
3.0
 40
3.0
 40
3.0
 40
4.0
 40
4.0
 40
4.0
 40
4.0
 10
10.56366183546672
 20
-15.33222520233014
 10
10.56366183546672
 20
-15.37194715327507
 10
10.55394666619831
 20
-15.41966172574578
 10
10.50454399693983
 20
-15.41966172574578
 10
10.45514132768135
 20
-15.41966172574578
 10
10.44544338389037
 20
-15.37194715327507
 10
10.44544338389037
 20
-15.3324663590141
 10
10.44544338389037
 20
-15.29274440806917
 10
10.45514132768135
 20
-15.24502983559846
 10
10.50454399693983
 20
-15.24502983559846
 10
10.55394666619831
 20
-15.24502983559846
 10
10.56366183546672
 20
-15.29274440806917
 10
10.56366183546672
 20
-15.33222520233014
 97
        0
 97
        1
330
8C
 75
     2
 76
     1
 98
        1
 10
0.0
 20
0.0
450
        0
451
        0
460
0.0
461
0.0
452
        0
462
0.0
453
        0
470

  0
ENDBLK
  5
80
330
7D
100
AcDbEntity
  8
0
100
AcDbBlockEnd
  0
BLOCK
  5
90
330
8E
100
AcDbEntity
  8
0
100
AcDbBlockBegin
  2
Block_2
 70
     0
 10
0.0
 20
0.0
 30
0.0
  3
Block_2
  1

  0
LINE
  5
92
330
8E
100
AcDbEntity
  8
Livello 1
 62
    18
420
        0
370
     9
100
AcDbLine
 10
9.929075554904741
 20
-15.33470867404672
 30
0.0
 11
4.400493482217805
 21
-15.33470867404672
 31
0.0
  0
LWPOLYLINE
  5
93
330
8E
100
AcDbEntity
  8
Livello 1
100
AcDbPolyline
 90
        3
 70
     1
 43
0.0
 10
4.143780709534632
 20
-15.33558575711826
 10
4.398677662281833
 20
-15.25060840055544
 10
4.398677662281833
 20
-15.41880894753801
  0
HATCH
  5
94
330
8E
100
AcDbEntity
  8
Livello 1
 62
    18
420
        0
440
 33554687
100
AcDbHatch
 10
0.0
 20
0.0
 30
0.0
210
0.0
220
0.0
230
1.0
  2
SOLID
 70
     1
 71
     1
 91
        1
 92
        1
 93
        3
 72
     1
 10
4.143780709534632
 20
-15.33558575711826
 11
4.398677662281833
 21
-15.25060840055544
 72
     1
 10
4.398677662281833
 20
-15.25060840055544
 11
4.398677662281833
 21
-15.41880894753801
 72
     1
 10
4.398677662281833
 20
-15.41880894753801
 11
4.143780709534632
 21
-15.33558575711826
 97
        1
330
93
 75
     0
 76
     1
 98
        1
 10
0.0
 20
0.0
450
        0
451
        0
460
0.0
461
0.0
452
        0
462
0.0
453
        0
470

  0
ENDBLK
  5
91
330
8E
100
AcDbEntity
  8
0
100
AcDbBlockEnd
  0
BLOCK
  5
97
330
95
100
AcDbEntity
  8
0
100
AcDbBlockBegin
  2
Block_3
 70
     0
 10
0.0
 20
0.0
 30
0.0
  3
Block_3
  1

  0
LINE
  5
99
330
95
100
AcDbEntity
  8
Livello 1
 62
    18
420
        0
370
     9
100
AcDbLine
 10
10.57314804549717
 20
-15.33470867404672
 30
0.0
 11
16.37946198109036
 21
-15.33470867404672
 31
0.0
  0
LWPOLYLINE
  5
9A
330
95
100
AcDbEntity
  8
Livello 1
100
AcDbPolyline
 90
        3
 70
     1
 43
0.0
 10
16.63617475377369
 20
-15.33383159097519
 10
16.38127780102646
 20
-15.41880894753801
 10
16.38127780102646
 20
-15.25060840055544
  0
HATCH
  5
9B
330
95
100
AcDbEntity
  8
Livello 1
 62
    18
420
        0
440
 33554687
100
AcDbHatch
 10
0.0
 20
0.0
 30
0.0
210
0.0
220
0.0
230
1.0
  2
SOLID
 70
     1
 71
     1
 91
        1
 92
        1
 93
        3
 72
     1
 10
16.63617475377369
 20
-15.33383159097519
 11
16.38127780102646
 21
-15.41880894753801
 72
     1
 10
16.38127780102646
 20
-15.41880894753801
 11
16.38127780102646
 21
-15.25060840055544
 72
     1
 10
16.38127780102646
 20
-15.25060840055544
 11
16.63617475377369
 21
-15.33383159097519
 97
        1
330
9A
 75
     0
 76
     1
 98
        1
 10
0.0
 20
0.0
450
        0
451
        0
460
0.0
461
0.0
452
        0
462
0.0
453
        0
470

  0
ENDBLK
  5
98
330
95
100
AcDbEntity
  8
0
100
AcDbBlockEnd
  0
BLOCK
  5
9E
330
9C
100
AcDbEntity
  8
0
100
AcDbBlockBegin
  2
Block_4
 70
     0
 10
0.0
 20
0.0
 30
0.0
  3
Block_4
  1

  0
INSERT
  5
A1
330
9C
100
AcDbEntity
  8
Livello 1
100
AcDbBlockReference
  2
Block_5
 10
0.0
 20
0.0
 30
0.0
  0
INSERT
  5
AE
330
9C
100
AcDbEntity
  8
Livello 1
100
AcDbBlockReference
  2
Block_7
 10
0.0
 20
0.0
 30
0.0
  0
INSERT
  5
B5
330
9C
100
AcDbEntity
  8
Livello 1
100
AcDbBlockReference
  2
Block_8
 10
0.0
 20
0.0
 30
0.0
  0
ENDBLK
  5
9F
330
9C
100
AcDbEntity
  8
0
100
AcDbBlockEnd
  0
BLOCK
  5
A2
330
A0
100
AcDbEntity
  8
0
100
AcDbBlockBegin
  2
Block_5
 70
     0
 10
0.0
 20
0.0
 30
0.0
  3
Block_5
  1

  0
INSERT
  5
A5
330
A0
100
AcDbEntity
  8
Livello 1
100
AcDbBlockReference
  2
Block_6
 10
0.0
 20
0.0
 30
0.0
  0
ENDBLK
  5
A3
330
A0
100
AcDbEntity
  8
0
100
AcDbBlockEnd
  0
BLOCK
  5
A6
330
A4
100
AcDbEntity
  8
0
100
AcDbBlockBegin
  2
Block_6
 70
     0
 10
0.0
 20
0.0
 30
0.0
  3
Block_6
  1

  0
SPLINE
  5
A8
330
A4
100
AcDbEntity
  8
Livello 1
100
AcDbSpline
210
0.0
220
0.0
230
1.0
 70
     9
 71
     3
 72
    26
 73
    22
 74
     0
 42
0.000000001
 43
0.0000000001
 40
0.0
 40
0.0
 40
0.0
 40
0.0
 40
1.0
 40
1.0
 40
1.0
 40
2.0
 40
2.0
 40
2.0
 40
3.0
 40
3.0
 40
3.0
 40
4.0
 40
4.0
 40
4.0
 40
5.0
 40
5.0
 40
5.0
 40
6.0
 40
6.0
 40
6.0
 40
7.0
 40
7.0
 40
7.0
 40
7.0
 10
3.31828152043779
 20
-14.26617485537442
 30
0.0
 10
3.344946559493624
 20
-14.26519300316113
 30
0.0
 10
3.361414115913118
 20
-14.26471068979319
 30
0.0
 10
3.3659960929085
 20
-14.23346367374198
 30
0.0
 10
3.3659960929085
 20
-14.23346367374198
 30
0.0
 10
3.378363985700547
 20
-14.23346367374198
 30
0.0
 10
3.378363985700547
 20
-14.23346367374198
 30
0.0
 10
3.378363985700547
 20
-14.23346367374198
 30
0.0
 10
3.378363985700547
 20
-14.40303127352598
 30
0.0
 10
3.378363985700547
 20
-14.40303127352598
 30
0.0
 10
3.378363985700547
 20
-14.40303127352598
 30
0.0
 10
3.36310221270089
 20
-14.40303127352598
 30
0.0
 10
3.36310221270089
 20
-14.40303127352598
 30
0.0
 10
3.36310221270089
 20
-14.40303127352598
 30
0.0
 10
3.36310221270089
 20
-14.27707858258524
 30
0.0
 10
3.36310221270089
 20
-14.27707858258524
 30
0.0
 10
3.36310221270089
 20
-14.27707858258524
 30
0.0
 10
3.31828152043779
 20
-14.27707858258524
 30
0.0
 10
3.31828152043779
 20
-14.27707858258524
 30
0.0
 10
3.31828152043779
 20
-14.27707858258524
 30
0.0
 10
3.31828152043779
 20
-14.26617485537442
 30
0.0
 10
3.31828152043779
 20
-14.26617485537442
 30
0.0
  0
HATCH
  5
A9
330
A4
100
AcDbEntity
  8
Livello 1
 62
    18
420
        0
440
 33554687
100
AcDbHatch
 10
0.0
 20
0.0
 30
0.0
210
0.0
220
0.0
230
1.0
  2
SOLID
 70
     1
 71
     1
 91
        1
 92
        1
 93
        1
 72
     4
 94
        3
 73
     0
 74
     0
 95
       26
 96
       22
 40
0.0
 40
0.0
 40
0.0
 40
0.0
 40
1.0
 40
1.0
 40
1.0
 40
2.0
 40
2.0
 40
2.0
 40
3.0
 40
3.0
 40
3.0
 40
4.0
 40
4.0
 40
4.0
 40
5.0
 40
5.0
 40
5.0
 40
6.0
 40
6.0
 40
6.0
 40
7.0
 40
7.0
 40
7.0
 40
7.0
 10
3.31828152043779
 20
-14.26617485537442
 10
3.344946559493624
 20
-14.26519300316113
 10
3.361414115913118
 20
-14.26471068979319
 10
3.3659960929085
 20
-14.23346367374198
 10
3.3659960929085
 20
-14.23346367374198
 10
3.378363985700547
 20
-14.23346367374198
 10
3.378363985700547
 20
-14.23346367374198
 10
3.378363985700547
 20
-14.23346367374198
 10
3.378363985700547
 20
-14.40303127352598
 10
3.378363985700547
 20
-14.40303127352598
 10
3.378363985700547
 20
-14.40303127352598
 10
3.36310221270089
 20
-14.40303127352598
 10
3.36310221270089
 20
-14.40303127352598
 10
3.36310221270089
 20
-14.40303127352598
 10
3.36310221270089
 20
-14.27707858258524
 10
3.36310221270089
 20
-14.27707858258524
 10
3.36310221270089
 20
-14.27707858258524
 10
3.31828152043779
 20
-14.27707858258524
 10
3.31828152043779
 20
-14.27707858258524
 10
3.31828152043779
 20
-14.27707858258524
 10
3.31828152043779
 20
-14.26617485537442
 10
3.31828152043779
 20
-14.26617485537442
 97
        0
 97
        1
330
A8
 75
     2
 76
     1
 98
        1
 10
0.0
 20
0.0
450
        0
451
        0
460
0.0
461
0.0
452
        0
462
0.0
453
        0
470

  0
SPLINE
  5
AA
330
A4
100
AcDbEntity
  8
Livello 1
100
AcDbSpline
210
0.0
220
0.0
230
1.0
 70
    11
 71
     3
 72
    17
 73
    13
 74
     0
 42
0.000000001
 43
0.0000000001
 40
0.0
 40
0.0
 40
0.0
 40
0.0
 40
1.0
 40
1.0
 40
1.0
 40
2.0
 40
2.0
 40
2.0
 40
3.0
 40
3.0
 40
3.0
 40
4.0
 40
4.0
 40
4.0
 40
4.0
 10
3.514858668826146
 20
-14.34804754958139
 30
0.0
 10
3.514858668826146
 20
-14.34804754958139
 30
0.0
 10
3.514858668826146
 20
-14.25575344153154
 30
0.0
 10
3.514858668826146
 20
-14.25575344153154
 30
0.0
 10
3.514858668826146
 20
-14.25575344153154
 30
0.0
 10
3.514376355458211
 20
-14.25575344153154
 30
0.0
 10
3.514376355458211
 20
-14.25575344153154
 30
0.0
 10
3.514376355458211
 20
-14.25575344153154
 30
0.0
 10
3.450400932297121
 20
-14.34804754958139
 30
0.0
 10
3.450400932297121
 20
-14.34804754958139
 30
0.0
 10
3.450400932297121
 20
-14.34804754958139
 30
0.0
 10
3.514858668826146
 20
-14.34804754958139
 30
0.0
 10
3.514858668826146
 20
-14.34804754958139
 30
0.0
  0
SPLINE
  5
AB
330
A4
100
AcDbEntity
  8
Livello 1
100
AcDbSpline
210
0.0
220
0.0
230
1.0
 70
    11
 71
     3
 72
    38
 73
    34
 74
     0
 42
0.000000001
 43
0.0000000001
 40
0.0
 40
0.0
 40
0.0
 40
0.0
 40
1.0
 40
1.0
 40
1.0
 40
2.0
 40
2.0
 40
2.0
 40
3.0
 40
3.0
 40
3.0
 40
4.0
 40
4.0
 40
4.0
 40
5.0
 40
5.0
 40
5.0
 40
6.0
 40
6.0
 40
6.0
 40
7.0
 40
7.0
 40
7.0
 40
8.0
 40
8.0
 40
8.0
 40
9.0
 40
9.0
 40
9.0
 40
10.0
 40
10.0
 40
10.0
 40
11.0
 40
11.0
 40
11.0
 40
11.0
 10
3.436620550356122
 20
-14.34610107063222
 30
0.0
 10
3.436620550356122
 20
-14.34610107063222
 30
0.0
 10
3.515099825510113
 20
-14.23346367374198
 30
0.0
 10
3.515099825510113
 20
-14.23346367374198
 30
0.0
 10
3.515099825510113
 20
-14.23346367374198
 30
0.0
 10
3.528914658405965
 20
-14.23346367374198
 30
0.0
 10
3.528914658405965
 20
-14.23346367374198
 30
0.0
 10
3.528914658405965
 20
-14.23346367374198
 30
0.0
 10
3.528914658405965
 20
-14.34804754958139
 30
0.0
 10
3.528914658405965
 20
-14.34804754958139
 30
0.0
 10
3.528914658405965
 20
-14.34804754958139
 30
0.0
 10
3.554339463087109
 20
-14.34804754958139
 30
0.0
 10
3.554339463087109
 20
-14.34804754958139
 30
0.0
 10
3.554339463087109
 20
-14.34804754958139
 30
0.0
 10
3.554339463087109
 20
-14.36088053026394
 30
0.0
 10
3.554339463087109
 20
-14.36088053026394
 30
0.0
 10
3.554339463087109
 20
-14.36088053026394
 30
0.0
 10
3.528914658405965
 20
-14.36088053026394
 30
0.0
 10
3.528914658405965
 20
-14.36088053026394
 30
0.0
 10
3.528914658405965
 20
-14.36088053026394
 30
0.0
 10
3.528914658405965
 20
-14.40303127352598
 30
0.0
 10
3.528914658405965
 20
-14.40303127352598
 30
0.0
 10
3.528914658405965
 20
-14.40303127352598
 30
0.0
 10
3.514858668826146
 20
-14.40303127352598
 30
0.0
 10
3.514858668826146
 20
-14.40303127352598
 30
0.0
 10
3.514858668826146
 20
-14.40303127352598
 30
0.0
 10
3.514858668826146
 20
-14.36088053026394
 30
0.0
 10
3.514858668826146
 20
-14.36088053026394
 30
0.0
 10
3.514858668826146
 20
-14.36088053026394
 30
0.0
 10
3.436620550356122
 20
-14.36088053026394
 30
0.0
 10
3.436620550356122
 20
-14.36088053026394
 30
0.0
 10
3.436620550356122
 20
-14.36088053026394
 30
0.0
 10
3.436620550356122
 20
-14.34610107063222
 30
0.0
 10
3.436620550356122
 20
-14.34610107063222
 30
0.0
  0
HATCH
  5
AC
330
A4
100
AcDbEntity
  8
Livello 1
 62
    18
420
        0
440
 33554687
100
AcDbHatch
 10
0.0
 20
0.0
 30
0.0
210
0.0
220
0.0
230
1.0
  2
SOLID
 70
     1
 71
     1
 91
        2
 92
        1
 93
        1
 72
     4
 94
        3
 73
     0
 74
     0
 95
       17
 96
       13
 40
0.0
 40
0.0
 40
0.0
 40
0.0
 40
1.0
 40
1.0
 40
1.0
 40
2.0
 40
2.0
 40
2.0
 40
3.0
 40
3.0
 40
3.0
 40
4.0
 40
4.0
 40
4.0
 40
4.0
 10
3.514858668826146
 20
-14.34804754958139
 10
3.514858668826146
 20
-14.34804754958139
 10
3.514858668826146
 20
-14.25575344153154
 10
3.514858668826146
 20
-14.25575344153154
 10
3.514858668826146
 20
-14.25575344153154
 10
3.514376355458211
 20
-14.25575344153154
 10
3.514376355458211
 20
-14.25575344153154
 10
3.514376355458211
 20
-14.25575344153154
 10
3.450400932297121
 20
-14.34804754958139
 10
3.450400932297121
 20
-14.34804754958139
 10
3.450400932297121
 20
-14.34804754958139
 10
3.514858668826146
 20
-14.34804754958139
 10
3.514858668826146
 20
-14.34804754958139
 97
        0
 97
        1
330
AA
 92
        1
 93
        1
 72
     4
 94
        3
 73
     0
 74
     0
 95
       38
 96
       34
 40
0.0
 40
0.0
 40
0.0
 40
0.0
 40
1.0
 40
1.0
 40
1.0
 40
2.0
 40
2.0
 40
2.0
 40
3.0
 40
3.0
 40
3.0
 40
4.0
 40
4.0
 40
4.0
 40
5.0
 40
5.0
 40
5.0
 40
6.0
 40
6.0
 40
6.0
 40
7.0
 40
7.0
 40
7.0
 40
8.0
 40
8.0
 40
8.0
 40
9.0
 40
9.0
 40
9.0
 40
10.0
 40
10.0
 40
10.0
 40
11.0
 40
11.0
 40
11.0
 40
11.0
 10
3.436620550356122
 20
-14.34610107063222
 10
3.436620550356122
 20
-14.34610107063222
 10
3.515099825510113
 20
-14.23346367374198
 10
3.515099825510113
 20
-14.23346367374198
 10
3.515099825510113
 20
-14.23346367374198
 10
3.528914658405965
 20
-14.23346367374198
 10
3.528914658405965
 20
-14.23346367374198
 10
3.528914658405965
 20
-14.23346367374198
 10
3.528914658405965
 20
-14.34804754958139
 10
3.528914658405965
 20
-14.34804754958139
 10
3.528914658405965
 20
-14.34804754958139
 10
3.554339463087109
 20
-14.34804754958139
 10
3.554339463087109
 20
-14.34804754958139
 10
3.554339463087109
 20
-14.34804754958139
 10
3.554339463087109
 20
-14.36088053026394
 10
3.554339463087109
 20
-14.36088053026394
 10
3.554339463087109
 20
-14.36088053026394
 10
3.528914658405965
 20
-14.36088053026394
 10
3.528914658405965
 20
-14.36088053026394
 10
3.528914658405965
 20
-14.36088053026394
 10
3.528914658405965
 20
-14.40303127352598
 10
3.528914658405965
 20
-14.40303127352598
 10
3.528914658405965
 20
-14.40303127352598
 10
3.514858668826146
 20
-14.40303127352598
 10
3.514858668826146
 20
-14.40303127352598
 10
3.514858668826146
 20
-14.40303127352598
 10
3.514858668826146
 20
-14.36088053026394
 10
3.514858668826146
 20
-14.36088053026394
 10
3.514858668826146
 20
-14.36088053026394
 10
3.436620550356122
 20
-14.36088053026394
 10
3.436620550356122
 20
-14.36088053026394
 10
3.436620550356122
 20
-14.36088053026394
 10
3.436620550356122
 20
-14.34610107063222
 10
3.436620550356122
 20
-14.34610107063222
 97
        0
 97
        1
330
AB
 75
     2
 76
     1
 98
        1
 10
0.0
 20
0.0
450
        0
451
        0
460
0.0
461
0.0
452
        0
462
0.0
453
        0
470

  0
ENDBLK
  5
A7
330
A4
100
AcDbEntity
  8
0
100
AcDbBlockEnd
  0
BLOCK
  5
AF
330
AD
100
AcDbEntity
  8
0
100
AcDbBlockBegin
  2
Block_7
 70
     0
 10
0.0
 20
0.0
 30
0.0
  3
Block_7
  1

  0
LINE
  5
B1
330
AD
100
AcDbEntity
  8
Livello 1
 62
    18
420
        0
370
     9
100
AcDbLine
 10
3.424275805433024
 20
-14.19636311040604
 30
0.0
 11
3.424275805433024
 21
-14.14365633862135
 31
0.0
  0
LWPOLYLINE
  5
B2
330
AD
100
AcDbEntity
  8
Livello 1
100
AcDbPolyline
 90
        3
 70
     1
 43
0.0
 10
3.423398722361551
 20
-13.88694356593814
 10
3.508376078924279
 20
-14.14184051868531
 10
3.340175531941705
 20
-14.14184051868531
  0
HATCH
  5
B3
330
AD
100
AcDbEntity
  8
Livello 1
 62
    18
420
        0
440
 33554687
100
AcDbHatch
 10
0.0
 20
0.0
 30
0.0
210
0.0
220
0.0
230
1.0
  2
SOLID
 70
     1
 71
     1
 91
        1
 92
        1
 93
        3
 72
     1
 10
3.423398722361551
 20
-13.88694356593814
 11
3.508376078924279
 21
-14.14184051868531
 72
     1
 10
3.508376078924279
 20
-14.14184051868531
 11
3.340175531941705
 21
-14.14184051868531
 72
     1
 10
3.340175531941705
 20
-14.14184051868531
 11
3.423398722361551
 21
-13.88694356593814
 97
        1
330
B2
 75
     0
 76
     1
 98
        1
 10
0.0
 20
0.0
450
        0
451
        0
460
0.0
461
0.0
452
        0
462
0.0
453
        0
470

  0
ENDBLK
  5
B0
330
AD
100
AcDbEntity
  8
0
100
AcDbBlockEnd
  0
BLOCK
  5
B6
330
B4
100
AcDbEntity
  8
0
100
AcDbBlockBegin
  2
Block_8
 70
     0
 10
0.0
 20
0.0
 30
0.0
  3
Block_8
  1

  0
LINE
  5
B8
330
B4
100
AcDbEntity
  8
Livello 1
 62
    18
420
        0
370
     9
100
AcDbLine
 10
3.424275805433024
 20
-14.48302898047273
 30
0.0
 11
3.424275805433024
 21
-14.52661655017607
 31
0.0
  0
LWPOLYLINE
  5
B9
330
B4
100
AcDbEntity
  8
Livello 1
100
AcDbPolyline
 90
        3
 70
     1
 43
0.0
 10
3.425152888504529
 20
-14.7833293228594
 10
3.340175531941705
 20
-14.52843237011223
 10
3.508376078924279
 20
-14.52843237011223
  0
HATCH
  5
BA
330
B4
100
AcDbEntity
  8
Livello 1
 62
    18
420
        0
440
 33554687
100
AcDbHatch
 10
0.0
 20
0.0
 30
0.0
210
0.0
220
0.0
230
1.0
  2
SOLID
 70
     1
 71
     1
 91
        1
 92
        1
 93
        3
 72
     1
 10
3.425152888504529
 20
-14.7833293228594
 11
3.340175531941705
 21
-14.52843237011223
 72
     1
 10
3.340175531941705
 20
-14.52843237011223
 11
3.508376078924279
 21
-14.52843237011223
 72
     1
 10
3.508376078924279
 20
-14.52843237011223
 11
3.425152888504529
 21
-14.7833293228594
 97
        1
330
B9
 75
     0
 76
     1
 98
        1
 10
0.0
 20
0.0
450
        0
451
        0
460
0.0
461
0.0
452
        0
462
0.0
453
        0
470

  0
ENDBLK
  5
B7
330
B4
100
AcDbEntity
  8
0
100
AcDbBlockEnd
  0
BLOCK
  5
BD
330
BB
100
AcDbEntity
  8
0
100
AcDbBlockBegin
  2
Block_9
 70
     0
 10
0.0
 20
0.0
 30
0.0
  3
Block_9
  1

  0
INSERT
  5
C0
330
BB
100
AcDbEntity
  8
Livello 1
100
AcDbBlockReference
  2
Block_10
 10
0.0
 20
0.0
 30
0.0
  0
ENDBLK
  5
BE
330
BB
100
AcDbEntity
  8
0
100
AcDbBlockEnd
  0
BLOCK
  5
C1
330
BF
100
AcDbEntity
  8
0
100
AcDbBlockBegin
  2
Block_10
 70
     0
 10
0.0
 20
0.0
 30
0.0
  3
Block_10
  1

  0
SPLINE
  5
C3
330
BF
100
AcDbEntity
  8
Livello 1
100
AcDbSpline
210
0.0
220
0.0
230
1.0
 70
    11
 71
     3
 72
    17
 73
    13
 74
     0
 42
0.000000001
 43
0.0000000001
 40
0.0
 40
0.0
 40
0.0
 40
0.0
 40
1.0
 40
1.0
 40
1.0
 40
2.0
 40
2.0
 40
2.0
 40
3.0
 40
3.0
 40
3.0
 40
4.0
 40
4.0
 40
4.0
 40
4.0
 10
17.20487575524739
 20
-14.26183403506301
 30
0.0
 10
17.20487575524739
 20
-14.26183403506301
 30
0.0
 10
17.20487575524739
 20
-14.16953992701317
 30
0.0
 10
17.20487575524739
 20
-14.16953992701317
 30
0.0
 10
17.20487575524739
 20
-14.16953992701317
 30
0.0
 10
17.20439344187945
 20
-14.16953992701317
 30
0.0
 10
17.20439344187945
 20
-14.16953992701317
 30
0.0
 10
17.20439344187945
 20
-14.16953992701317
 30
0.0
 10
17.14041801871837
 20
-14.26183403506301
 30
0.0
 10
17.14041801871837
 20
-14.26183403506301
 30
0.0
 10
17.14041801871837
 20
-14.26183403506301
 30
0.0
 10
17.20487575524739
 20
-14.26183403506301
 30
0.0
 10
17.20487575524739
 20
-14.26183403506301
 30
0.0
  0
SPLINE
  5
C4
330
BF
100
AcDbEntity
  8
Livello 1
100
AcDbSpline
210
0.0
220
0.0
230
1.0
 70
    11
 71
     3
 72
    38
 73
    34
 74
     0
 42
0.000000001
 43
0.0000000001
 40
0.0
 40
0.0
 40
0.0
 40
0.0
 40
1.0
 40
1.0
 40
1.0
 40
2.0
 40
2.0
 40
2.0
 40
3.0
 40
3.0
 40
3.0
 40
4.0
 40
4.0
 40
4.0
 40
5.0
 40
5.0
 40
5.0
 40
6.0
 40
6.0
 40
6.0
 40
7.0
 40
7.0
 40
7.0
 40
8.0
 40
8.0
 40
8.0
 40
9.0
 40
9.0
 40
9.0
 40
10.0
 40
10.0
 40
10.0
 40
11.0
 40
11.0
 40
11.0
 40
11.0
 10
17.12663763677737
 20
-14.25988755611385
 30
0.0
 10
17.12663763677737
 20
-14.25988755611385
 30
0.0
 10
17.20511691193136
 20
-14.1472501592236
 30
0.0
 10
17.20511691193136
 20
-14.1472501592236
 30
0.0
 10
17.20511691193136
 20
-14.1472501592236
 30
0.0
 10
17.21893174482721
 20
-14.1472501592236
 30
0.0
 10
17.21893174482721
 20
-14.1472501592236
 30
0.0
 10
17.21893174482721
 20
-14.1472501592236
 30
0.0
 10
17.21893174482721
 20
-14.26183403506301
 30
0.0
 10
17.21893174482721
 20
-14.26183403506301
 30
0.0
 10
17.21893174482721
 20
-14.26183403506301
 30
0.0
 10
17.24435654950835
 20
-14.26183403506301
 30
0.0
 10
17.24435654950835
 20
-14.26183403506301
 30
0.0
 10
17.24435654950835
 20
-14.26183403506301
 30
0.0
 10
17.24435654950835
 20
-14.27466701574557
 30
0.0
 10
17.24435654950835
 20
-14.27466701574557
 30
0.0
 10
17.24435654950835
 20
-14.27466701574557
 30
0.0
 10
17.21893174482721
 20
-14.27466701574557
 30
0.0
 10
17.21893174482721
 20
-14.27466701574557
 30
0.0
 10
17.21893174482721
 20
-14.27466701574557
 30
0.0
 10
17.21893174482721
 20
-14.3168177590076
 30
0.0
 10
17.21893174482721
 20
-14.3168177590076
 30
0.0
 10
17.21893174482721
 20
-14.3168177590076
 30
0.0
 10
17.20487575524739
 20
-14.3168177590076
 30
0.0
 10
17.20487575524739
 20
-14.3168177590076
 30
0.0
 10
17.20487575524739
 20
-14.3168177590076
 30
0.0
 10
17.20487575524739
 20
-14.27466701574557
 30
0.0
 10
17.20487575524739
 20
-14.27466701574557
 30
0.0
 10
17.20487575524739
 20
-14.27466701574557
 30
0.0
 10
17.12663763677737
 20
-14.27466701574557
 30
0.0
 10
17.12663763677737
 20
-14.27466701574557
 30
0.0
 10
17.12663763677737
 20
-14.27466701574557
 30
0.0
 10
17.12663763677737
 20
-14.25988755611385
 30
0.0
 10
17.12663763677737
 20
-14.25988755611385
 30
0.0
  0
HATCH
  5
C5
330
BF
100
AcDbEntity
  8
Livello 1
 62
    18
420
        0
440
 33554687
100
AcDbHatch
 10
0.0
 20
0.0
 30
0.0
210
0.0
220
0.0
230
1.0
  2
SOLID
 70
     1
 71
     1
 91
        2
 92
        1
 93
        1
 72
     4
 94
        3
 73
     0
 74
     0
 95
       17
 96
       13
 40
0.0
 40
0.0
 40
0.0
 40
0.0
 40
1.0
 40
1.0
 40
1.0
 40
2.0
 40
2.0
 40
2.0
 40
3.0
 40
3.0
 40
3.0
 40
4.0
 40
4.0
 40
4.0
 40
4.0
 10
17.20487575524739
 20
-14.26183403506301
 10
17.20487575524739
 20
-14.26183403506301
 10
17.20487575524739
 20
-14.16953992701317
 10
17.20487575524739
 20
-14.16953992701317
 10
17.20487575524739
 20
-14.16953992701317
 10
17.20439344187945
 20
-14.16953992701317
 10
17.20439344187945
 20
-14.16953992701317
 10
17.20439344187945
 20
-14.16953992701317
 10
17.14041801871837
 20
-14.26183403506301
 10
17.14041801871837
 20
-14.26183403506301
 10
17.14041801871837
 20
-14.26183403506301
 10
17.20487575524739
 20
-14.26183403506301
 10
17.20487575524739
 20
-14.26183403506301
 97
        0
 97
        1
330
C3
 92
        1
 93
        1
 72
     4
 94
        3
 73
     0
 74
     0
 95
       38
 96
       34
 40
0.0
 40
0.0
 40
0.0
 40
0.0
 40
1.0
 40
1.0
 40
1.0
 40
2.0
 40
2.0
 40
2.0
 40
3.0
 40
3.0
 40
3.0
 40
4.0
 40
4.0
 40
4.0
 40
5.0
 40
5.0
 40
5.0
 40
6.0
 40
6.0
 40
6.0
 40
7.0
 40
7.0
 40
7.0
 40
8.0
 40
8.0
 40
8.0
 40
9.0
 40
9.0
 40
9.0
 40
10.0
 40
10.0
 40
10.0
 40
11.0
 40
11.0
 40
11.0
 40
11.0
 10
17.12663763677737
 20
-14.25988755611385
 10
17.12663763677737
 20
-14.25988755611385
 10
17.20511691193136
 20
-14.1472501592236
 10
17.20511691193136
 20
-14.1472501592236
 10
17.20511691193136
 20
-14.1472501592236
 10
17.21893174482721
 20
-14.1472501592236
 10
17.21893174482721
 20
-14.1472501592236
 10
17.21893174482721
 20
-14.1472501592236
 10
17.21893174482721
 20
-14.26183403506301
 10
17.21893174482721
 20
-14.26183403506301
 10
17.21893174482721
 20
-14.26183403506301
 10
17.24435654950835
 20
-14.26183403506301
 10
17.24435654950835
 20
-14.26183403506301
 10
17.24435654950835
 20
-14.26183403506301
 10
17.24435654950835
 20
-14.27466701574557
 10
17.24435654950835
 20
-14.27466701574557
 10
17.24435654950835
 20
-14.27466701574557
 10
17.21893174482721
 20
-14.27466701574557
 10
17.21893174482721
 20
-14.27466701574557
 10
17.21893174482721
 20
-14.27466701574557
 10
17.21893174482721
 20
-14.3168177590076
 10
17.21893174482721
 20
-14.3168177590076
 10
17.21893174482721
 20
-14.3168177590076
 10
17.20487575524739
 20
-14.3168177590076
 10
17.20487575524739
 20
-14.3168177590076
 10
17.20487575524739
 20
-14.3168177590076
 10
17.20487575524739
 20
-14.27466701574557
 10
17.20487575524739
 20
-14.27466701574557
 10
17.20487575524739
 20
-14.27466701574557
 10
17.12663763677737
 20
-14.27466701574557
 10
17.12663763677737
 20
-14.27466701574557
 10
17.12663763677737
 20
-14.27466701574557
 10
17.12663763677737
 20
-14.25988755611385
 10
17.12663763677737
 20
-14.25988755611385
 97
        0
 97
        1
330
C4
 75
     2
 76
     1
 98
        1
 10
0.0
 20
0.0
450
        0
451
        0
460
0.0
461
0.0
452
        0
462
0.0
453
        0
470

  0
SPLINE
  5
C6
330
BF
100
AcDbEntity
  8
Livello 1
100
AcDbSpline
210
0.0
220
0.0
230
1.0
 70
    11
 71
     3
 72
    17
 73
    13
 74
     0
 42
0.000000001
 43
0.0000000001
 40
0.0
 40
0.0
 40
0.0
 40
0.0
 40
1.0
 40
1.0
 40
1.0
 40
2.0
 40
2.0
 40
2.0
 40
3.0
 40
3.0
 40
3.0
 40
4.0
 40
4.0
 40
4.0
 40
4.0
 10
17.3394067339464
 20
-14.26183403506301
 30
0.0
 10
17.3394067339464
 20
-14.26183403506301
 30
0.0
 10
17.3394067339464
 20
-14.16953992701317
 30
0.0
 10
17.3394067339464
 20
-14.16953992701317
 30
0.0
 10
17.3394067339464
 20
-14.16953992701317
 30
0.0
 10
17.33892442057846
 20
-14.16953992701317
 30
0.0
 10
17.33892442057846
 20
-14.16953992701317
 30
0.0
 10
17.33892442057846
 20
-14.16953992701317
 30
0.0
 10
17.27498344837222
 20
-14.26183403506301
 30
0.0
 10
17.27498344837222
 20
-14.26183403506301
 30
0.0
 10
17.27498344837222
 20
-14.26183403506301
 30
0.0
 10
17.3394067339464
 20
-14.26183403506301
 30
0.0
 10
17.3394067339464
 20
-14.26183403506301
 30
0.0
  0
SPLINE
  5
C7
330
BF
100
AcDbEntity
  8
Livello 1
100
AcDbSpline
210
0.0
220
0.0
230
1.0
 70
    11
 71
     3
 72
    38
 73
    34
 74
     0
 42
0.000000001
 43
0.0000000001
 40
0.0
 40
0.0
 40
0.0
 40
0.0
 40
1.0
 40
1.0
 40
1.0
 40
2.0
 40
2.0
 40
2.0
 40
3.0
 40
3.0
 40
3.0
 40
4.0
 40
4.0
 40
4.0
 40
5.0
 40
5.0
 40
5.0
 40
6.0
 40
6.0
 40
6.0
 40
7.0
 40
7.0
 40
7.0
 40
8.0
 40
8.0
 40
8.0
 40
9.0
 40
9.0
 40
9.0
 40
10.0
 40
10.0
 40
10.0
 40
11.0
 40
11.0
 40
11.0
 40
11.0
 10
17.26116861547637
 20
-14.25988755611385
 30
0.0
 10
17.26116861547637
 20
-14.25988755611385
 30
0.0
 10
17.33964789063036
 20
-14.1472501592236
 30
0.0
 10
17.33964789063036
 20
-14.1472501592236
 30
0.0
 10
17.33964789063036
 20
-14.1472501592236
 30
0.0
 10
17.35346272352622
 20
-14.1472501592236
 30
0.0
 10
17.35346272352622
 20
-14.1472501592236
 30
0.0
 10
17.35346272352622
 20
-14.1472501592236
 30
0.0
 10
17.35346272352622
 20
-14.26183403506301
 30
0.0
 10
17.35346272352622
 20
-14.26183403506301
 30
0.0
 10
17.35346272352622
 20
-14.26183403506301
 30
0.0
 10
17.37888752820736
 20
-14.26183403506301
 30
0.0
 10
17.37888752820736
 20
-14.26183403506301
 30
0.0
 10
17.37888752820736
 20
-14.26183403506301
 30
0.0
 10
17.37888752820736
 20
-14.27466701574557
 30
0.0
 10
17.37888752820736
 20
-14.27466701574557
 30
0.0
 10
17.37888752820736
 20
-14.27466701574557
 30
0.0
 10
17.35346272352622
 20
-14.27466701574557
 30
0.0
 10
17.35346272352622
 20
-14.27466701574557
 30
0.0
 10
17.35346272352622
 20
-14.27466701574557
 30
0.0
 10
17.35346272352622
 20
-14.3168177590076
 30
0.0
 10
17.35346272352622
 20
-14.3168177590076
 30
0.0
 10
17.35346272352622
 20
-14.3168177590076
 30
0.0
 10
17.3394067339464
 20
-14.3168177590076
 30
0.0
 10
17.3394067339464
 20
-14.3168177590076
 30
0.0
 10
17.3394067339464
 20
-14.3168177590076
 30
0.0
 10
17.3394067339464
 20
-14.27466701574557
 30
0.0
 10
17.3394067339464
 20
-14.27466701574557
 30
0.0
 10
17.3394067339464
 20
-14.27466701574557
 30
0.0
 10
17.26116861547637
 20
-14.27466701574557
 30
0.0
 10
17.26116861547637
 20
-14.27466701574557
 30
0.0
 10
17.26116861547637
 20
-14.27466701574557
 30
0.0
 10
17.26116861547637
 20
-14.25988755611385
 30
0.0
 10
17.26116861547637
 20
-14.25988755611385
 30
0.0
  0
HATCH
  5
C8
330
BF
100
AcDbEntity
  8
Livello 1
 62
    18
420
        0
440
 33554687
100
AcDbHatch
 10
0.0
 20
0.0
 30
0.0
210
0.0
220
0.0
230
1.0
  2
SOLID
 70
     1
 71
     1
 91
        2
 92
        1
 93
        1
 72
     4
 94
        3
 73
     0
 74
     0
 95
       17
 96
       13
 40
0.0
 40
0.0
 40
0.0
 40
0.0
 40
1.0
 40
1.0
 40
1.0
 40
2.0
 40
2.0
 40
2.0
 40
3.0
 40
3.0
 40
3.0
 40
4.0
 40
4.0
 40
4.0
 40
4.0
 10
17.3394067339464
 20
-14.26183403506301
 10
17.3394067339464
 20
-14.26183403506301
 10
17.3394067339464
 20
-14.16953992701317
 10
17.3394067339464
 20
-14.16953992701317
 10
17.3394067339464
 20
-14.16953992701317
 10
17.33892442057846
 20
-14.16953992701317
 10
17.33892442057846
 20
-14.16953992701317
 10
17.33892442057846
 20
-14.16953992701317
 10
17.27498344837222
 20
-14.26183403506301
 10
17.27498344837222
 20
-14.26183403506301
 10
17.27498344837222
 20
-14.26183403506301
 10
17.3394067339464
 20
-14.26183403506301
 10
17.3394067339464
 20
-14.26183403506301
 97
        0
 97
        1
330
C6
 92
        1
 93
        1
 72
     4
 94
        3
 73
     0
 74
     0
 95
       38
 96
       34
 40
0.0
 40
0.0
 40
0.0
 40
0.0
 40
1.0
 40
1.0
 40
1.0
 40
2.0
 40
2.0
 40
2.0
 40
3.0
 40
3.0
 40
3.0
 40
4.0
 40
4.0
 40
4.0
 40
5.0
 40
5.0
 40
5.0
 40
6.0
 40
6.0
 40
6.0
 40
7.0
 40
7.0
 40
7.0
 40
8.0
 40
8.0
 40
8.0
 40
9.0
 40
9.0
 40
9.0
 40
10.0
 40
10.0
 40
10.0
 40
11.0
 40
11.0
 40
11.0
 40
11.0
 10
17.26116861547637
 20
-14.25988755611385
 10
17.26116861547637
 20
-14.25988755611385
 10
17.33964789063036
 20
-14.1472501592236
 10
17.33964789063036
 20
-14.1472501592236
 10
17.33964789063036
 20
-14.1472501592236
 10
17.35346272352622
 20
-14.1472501592236
 10
17.35346272352622
 20
-14.1472501592236
 10
17.35346272352622
 20
-14.1472501592236
 10
17.35346272352622
 20
-14.26183403506301
 10
17.35346272352622
 20
-14.26183403506301
 10
17.35346272352622
 20
-14.26183403506301
 10
17.37888752820736
 20
-14.26183403506301
 10
17.37888752820736
 20
-14.26183403506301
 10
17.37888752820736
 20
-14.26183403506301
 10
17.37888752820736
 20
-14.27466701574557
 10
17.37888752820736
 20
-14.27466701574557
 10
17.37888752820736
 20
-14.27466701574557
 10
17.35346272352622
 20
-14.27466701574557
 10
17.35346272352622
 20
-14.27466701574557
 10
17.35346272352622
 20
-14.27466701574557
 10
17.35346272352622
 20
-14.3168177590076
 10
17.35346272352622
 20
-14.3168177590076
 10
17.35346272352622
 20
-14.3168177590076
 10
17.3394067339464
 20
-14.3168177590076
 10
17.3394067339464
 20
-14.3168177590076
 10
17.3394067339464
 20
-14.3168177590076
 10
17.3394067339464
 20
-14.27466701574557
 10
17.3394067339464
 20
-14.27466701574557
 10
17.3394067339464
 20
-14.27466701574557
 10
17.26116861547637
 20
-14.27466701574557
 10
17.26116861547637
 20
-14.27466701574557
 10
17.26116861547637
 20
-14.27466701574557
 10
17.26116861547637
 20
-14.25988755611385
 10
17.26116861547637
 20
-14.25988755611385
 97
        0
 97
        1
330
C7
 75
     2
 76
     1
 98
        1
 10
0.0
 20
0.0
450
        0
451
        0
460
0.0
461
0.0
452
        0
462
0.0
453
        0
470

  0
ENDBLK
  5
C2
330
BF
100
AcDbEntity
  8
0
100
AcDbBlockEnd
  0
BLOCK
  5
CB
330
C9
100
AcDbEntity
  8
0
100
AcDbBlockBegin
  2
Block_11
 70
     0
 10
0.0
 20
0.0
 30
0.0
  3
Block_11
  1

  0
LINE
  5
CD
330
C9
100
AcDbEntity
  8
Livello 1
 62
    18
420
        0
370
     9
100
AcDbLine
 10
17.24883335277593
 20
-14.00431293507339
 30
0.0
 11
17.24883335277593
 21
-13.95160616328876
 31
0.0
  0
LWPOLYLINE
  5
CE
330
C9
100
AcDbEntity
  8
Livello 1
100
AcDbPolyline
 90
        3
 70
     1
 43
0.0
 10
17.24795626970445
 20
-13.69489339060549
 10
17.33293362626722
 20
-13.94979034335273
 10
17.16473307928464
 20
-13.94979034335273
  0
HATCH
  5
CF
330
C9
100
AcDbEntity
  8
Livello 1
 62
    18
420
        0
440
 33554687
100
AcDbHatch
 10
0.0
 20
0.0
 30
0.0
210
0.0
220
0.0
230
1.0
  2
SOLID
 70
     1
 71
     1
 91
        1
 92
        1
 93
        3
 72
     1
 10
17.24795626970445
 20
-13.69489339060549
 11
17.33293362626722
 21
-13.94979034335273
 72
     1
 10
17.33293362626722
 20
-13.94979034335273
 11
17.16473307928464
 21
-13.94979034335273
 72
     1
 10
17.16473307928464
 20
-13.94979034335273
 11
17.24795626970445
 21
-13.69489339060549
 97
        1
330
CE
 75
     0
 76
     1
 98
        1
 10
0.0
 20
0.0
450
        0
451
        0
460
0.0
461
0.0
452
        0
462
0.0
453
        0
470

  0
ENDBLK
  5
CC
330
C9
100
AcDbEntity
  8
0
100
AcDbBlockEnd
  0
BLOCK
  5
D2
330
D0
100
AcDbEntity
  8
0
100
AcDbBlockBegin
  2
Block_12
 70
     0
 10
0.0
 20
0.0
 30
0.0
  3
Block_12
  1

  0
LINE
  5
D4
330
D0
100
AcDbEntity
  8
Livello 1
 62
    18
420
        0
370
     9
100
AcDbLine
 10
17.24883335277593
 20
-14.39681213844702
 30
0.0
 11
17.24883335277593
 21
-14.44039970815029
 31
0.0
  0
LWPOLYLINE
  5
D5
330
D0
100
AcDbEntity
  8
Livello 1
100
AcDbPolyline
 90
        3
 70
     1
 43
0.0
 10
17.2497104358474
 20
-14.69711248083369
 10
17.16473307928464
 20
-14.44221552808652
 10
17.33293362626722
 20
-14.44221552808652
  0
HATCH
  5
D6
330
D0
100
AcDbEntity
  8
Livello 1
 62
    18
420
        0
440
 33554687
100
AcDbHatch
 10
0.0
 20
0.0
 30
0.0
210
0.0
220
0.0
230
1.0
  2
SOLID
 70
     1
 71
     1
 91
        1
 92
        1
 93
        3
 72
     1
 10
17.2497104358474
 20
-14.69711248083369
 11
17.16473307928464
 21
-14.44221552808652
 72
     1
 10
17.16473307928464
 20
-14.44221552808652
 11
17.33293362626722
 21
-14.44221552808652
 72
     1
 10
17.33293362626722
 20
-14.44221552808652
 11
17.2497104358474
 21
-14.69711248083369
 97
        1
330
D5
 75
     0
 76
     1
 98
        1
 10
0.0
 20
0.0
450
        0
451
        0
460
0.0
461
0.0
452
        0
462
0.0
453
        0
470

  0
ENDBLK
  5
D3
330
D0
100
AcDbEntity
  8
0
100
AcDbBlockEnd
  0
ENDSEC
  0
SECTION
  2
ENTITIES
  0
LINE
  5
D7
330
70
100
AcDbEntity
  8
Livello 1
370
     9
100
AcDbLine
 10
4.93216152399418
 20
-14.3786766996519
 30
0.0
 11
4.850095774110468
 21
-14.51814841863768
 31
0.0
  0
LINE
  5
D8
330
70
100
AcDbEntity
  8
Livello 1
370
     9
100
AcDbLine
 10
15.63278442911383
 20
-14.3786766996519
 30
0.0
 11
4.93216152399418
 21
-14.3786766996519
 31
0.0
  0
LINE
  5
D9
330
70
100
AcDbEntity
  8
Livello 1
370
     9
100
AcDbLine
 10
11.22199957922159
 20
-14.3786766996519
 30
0.0
 11
11.21090407370328
 21
-14.3786766996519
 31
0.0
  0
LINE
  5
DA
330
70
100
AcDbEntity
  8
Livello 1
370
     9
100
AcDbLine
 10
11.05933071116396
 20
-14.3786766996519
 30
0.0
 11
11.04404417823767
 21
-14.3786766996519
 31
0.0
  0
LINE
  5
DB
330
70
100
AcDbEntity
  8
Livello 1
370
     9
100
AcDbLine
 10
11.00747715640714
 20
-14.3786766996519
 30
0.0
 11
10.98036723108511
 21
-14.3786766996519
 31
0.0
  0
LINE
  5
DC
330
70
100
AcDbEntity
  8
Livello 1
370
     9
100
AcDbLine
 10
10.68705023851834
 20
-14.3786766996519
 30
0.0
 11
10.62227399757055
 21
-14.3786766996519
 31
0.0
  0
LINE
  5
DD
330
70
100
AcDbEntity
  8
Livello 1
370
     9
100
AcDbLine
 10
15.63278442911383
 20
-14.3786766996519
 30
0.0
 11
15.71502718538283
 21
-14.51814841863768
 31
0.0
  0
LINE
  5
DE
330
70
100
AcDbEntity
  8
Livello 1
370
     9
100
AcDbLine
 10
14.16022172947475
 20
-14.51104953079677
 30
0.0
 11
14.16022172947475
 21
-14.51360214925929
 31
0.0
  0
LINE
  5
DF
330
70
100
AcDbEntity
  8
Livello 1
370
     9
100
AcDbLine
 10
14.16585798542658
 20
-14.50904656375508
 30
0.0
 11
14.20025442973884
 21
-14.50904656375508
 31
0.0
  0
SPLINE
  5
E0
330
70
100
AcDbEntity
  8
Livello 1
370
     9
100
AcDbSpline
210
0.0
220
0.0
230
1.0
 70
     8
 71
     3
 72
     8
 73
     4
 74
     0
 42
0.000000001
 43
0.0000000001
 40
0.0
 40
0.0
 40
0.0
 40
0.0
 40
1.0
 40
1.0
 40
1.0
 40
1.0
 10
14.16022172947475
 20
-14.51104953079677
 30
0.0
 10
14.16022172947475
 20
-14.51014586659647
 30
0.0
 10
14.16094838726686
 20
-14.50959621517584
 30
0.0
 10
14.16331468315398
 20
-14.50904656375508
 30
0.0
  0
LINE
  5
E1
330
70
100
AcDbEntity
  8
Livello 1
370
     9
100
AcDbLine
 10
14.38257101116649
 20
-14.50904656375508
 30
0.0
 11
14.42096145109418
 21
-14.50904656375508
 31
0.0
  0
SPLINE
  5
E2
330
70
100
AcDbEntity
  8
Livello 1
370
     9
100
AcDbSpline
210
0.0
220
0.0
230
1.0
 70
     8
 71
     3
 72
     8
 73
     4
 74
     0
 42
0.000000001
 43
0.0000000001
 40
0.0
 40
0.0
 40
0.0
 40
0.0
 40
1.0
 40
1.0
 40
1.0
 40
1.0
 10
14.42096145109418
 20
-14.50904656375508
 30
0.0
 10
14.42314142447052
 20
-14.50959621517584
 30
0.0
 10
14.42405440477354
 20
-14.51014586659647
 30
0.0
 10
14.42405440477354
 20
-14.51104953079677
 30
0.0
  0
SPLINE
  5
E3
330
70
100
AcDbEntity
  8
Livello 1
370
     9
100
AcDbSpline
210
0.0
220
0.0
230
1.0
 70
     8
 71
     3
 72
     8
 73
     4
 74
     0
 42
0.000000001
 43
0.0000000001
 40
0.0
 40
0.0
 40
0.0
 40
0.0
 40
1.0
 40
1.0
 40
1.0
 40
1.0
 10
14.37783710596856
 20
-14.50831990594455
 30
0.0
 10
14.3800170793449
 20
-14.50841306720231
 30
0.0
 10
14.3811163821587
 20
-14.50868323484971
 30
0.0
 10
14.38238468865096
 20
-14.50904656375508
 30
0.0
  0
LINE
  5
E4
330
70
100
AcDbEntity
  8
Livello 1
370
     9
100
AcDbLine
 10
10.28238447336137
 20
-14.51360214925929
 30
0.0
 11
4.138652269621457
 21
-14.51360214925929
 31
0.0
  0
SPLINE
  5
E5
330
70
100
AcDbEntity
  8
Livello 1
370
     9
100
AcDbSpline
210
0.0
220
0.0
230
1.0
 70
    24
 71
     3
 72
    26
 73
    22
 74
     0
 42
0.000000001
 43
0.0000000001
 40
0.0
 40
0.0
 40
0.0
 40
0.0
 40
1.0
 40
1.0
 40
1.0
 40
2.0
 40
2.0
 40
2.0
 40
3.0
 40
3.0
 40
3.0
 40
4.0
 40
4.0
 40
4.0
 40
5.0
 40
5.0
 40
5.0
 40
6.0
 40
6.0
 40
6.0
 40
7.0
 40
7.0
 40
7.0
 40
7.0
 10
16.42610841561614
 20
-14.51360214925929
 30
0.0
 10
16.42847471150339
 20
-14.51360214925929
 30
0.0
 10
16.42410681362205
 20
-14.51360214925929
 30
0.0
 10
16.42301546193678
 20
-14.51360214925929
 30
0.0
 10
16.41409992979481
 20
-14.51360214925929
 30
0.0
 10
16.40482243326658
 20
-14.51360214925929
 30
0.0
 10
16.39590553661474
 20
-14.51360214925929
 30
0.0
 10
16.35187752731166
 20
-14.51360214925929
 30
0.0
 10
16.30784156394313
 20
-14.51360214925929
 30
0.0
 10
16.2638028764545
 20
-14.51360214925929
 30
0.0
 10
16.06292857755653
 20
-14.51360214925929
 30
0.0
 10
15.86186795614764
 20
-14.51360214925929
 30
0.0
 10
15.66117066363488
 20
-14.51360214925929
 30
0.0
 10
15.40515421766426
 20
-14.51360214925929
 30
0.0
 10
15.14914708781932
 20
-14.51360214925929
 30
0.0
 10
14.89295363546348
 20
-14.51360214925929
 30
0.0
 10
14.38093005964779
 20
-14.51360214925929
 30
0.0
 10
13.86872947744702
 20
-14.51360214925929
 30
0.0
 10
13.35651957912055
 20
-14.51360214925929
 30
0.0
 10
12.33193209220809
 20
-14.51360214925929
 30
0.0
 10
11.30715828278473
 20
-14.51360214925929
 30
0.0
 10
10.28238447336137
 20
-14.51360214925929
 30
0.0
  0
LINE
  5
E6
330
70
100
AcDbEntity
  8
Livello 1
370
     9
100
AcDbLine
 10
16.08476557582272
 20
-14.51104953079677
 30
0.0
 11
16.08476557582272
 21
-14.51360214925929
 31
0.0
  0
LINE
  5
E7
330
70
100
AcDbEntity
  8
Livello 1
370
     9
100
AcDbLine
 10
15.82110990690927
 20
-14.51104953079677
 30
0.0
 11
15.82110990690927
 21
-14.51360214925929
 31
0.0
  0
SPLINE
  5
E8
330
70
100
AcDbEntity
  8
Livello 1
370
     9
100
AcDbSpline
210
0.0
220
0.0
230
1.0
 70
     8
 71
     3
 72
     8
 73
     4
 74
     0
 42
0.000000001
 43
0.0000000001
 40
0.0
 40
0.0
 40
0.0
 40
0.0
 40
1.0
 40
1.0
 40
1.0
 40
1.0
 10
15.86095497584475
 20
-14.50904656375508
 30
0.0
 10
15.86241760755454
 20
-14.50850622846001
 30
0.0
 10
15.86387092313877
 20
-14.50831990594455
 30
0.0
 10
15.86623721902602
 20
-14.50831990594455
 30
0.0
  0
LINE
  5
E9
330
70
100
AcDbEntity
  8
Livello 1
370
     9
100
AcDbLine
 10
10.40393317619923
 20
-14.50831990594455
 30
0.0
 11
10.37226645257335
 21
-14.50831990594455
 31
0.0
  0
LINE
  5
EA
330
70
100
AcDbEntity
  8
Livello 1
370
     9
100
AcDbLine
 10
10.36826051859103
 20
-14.50831990594455
 30
0.0
 11
10.19649911200618
 21
-14.50831990594455
 31
0.0
  0
LINE
  5
EB
330
70
100
AcDbEntity
  8
Livello 1
370
     9
100
AcDbLine
 10
10.19122618495041
 20
-14.50831990594455
 30
0.0
 11
10.16956619306942
 21
-14.50831990594455
 31
0.0
  0
SPLINE
  5
EC
330
70
100
AcDbEntity
  8
Livello 1
370
     9
100
AcDbSpline
210
0.0
220
0.0
230
1.0
 70
     8
 71
     3
 72
     8
 73
     4
 74
     0
 42
0.000000001
 43
0.0000000001
 40
0.0
 40
0.0
 40
0.0
 40
0.0
 40
1.0
 40
1.0
 40
1.0
 40
1.0
 10
10.15373809577658
 20
-14.50904656375508
 30
0.0
 10
10.15155932893933
 20
-14.50959621517584
 30
0.0
 10
10.15064514209725
 20
-14.51014586659647
 30
0.0
 10
10.15064514209725
 20
-14.51104953079677
 30
0.0
  0
SPLINE
  5
ED
330
70
100
AcDbEntity
  8
Livello 1
370
     9
100
AcDbSpline
210
0.0
220
0.0
230
1.0
 70
    24
 71
     3
 72
    17
 73
    13
 74
     0
 42
0.000000001
 43
0.0000000001
 40
0.0
 40
0.0
 40
0.0
 40
0.0
 40
1.0
 40
1.0
 40
1.0
 40
2.0
 40
2.0
 40
2.0
 40
3.0
 40
3.0
 40
3.0
 40
4.0
 40
4.0
 40
4.0
 40
4.0
 10
15.82401653807773
 20
-14.50904656375508
 30
0.0
 10
15.82110990690927
 20
-14.50904656375508
 30
0.0
 10
15.82710949175709
 20
-14.50904656375508
 30
0.0
 10
15.82874912985223
 20
-14.50904656375508
 30
0.0
 10
15.83020379543019
 20
-14.50904656375508
 30
0.0
 10
15.83184208353159
 20
-14.50904656375508
 30
0.0
 10
15.83330471524138
 20
-14.50904656375508
 30
0.0
 10
15.83621134640984
 20
-14.50904656375508
 30
0.0
 10
15.83966762898532
 20
-14.50904656375508
 30
0.0
 10
15.84258357627934
 20
-14.50904656375508
 30
0.0
 10
15.84858316112729
 20
-14.50904656375508
 30
0.0
 10
15.8549553909968
 20
-14.50904656375508
 30
0.0
 10
15.86095497584475
 20
-14.50904656375508
 30
0.0
  0
SPLINE
  5
EE
330
70
100
AcDbEntity
  8
Livello 1
370
     9
100
AcDbSpline
210
0.0
220
0.0
230
1.0
 70
     8
 71
     3
 72
     8
 73
     4
 74
     0
 42
0.000000001
 43
0.0000000001
 40
0.0
 40
0.0
 40
0.0
 40
0.0
 40
1.0
 40
1.0
 40
1.0
 40
1.0
 10
10.41447781739601
 20
-14.51104953079677
 30
0.0
 10
10.41447781739601
 20
-14.50904656375508
 30
0.0
 10
10.41138607681968
 20
-14.50831990594455
 30
0.0
 10
10.40393317619923
 20
-14.50831990594455
 30
0.0
  0
LINE
  5
EF
330
70
100
AcDbEntity
  8
Livello 1
370
     9
100
AcDbLine
 10
10.41447781739601
 20
-14.51104953079677
 30
0.0
 11
10.41447781739601
 21
-14.51360214925929
 31
0.0
  0
LINE
  5
F0
330
70
100
AcDbEntity
  8
Livello 1
370
     9
100
AcDbLine
 10
10.15064514209725
 20
-14.51360214925929
 30
0.0
 11
10.15064514209725
 21
-14.51104953079677
 31
0.0
  0
LINE
  5
F1
330
70
100
AcDbEntity
  8
Livello 1
370
     9
100
AcDbLine
 10
6.358693247339155
 20
-14.50831990594455
 30
0.0
 11
6.187108847139555
 21
-14.50831990594455
 31
0.0
  0
LINE
  5
F2
330
70
100
AcDbEntity
  8
Livello 1
370
     9
100
AcDbLine
 10
6.183102913157266
 20
-14.50831990594455
 30
0.0
 11
6.154176343354884
 21
-14.50831990594455
 31
0.0
  0
SPLINE
  5
F3
330
70
100
AcDbEntity
  8
Livello 1
370
     9
100
AcDbSpline
210
0.0
220
0.0
230
1.0
 70
     8
 71
     3
 72
     8
 73
     4
 74
     0
 42
0.000000001
 43
0.0000000001
 40
0.0
 40
0.0
 40
0.0
 40
0.0
 40
1.0
 40
1.0
 40
1.0
 40
1.0
 10
15.82110990690927
 20
-14.51104953079677
 30
0.0
 10
15.82110990690927
 20
-14.51014586659647
 30
0.0
 10
15.82202288721216
 20
-14.50959621517584
 30
0.0
 10
15.82401653807773
 20
-14.50904656375508
 30
0.0
  0
LINE
  5
F4
330
70
100
AcDbEntity
  8
Livello 1
370
     9
100
AcDbLine
 10
16.04473418437646
 20
-14.50904656375508
 30
0.0
 11
16.0818496285287
 21
-14.50904656375508
 31
0.0
  0
SPLINE
  5
F5
330
70
100
AcDbEntity
  8
Livello 1
370
     9
100
AcDbSpline
210
0.0
220
0.0
230
1.0
 70
    24
 71
     3
 72
    20
 73
    16
 74
     0
 42
0.000000001
 43
0.0000000001
 40
0.0
 40
0.0
 40
0.0
 40
0.0
 40
1.0
 40
1.0
 40
1.0
 40
2.0
 40
2.0
 40
2.0
 40
3.0
 40
3.0
 40
3.0
 40
4.0
 40
4.0
 40
4.0
 40
5.0
 40
5.0
 40
5.0
 40
5.0
 10
6.391625751123827
 20
-14.50831990594455
 30
0.0
 10
6.392538731426752
 20
-14.50831990594455
 30
0.0
 10
6.393442395604176
 20
-14.50831990594455
 30
0.0
 10
6.39416905339629
 20
-14.50831990594455
 30
0.0
 10
6.395631685106115
 20
-14.50831990594455
 30
0.0
 10
6.39271573781203
 20
-14.50831990594455
 30
0.0
 10
6.392175402530694
 20
-14.50831990594455
 30
0.0
 10
6.390535764435623
 20
-14.50831990594455
 30
0.0
 10
6.388896126340552
 20
-14.50831990594455
 30
0.0
 10
6.387256488245449
 20
-14.50831990594455
 30
0.0
 10
6.384163534566117
 20
-14.50831990594455
 30
0.0
 10
6.380893574501539
 20
-14.50831990594455
 30
0.0
 10
6.377800620822143
 20
-14.50831990594455
 30
0.0
 10
6.371428390952636
 20
-14.50831990594455
 30
0.0
 10
6.365056161083161
 20
-14.50831990594455
 30
0.0
 10
6.358693247339155
 20
-14.50831990594455
 30
0.0
  0
SPLINE
  5
F6
330
70
100
AcDbEntity
  8
Livello 1
370
     9
100
AcDbSpline
210
0.0
220
0.0
230
1.0
 70
     8
 71
     3
 72
     8
 73
     4
 74
     0
 42
0.000000001
 43
0.0000000001
 40
0.0
 40
0.0
 40
0.0
 40
0.0
 40
1.0
 40
1.0
 40
1.0
 40
1.0
 10
16.03872528340308
 20
-14.50831990594455
 30
0.0
 10
16.04091457290499
 20
-14.50841306720231
 30
0.0
 10
16.04200455959322
 20
-14.50868323484971
 30
0.0
 10
16.04328086879224
 20
-14.50904656375508
 30
0.0
  0
SPLINE
  5
F7
330
70
100
AcDbEntity
  8
Livello 1
370
     9
100
AcDbSpline
210
0.0
220
0.0
230
1.0
 70
     8
 71
     3
 72
     8
 73
     4
 74
     0
 42
0.000000001
 43
0.0000000001
 40
0.0
 40
0.0
 40
0.0
 40
0.0
 40
1.0
 40
1.0
 40
1.0
 40
1.0
 10
16.08167262214336
 20
-14.50904656375508
 30
0.0
 10
16.08385259551983
 20
-14.50959621517584
 30
0.0
 10
16.08476557582272
 20
-14.51014586659647
 30
0.0
 10
16.08476557582272
 20
-14.51104953079677
 30
0.0
  0
LINE
  5
F8
330
70
100
AcDbEntity
  8
Livello 1
370
     9
100
AcDbLine
 10
4.612097781535293
 20
-14.50831990594455
 30
0.0
 11
4.492738514513493
 21
-14.50831990594455
 31
0.0
  0
LINE
  5
F9
330
70
100
AcDbEntity
  8
Livello 1
370
     9
100
AcDbLine
 10
4.480181440553327
 20
-14.51104953079677
 30
0.0
 11
4.480181440553327
 21
-14.51360214925929
 31
0.0
  0
LINE
  5
FA
330
70
100
AcDbEntity
  8
Livello 1
370
     9
100
AcDbLine
 10
4.744014122517131
 20
-14.51104953079677
 30
0.0
 11
4.744014122517131
 21
-14.51360214925929
 31
0.0
  0
SPLINE
  5
FB
330
70
100
AcDbEntity
  8
Livello 1
370
     9
100
AcDbSpline
210
0.0
220
0.0
230
1.0
 70
    24
 71
     3
 72
    20
 73
    16
 74
     0
 42
0.000000001
 43
0.0000000001
 40
0.0
 40
0.0
 40
0.0
 40
0.0
 40
1.0
 40
1.0
 40
1.0
 40
2.0
 40
2.0
 40
2.0
 40
3.0
 40
3.0
 40
3.0
 40
4.0
 40
4.0
 40
4.0
 40
5.0
 40
5.0
 40
5.0
 40
5.0
 10
4.731277908970607
 20
-14.50831990594455
 30
0.0
 10
4.731641237866664
 20
-14.50831990594455
 30
0.0
 10
4.732917547065678
 20
-14.50831990594455
 30
0.0
 10
4.732368965297634
 20
-14.50831990594455
 30
0.0
 10
4.728184955291244
 20
-14.50831990594455
 30
0.0
 10
4.724188337434487
 20
-14.50831990594455
 30
0.0
 10
4.719996080941387
 20
-14.50831990594455
 30
0.0
 10
4.714900160270895
 20
-14.50831990594455
 30
0.0
 10
4.709627233215156
 20
-14.50831990594455
 30
0.0
 10
4.704717635055443
 20
-14.50831990594455
 30
0.0
 10
4.694339471203647
 20
-14.50831990594455
 30
0.0
 10
4.683970623477384
 20
-14.50831990594455
 30
0.0
 10
4.6737787821364
 20
-14.50831990594455
 30
0.0
 10
4.653218093069152
 20
-14.50831990594455
 30
0.0
 10
4.632657404001904
 20
-14.50831990594455
 30
0.0
 10
4.612097781535293
 20
-14.50831990594455
 30
0.0
  0
LINE
  5
FC
330
70
100
AcDbEntity
  8
Livello 1
370
     9
100
AcDbLine
 10
4.703990977263329
 20
-14.50904656375508
 30
0.0
 11
4.740743092519445
 21
-14.50904656375508
 31
0.0
  0
SPLINE
  5
FD
330
70
100
AcDbEntity
  8
Livello 1
370
     9
100
AcDbSpline
210
0.0
220
0.0
230
1.0
 70
     8
 71
     3
 72
     8
 73
     4
 74
     0
 42
0.000000001
 43
0.0000000001
 40
0.0
 40
0.0
 40
0.0
 40
0.0
 40
1.0
 40
1.0
 40
1.0
 40
1.0
 10
4.697982076289911
 20
-14.50831990594455
 30
0.0
 10
4.699985043281039
 20
-14.50841306720231
 30
0.0
 10
4.701261352480021
 20
-14.50868323484971
 30
0.0
 10
4.702351339168225
 20
-14.50904656375508
 30
0.0
  0
SPLINE
  5
FE
330
70
100
AcDbEntity
  8
Livello 1
370
     9
100
AcDbSpline
210
0.0
220
0.0
230
1.0
 70
    24
 71
     3
 72
    20
 73
    16
 74
     0
 42
0.000000001
 43
0.0000000001
 40
0.0
 40
0.0
 40
0.0
 40
0.0
 40
1.0
 40
1.0
 40
1.0
 40
2.0
 40
2.0
 40
2.0
 40
3.0
 40
3.0
 40
3.0
 40
4.0
 40
4.0
 40
4.0
 40
5.0
 40
5.0
 40
5.0
 40
5.0
 10
16.07220743859449
 20
-14.50831990594455
 30
0.0
 10
16.07257076749061
 20
-14.50831990594455
 30
0.0
 10
16.07384707668963
 20
-14.50831990594455
 30
0.0
 10
16.07312041889751
 20
-14.50831990594455
 30
0.0
 10
16.06911448491526
 20
-14.50831990594455
 30
0.0
 10
16.06493154454765
 20
-14.50831990594455
 30
0.0
 10
16.06074860418006
 20
-14.50831990594455
 30
0.0
 10
16.05565403919876
 20
-14.50831990594455
 30
0.0
 10
16.05055676283907
 20
-14.50831990594455
 30
0.0
 10
16.04546084216858
 20
-14.50831990594455
 30
0.0
 10
16.0352690008276
 20
-14.50831990594455
 30
0.0
 10
16.0249001531014
 20
-14.50831990594455
 30
0.0
 10
16.01470831176041
 20
-14.50831990594455
 30
0.0
 10
15.99397061630789
 20
-14.50831990594455
 30
0.0
 10
15.97340992724057
 20
-14.50831990594455
 30
0.0
 10
15.95284923817339
 20
-14.50831990594455
 30
0.0
  0
SPLINE
  5
FF
330
70
100
AcDbEntity
  8
Livello 1
370
     9
100
AcDbSpline
210
0.0
220
0.0
230
1.0
 70
     8
 71
     3
 72
     8
 73
     4
 74
     0
 42
0.000000001
 43
0.0000000001
 40
0.0
 40
0.0
 40
0.0
 40
0.0
 40
1.0
 40
1.0
 40
1.0
 40
1.0
 10
4.740743092519445
 20
-14.50904656375508
 30
0.0
 10
4.743109388406663
 20
-14.50959621517584
 30
0.0
 10
4.744014122517131
 20
-14.51014586659647
 30
0.0
 10
4.744014122517131
 20
-14.51104953079677
 30
0.0
  0
SPLINE
  5
100
330
70
100
AcDbEntity
  8
Livello 1
370
     9
100
AcDbSpline
210
0.0
220
0.0
230
1.0
 70
     8
 71
     3
 72
     8
 73
     4
 74
     0
 42
0.000000001
 43
0.0000000001
 40
0.0
 40
0.0
 40
0.0
 40
0.0
 40
1.0
 40
1.0
 40
1.0
 40
1.0
 10
4.520211768731551
 20
-14.50904656375508
 30
0.0
 10
4.521488077930564
 20
-14.50850622846001
 30
0.0
 10
4.522942457863194
 20
-14.50831990594455
 30
0.0
 10
4.525484695787321
 20
-14.50831990594455
 30
0.0
  0
LINE
  5
101
330
70
100
AcDbEntity
  8
Livello 1
370
     9
100
AcDbLine
 10
15.95284923817339
 20
-14.50831990594455
 30
0.0
 11
15.8334817216266
 21
-14.50831990594455
 31
0.0
  0
SPLINE
  5
102
330
70
100
AcDbEntity
  8
Livello 1
370
     9
100
AcDbSpline
210
0.0
220
0.0
230
1.0
 70
    24
 71
     3
 72
    17
 73
    13
 74
     0
 42
0.000000001
 43
0.0000000001
 40
0.0
 40
0.0
 40
0.0
 40
0.0
 40
1.0
 40
1.0
 40
1.0
 40
2.0
 40
2.0
 40
2.0
 40
3.0
 40
3.0
 40
3.0
 40
4.0
 40
4.0
 40
4.0
 40
4.0
 10
4.483273330964623
 20
-14.50904656375508
 30
0.0
 10
4.480181440553327
 20
-14.50904656375508
 30
0.0
 10
4.486366284643954
 20
-14.50904656375508
 30
0.0
 10
4.487820663689338
 20
-14.50904656375508
 30
0.0
 10
4.489459238323318
 20
-14.50904656375508
 30
0.0
 10
4.490921870033111
 20
-14.50904656375508
 30
0.0
 10
4.49255219200265
 20
-14.50904656375508
 30
0.0
 10
4.495468139296735
 20
-14.50904656375508
 30
0.0
 10
4.4985610929761
 20
-14.50904656375508
 30
0.0
 10
4.501654046655463
 20
-14.50904656375508
 30
0.0
 10
4.508016960399405
 20
-14.50904656375508
 30
0.0
 10
4.514025861372854
 20
-14.50904656375508
 30
0.0
 10
4.520211768731551
 20
-14.50904656375508
 30
0.0
  0
SPLINE
  5
103
330
70
100
AcDbEntity
  8
Livello 1
370
     9
100
AcDbSpline
210
0.0
220
0.0
230
1.0
 70
     8
 71
     3
 72
     8
 73
     4
 74
     0
 42
0.000000001
 43
0.0000000001
 40
0.0
 40
0.0
 40
0.0
 40
0.0
 40
1.0
 40
1.0
 40
1.0
 40
1.0
 10
4.480181440553327
 20
-14.51104953079677
 30
0.0
 10
4.480181440553327
 20
-14.51014586659647
 30
0.0
 10
4.481093357588216
 20
-14.50959621517584
 30
0.0
 10
4.483273330964623
 20
-14.50904656375508
 30
0.0
  0
SPLINE
  5
104
330
70
100
AcDbEntity
  8
Livello 1
370
     9
100
AcDbSpline
210
0.0
220
0.0
230
1.0
 70
    24
 71
     3
 72
    20
 73
    16
 74
     0
 42
0.000000001
 43
0.0000000001
 40
0.0
 40
0.0
 40
0.0
 40
0.0
 40
1.0
 40
1.0
 40
1.0
 40
2.0
 40
2.0
 40
2.0
 40
3.0
 40
3.0
 40
3.0
 40
4.0
 40
4.0
 40
4.0
 40
5.0
 40
5.0
 40
5.0
 40
5.0
 10
14.4107696097532
 20
-14.50831990594455
 30
0.0
 10
14.41168259005609
 20
-14.50831990594455
 30
0.0
 10
14.4124092478482
 20
-14.50831990594455
 30
0.0
 10
14.4135005487412
 20
-14.50831990594455
 30
0.0
 10
14.41458922122467
 20
-14.50831990594455
 30
0.0
 10
14.41222292533742
 20
-14.50831990594455
 30
0.0
 10
14.41168259005609
 20
-14.50831990594455
 30
0.0
 10
14.41040628085707
 20
-14.50831990594455
 30
0.0
 10
14.40876664276207
 20
-14.50831990594455
 30
0.0
 10
14.40731332717771
 20
-14.50831990594455
 30
0.0
 10
14.40458370239447
 20
-14.50831990594455
 30
0.0
 10
14.40167707122588
 20
-14.50831990594455
 30
0.0
 10
14.39894744644264
 20
-14.50831990594455
 30
0.0
 10
14.39330187436525
 20
-14.50831990594455
 30
0.0
 10
14.38766561841342
 20
-14.50831990594455
 30
0.0
 10
14.38202004633603
 20
-14.50831990594455
 30
0.0
  0
LINE
  5
105
330
70
100
AcDbEntity
  8
Livello 1
370
     9
100
AcDbLine
 10
14.37783710596856
 20
-14.50831990594455
 30
0.0
 11
14.20625270576883
 21
-14.50831990594455
 31
0.0
  0
LINE
  5
106
330
70
100
AcDbEntity
  8
Livello 1
370
     9
100
AcDbLine
 10
6.140891548334567
 20
-14.51104953079677
 30
0.0
 11
6.140891548334567
 21
-14.51360214925929
 31
0.0
  0
LINE
  5
107
330
70
100
AcDbEntity
  8
Livello 1
370
     9
100
AcDbLine
 10
6.404724223633365
 20
-14.51104953079677
 30
0.0
 11
6.404724223633365
 21
-14.51360214925929
 31
0.0
  0
LINE
  5
108
330
70
100
AcDbEntity
  8
Livello 1
370
     9
100
AcDbLine
 10
14.200616449817
 20
-14.50831990594455
 30
0.0
 11
14.17332020198419
 21
-14.50831990594455
 31
0.0
  0
SPLINE
  5
109
330
70
100
AcDbEntity
  8
Livello 1
370
     9
100
AcDbSpline
210
0.0
220
0.0
230
1.0
 70
     8
 71
     3
 72
     8
 73
     4
 74
     0
 42
0.000000001
 43
0.0000000001
 40
0.0
 40
0.0
 40
0.0
 40
0.0
 40
1.0
 40
1.0
 40
1.0
 40
1.0
 10
6.40181870427754
 20
-14.50904656375508
 30
0.0
 10
6.403997565841218
 20
-14.50959621517584
 30
0.0
 10
6.404724223633365
 20
-14.51014586659647
 30
0.0
 10
6.404724223633365
 20
-14.51104953079677
 30
0.0
  0
LINE
  5
10A
330
70
100
AcDbEntity
  8
Livello 1
370
     9
100
AcDbLine
 10
6.364152496905737
 20
-14.50904656375508
 30
0.0
 11
6.398901645170726
 21
-14.50904656375508
 31
0.0
  0
SPLINE
  5
10B
330
70
100
AcDbEntity
  8
Livello 1
370
     9
100
AcDbSpline
210
0.0
220
0.0
230
1.0
 70
     8
 71
     3
 72
     8
 73
     4
 74
     0
 42
0.000000001
 43
0.0000000001
 40
0.0
 40
0.0
 40
0.0
 40
0.0
 40
1.0
 40
1.0
 40
1.0
 40
1.0
 10
4.137197899396803
 20
-14.51360214925929
 30
0.0
 10
4.129735682839093
 20
-14.51360214925929
 30
0.0
 10
4.126642729159762
 20
-14.51432880706969
 30
0.0
 10
4.126642729159762
 20
-14.51614545159599
 30
0.0
  0
SPLINE
  5
10C
330
70
100
AcDbEntity
  8
Livello 1
370
     9
100
AcDbSpline
210
0.0
220
0.0
230
1.0
 70
     8
 71
     3
 72
     8
 73
     4
 74
     0
 42
0.000000001
 43
0.0000000001
 40
0.0
 40
0.0
 40
0.0
 40
0.0
 40
1.0
 40
1.0
 40
1.0
 40
1.0
 10
16.42774805371115
 20
-14.51360214925929
 30
0.0
 10
16.43538727665423
 20
-14.51360214925929
 30
0.0
 10
16.43830322394826
 20
-14.51432880706969
 30
0.0
 10
16.43830322394826
 20
-14.51614545159599
 30
0.0
  0
LINE
  5
10D
330
70
100
AcDbEntity
  8
Livello 1
370
     9
100
AcDbLine
 10
10.15373809577658
 20
-14.50904656375508
 30
0.0
 11
10.19067653354354
 21
-14.50904656375508
 31
0.0
  0
SPLINE
  5
10E
330
70
100
AcDbEntity
  8
Livello 1
370
     9
100
AcDbSpline
210
0.0
220
0.0
230
1.0
 70
     8
 71
     3
 72
     8
 73
     4
 74
     0
 42
0.000000001
 43
0.0000000001
 40
0.0
 40
0.0
 40
0.0
 40
0.0
 40
1.0
 40
1.0
 40
1.0
 40
1.0
 10
10.36826051859103
 20
-14.50831990594455
 30
0.0
 10
10.370449808093
 20
-14.50841306720231
 30
0.0
 10
10.37153979478117
 20
-14.50859938971777
 30
0.0
 10
10.37263099359326
 20
-14.50904656375508
 30
0.0
  0
LINE
  5
10F
330
70
100
AcDbEntity
  8
Livello 1
370
     9
100
AcDbLine
 10
10.37281731610885
 20
-14.50904656375508
 30
0.0
 11
10.41138607681968
 21
-14.50904656375508
 31
0.0
  0
SPLINE
  5
110
330
70
100
AcDbEntity
  8
Livello 1
370
     9
100
AcDbSpline
210
0.0
220
0.0
230
1.0
 70
     8
 71
     3
 72
     8
 73
     4
 74
     0
 42
0.000000001
 43
0.0000000001
 40
0.0
 40
0.0
 40
0.0
 40
0.0
 40
1.0
 40
1.0
 40
1.0
 40
1.0
 10
10.19067653354354
 20
-14.50904656375508
 30
0.0
 10
10.1921298491278
 20
-14.50850622846001
 30
0.0
 10
10.19340615832681
 20
-14.50831990594455
 30
0.0
 10
10.19594946059931
 20
-14.50831990594455
 30
0.0
  0
SPLINE
  5
111
330
70
100
AcDbEntity
  8
Livello 1
370
     9
100
AcDbSpline
210
0.0
220
0.0
230
1.0
 70
     8
 71
     3
 72
     8
 73
     4
 74
     0
 42
0.000000001
 43
0.0000000001
 40
0.0
 40
0.0
 40
0.0
 40
0.0
 40
1.0
 40
1.0
 40
1.0
 40
1.0
 10
6.140891548334567
 20
-14.51104953079677
 30
0.0
 10
6.140891548334567
 20
-14.51014586659647
 30
0.0
 10
6.141981535022771
 20
-14.50959621517584
 30
0.0
 10
6.143984502013899
 20
-14.50904656375508
 30
0.0
  0
SPLINE
  5
112
330
70
100
AcDbEntity
  8
Livello 1
370
     9
100
AcDbSpline
210
0.0
220
0.0
230
1.0
 70
    24
 71
     3
 72
    17
 73
    13
 74
     0
 42
0.000000001
 43
0.0000000001
 40
0.0
 40
0.0
 40
0.0
 40
0.0
 40
1.0
 40
1.0
 40
1.0
 40
2.0
 40
2.0
 40
2.0
 40
3.0
 40
3.0
 40
3.0
 40
4.0
 40
4.0
 40
4.0
 40
4.0
 10
6.143984502013899
 20
-14.50904656375508
 30
0.0
 10
6.141068554719813
 20
-14.50904656375508
 30
0.0
 10
6.147077455693263
 20
-14.50904656375508
 30
0.0
 10
6.148717093788334
 20
-14.50904656375508
 30
0.0
 10
6.150356731883405
 20
-14.50904656375508
 30
0.0
 10
6.151810047467698
 20
-14.50904656375508
 30
0.0
 10
6.153450791101254
 20
-14.50904656375508
 30
0.0
 10
6.15635631673129
 20
-14.50904656375508
 30
0.0
 10
6.159449270410655
 20
-14.50904656375508
 30
0.0
 10
6.162542224090018
 20
-14.50904656375508
 30
0.0
 10
6.168729237373052
 20
-14.50904656375508
 30
0.0
 10
6.174914038807409
 20
-14.50904656375508
 30
0.0
 10
6.181099946166106
 20
-14.50904656375508
 30
0.0
  0
SPLINE
  5
113
330
70
100
AcDbEntity
  8
Livello 1
370
     9
100
AcDbSpline
210
0.0
220
0.0
230
1.0
 70
     8
 71
     3
 72
     8
 73
     4
 74
     0
 42
0.000000001
 43
0.0000000001
 40
0.0
 40
0.0
 40
0.0
 40
0.0
 40
1.0
 40
1.0
 40
1.0
 40
1.0
 10
6.181649597572973
 20
-14.50886955736531
 30
0.0
 10
6.182925906771988
 20
-14.50850622846001
 30
0.0
 10
6.184380328676129
 20
-14.50831990594455
 30
0.0
 10
6.186382189347408
 20
-14.50831990594455
 30
0.0
  0
LINE
  5
114
330
70
100
AcDbEntity
  8
Livello 1
370
     9
100
AcDbLine
 10
14.42405440477354
 20
-14.51104953079677
 30
0.0
 11
14.42405440477354
 21
-14.51360214925929
 31
0.0
  0
LINE
  5
115
330
70
100
AcDbEntity
  8
Livello 1
370
     9
100
AcDbLine
 10
14.19879048921121
 20
-14.51104953079677
 30
0.0
 11
14.16295135425799
 21
-14.51104953079677
 31
0.0
  0
SPLINE
  5
116
330
70
100
AcDbEntity
  8
Livello 1
370
     9
100
AcDbSpline
210
0.0
220
0.0
230
1.0
 70
    24
 71
     3
 72
    23
 73
    19
 74
     0
 42
0.000000001
 43
0.0000000001
 40
0.0
 40
0.0
 40
0.0
 40
0.0
 40
1.0
 40
1.0
 40
1.0
 40
2.0
 40
2.0
 40
2.0
 40
3.0
 40
3.0
 40
3.0
 40
4.0
 40
4.0
 40
4.0
 40
5.0
 40
5.0
 40
5.0
 40
6.0
 40
6.0
 40
6.0
 40
6.0
 10
14.42132609439284
 20
-14.51104953079677
 30
0.0
 10
14.42205143778229
 20
-14.51104953079677
 30
0.0
 10
14.42587104925389
 20
-14.51104953079677
 30
0.0
 10
14.42405440477354
 20
-14.51104953079677
 30
0.0
 10
14.42296441808531
 20
-14.51104953079677
 30
0.0
 10
14.42187443139707
 20
-14.51104953079677
 30
0.0
 10
14.4207751285834
 20
-14.51104953079677
 30
0.0
 10
14.41332222815122
 20
-14.51104953079677
 30
0.0
 10
14.40567500308983
 20
-14.51104953079677
 30
0.0
 10
14.39839779503574
 20
-14.51104953079677
 30
0.0
 10
14.38875560510165
 20
-14.51104953079677
 30
0.0
 10
14.37929042155279
 20
-14.51104953079677
 30
0.0
 10
14.36983455412948
 20
-14.51104953079677
 30
0.0
 10
14.35090418703174
 20
-14.51104953079677
 30
0.0
 10
14.33180612967435
 20
-14.51104953079677
 30
0.0
 10
14.31287576257661
 20
-14.51104953079677
 30
0.0
 10
14.27484733812147
 20
-14.51104953079677
 30
0.0
 10
14.23681891366634
 20
-14.51104953079677
 30
0.0
 10
14.19879048921121
 20
-14.51104953079677
 30
0.0
  0
SPLINE
  5
117
330
70
100
AcDbEntity
  8
Livello 1
370
     9
100
AcDbSpline
210
0.0
220
0.0
230
1.0
 70
     8
 71
     3
 72
     8
 73
     4
 74
     0
 42
0.000000001
 43
0.0000000001
 40
0.0
 40
0.0
 40
0.0
 40
0.0
 40
1.0
 40
1.0
 40
1.0
 40
1.0
 10
14.20625270576883
 20
-14.50831990594455
 30
0.0
 10
14.20006810722331
 20
-14.50859938971777
 30
0.0
 10
14.19788682503376
 20
-14.50940989266031
 30
0.0
 10
14.19879048921121
 20
-14.51104953079677
 30
0.0
  0
LINE
  5
118
330
70
100
AcDbEntity
  8
Livello 1
370
     9
100
AcDbLine
 10
15.95284923817339
 20
-14.51360214925929
 30
0.0
 11
15.95284923817339
 21
-14.51104953079677
 31
0.0
  0
LINE
  5
119
330
70
100
AcDbEntity
  8
Livello 1
370
     9
100
AcDbLine
 10
15.95284923817339
 20
-14.51104953079677
 30
0.0
 11
15.8231128739004
 21
-14.51104953079677
 31
0.0
  0
LINE
  5
11B
330
70
100
AcDbEntity
  8
Livello 1
370
     9
100
AcDbLine
 10
15.95284923817339
 20
-14.50831990594455
 30
0.0
 11
15.95284923817339
 21
-14.51104953079677
 31
0.0
  0
LINE
  5
11C
330
70
100
AcDbEntity
  8
Livello 1
370
     9
100
AcDbLine
 10
4.612097781535293
 20
-14.51104953079677
 30
0.0
 11
4.612097781535293
 21
-14.51360214925929
 31
0.0
  0
SPLINE
  5
11D
330
70
100
AcDbEntity
  8
Livello 1
370
     9
100
AcDbSpline
210
0.0
220
0.0
230
1.0
 70
    24
 71
     3
 72
    20
 73
    16
 74
     0
 42
0.000000001
 43
0.0000000001
 40
0.0
 40
0.0
 40
0.0
 40
0.0
 40
1.0
 40
1.0
 40
1.0
 40
2.0
 40
2.0
 40
2.0
 40
3.0
 40
3.0
 40
3.0
 40
4.0
 40
4.0
 40
4.0
 40
5.0
 40
5.0
 40
5.0
 40
5.0
 10
4.741833079207649
 20
-14.51104953079677
 30
0.0
 10
4.74201940171846
 20
-14.51104953079677
 30
0.0
 10
4.74347271730272
 20
-14.51104953079677
 30
0.0
 10
4.742746059510606
 20
-14.51104953079677
 30
0.0
 10
4.738190474121417
 20
-14.51104953079677
 30
0.0
 10
4.733830527368604
 20
-14.51104953079677
 30
0.0
 10
4.729461264490257
 20
-14.51104953079677
 30
0.0
 10
4.72382500853843
 20
-14.51104953079677
 30
0.0
 10
4.718179436461038
 20
-14.51104953079677
 30
0.0
 10
4.712720186894488
 20
-14.51104953079677
 30
0.0
 10
4.701439427722791
 20
-14.51104953079677
 30
0.0
 10
4.690342853346891
 20
-14.51104953079677
 30
0.0
 10
4.679061025317703
 20
-14.51104953079677
 30
0.0
 10
4.656860698155384
 20
-14.51104953079677
 30
0.0
 10
4.634297042096976
 20
-14.51104953079677
 30
0.0
 10
4.612097781535293
 20
-14.51104953079677
 30
0.0
  0
LINE
  5
11E
330
70
100
AcDbEntity
  8
Livello 1
370
     9
100
AcDbLine
 10
4.612097781535293
 20
-14.51104953079677
 30
0.0
 11
4.612097781535293
 21
-14.50831990594455
 31
0.0
  0
LINE
  5
11F
330
70
100
AcDbEntity
  8
Livello 1
370
     9
100
AcDbLine
 10
4.612097781535293
 20
-14.51104953079677
 30
0.0
 11
4.482369666787198
 21
-14.51104953079677
 31
0.0
  0
LINE
  5
120
330
70
100
AcDbEntity
  8
Livello 1
370
     9
100
AcDbLine
 10
6.366155463896865
 20
-14.51104953079677
 30
0.0
 11
6.366155463896865
 21
-14.51360214925929
 31
0.0
  0
SPLINE
  5
121
330
70
100
AcDbEntity
  8
Livello 1
370
     9
100
AcDbSpline
210
0.0
220
0.0
230
1.0
 70
    24
 71
     3
 72
    20
 73
    16
 74
     0
 42
0.000000001
 43
0.0000000001
 40
0.0
 40
0.0
 40
0.0
 40
0.0
 40
1.0
 40
1.0
 40
1.0
 40
2.0
 40
2.0
 40
2.0
 40
3.0
 40
3.0
 40
3.0
 40
4.0
 40
4.0
 40
4.0
 40
5.0
 40
5.0
 40
5.0
 40
5.0
 10
6.401994598850089
 20
-14.51104953079677
 30
0.0
 10
6.402907579153015
 20
-14.51104953079677
 30
0.0
 10
6.403820559455971
 20
-14.51104953079677
 30
0.0
 10
6.404724223633365
 20
-14.51104953079677
 30
0.0
 10
6.406363861728435
 20
-14.51104953079677
 30
0.0
 10
6.403270908049072
 20
-14.51104953079677
 30
0.0
 10
6.402357927746146
 20
-14.51104953079677
 30
0.0
 10
6.400727605776608
 20
-14.51104953079677
 30
0.0
 10
6.399087967681537
 20
-14.51104953079677
 30
0.0
 10
6.397262007075687
 20
-14.51104953079677
 30
0.0
 10
6.393806836110634
 20
-14.51104953079677
 30
0.0
 10
6.390349441924812
 20
-14.51104953079677
 30
0.0
 10
6.386893159349392
 20
-14.51104953079677
 30
0.0
 10
6.379980594198549
 20
-14.51104953079677
 30
0.0
 10
6.373245035432954
 20
-14.51104953079677
 30
0.0
 10
6.366155463896865
 20
-14.51104953079677
 30
0.0
  0
SPLINE
  5
122
330
70
100
AcDbEntity
  8
Livello 1
370
     9
100
AcDbSpline
210
0.0
220
0.0
230
1.0
 70
     8
 71
     3
 72
     8
 73
     4
 74
     0
 42
0.000000001
 43
0.0000000001
 40
0.0
 40
0.0
 40
0.0
 40
0.0
 40
1.0
 40
1.0
 40
1.0
 40
1.0
 10
6.366155463896865
 20
-14.51104953079677
 30
0.0
 10
6.366883232619212
 20
-14.50940989266031
 30
0.0
 10
6.365056161083161
 20
-14.50859938971777
 30
0.0
 10
6.358693247339155
 20
-14.50831990594455
 30
0.0
  0
LINE
  5
123
330
70
100
AcDbEntity
  8
Livello 1
370
     9
100
AcDbLine
 10
6.366155463896865
 20
-14.51104953079677
 30
0.0
 11
6.143798179503056
 21
-14.51104953079677
 31
0.0
  0
LINE
  5
124
330
70
100
AcDbEntity
  8
Livello 1
370
     9
100
AcDbLine
 10
10.41447781739601
 20
-14.51104953079677
 30
0.0
 11
10.15064514209725
 21
-14.51104953079677
 31
0.0
  0
LINE
  5
125
330
70
100
AcDbEntity
  8
Livello 1
370
     9
100
AcDbLine
 10
10.28238447336137
 20
-14.51623861285382
 30
0.0
 11
10.28238447336137
 21
-14.51360214925929
 31
0.0
  0
LINE
  5
126
330
70
100
AcDbEntity
  8
Livello 1
370
     9
100
AcDbLine
 10
10.28238447336137
 20
-14.51623861285382
 30
0.0
 11
4.128096044744022
 21
-14.51623861285382
 31
0.0
  0
SPLINE
  5
127
330
70
100
AcDbEntity
  8
Livello 1
370
     9
100
AcDbSpline
210
0.0
220
0.0
230
1.0
 70
    24
 71
     3
 72
    26
 73
    22
 74
     0
 42
0.000000001
 43
0.0000000001
 40
0.0
 40
0.0
 40
0.0
 40
0.0
 40
1.0
 40
1.0
 40
1.0
 40
2.0
 40
2.0
 40
2.0
 40
3.0
 40
3.0
 40
3.0
 40
4.0
 40
4.0
 40
4.0
 40
5.0
 40
5.0
 40
5.0
 40
6.0
 40
6.0
 40
6.0
 40
7.0
 40
7.0
 40
7.0
 40
7.0
 10
16.43684990836403
 20
-14.51623861285382
 30
0.0
 10
16.43885287535515
 20
-14.51623861285382
 30
0.0
 10
16.43448361247677
 20
-14.51623861285382
 30
0.0
 10
16.43357063217388
 20
-14.51623861285382
 30
0.0
 10
16.42465510003191
 20
-14.51623861285382
 30
0.0
 10
16.41537623899382
 20
-14.51623861285382
 30
0.0
 10
16.40627438434107
 20
-14.51623861285382
 30
0.0
 10
16.36224773847237
 20
-14.51623861285382
 30
0.0
 10
16.31803204322413
 20
-14.51623861285382
 30
0.0
 10
16.27381771141027
 20
-14.51623861285382
 30
0.0
 10
16.07275709000139
 20
-14.51623861285382
 30
0.0
 10
15.87151014608173
 20
-14.51623861285382
 30
0.0
 10
15.67044952467297
 20
-14.51623861285382
 30
0.0
 10
15.41389274342101
 20
-14.51623861285382
 30
0.0
 10
15.15751296855439
 20
-14.51623861285382
 30
0.0
 10
14.90077918091722
 20
-14.51623861285382
 30
0.0
 10
14.38802894730954
 20
-14.51623861285382
 30
0.0
 10
13.87491538480575
 20
-14.51623861285382
 30
0.0
 10
13.36180310993871
 20
-14.51623861285382
 30
0.0
 10
12.33538837478345
 20
-14.51623861285382
 30
0.0
 10
11.30897492726508
 20
-14.51623861285382
 30
0.0
 10
10.28256147974665
 20
-14.51623861285382
 30
0.0
  0
SPLINE
  5
128
330
70
100
AcDbEntity
  8
Livello 1
370
     9
100
AcDbSpline
210
0.0
220
0.0
230
1.0
 70
    24
 71
     3
 72
    26
 73
    22
 74
     0
 42
0.000000001
 43
0.0000000001
 40
0.0
 40
0.0
 40
0.0
 40
0.0
 40
1.0
 40
1.0
 40
1.0
 40
2.0
 40
2.0
 40
2.0
 40
3.0
 40
3.0
 40
3.0
 40
4.0
 40
4.0
 40
4.0
 40
5.0
 40
5.0
 40
5.0
 40
6.0
 40
6.0
 40
6.0
 40
7.0
 40
7.0
 40
7.0
 40
7.0
 10
4.138652269621457
 20
-14.68318358675168
 30
0.0
 10
4.136648247989936
 20
-14.68318358675168
 30
0.0
 10
4.140831188357503
 20
-14.68318358675168
 30
0.0
 10
4.141930491171239
 20
-14.68318358675168
 30
0.0
 10
4.151023029698487
 20
-14.68318358675168
 30
0.0
 10
4.160124884351269
 20
-14.68318358675168
 30
0.0
 10
4.169040416493271
 20
-14.68318358675168
 30
0.0
 10
4.213068425796286
 20
-14.68318358675168
 30
0.0
 10
4.257282757610146
 20
-14.68318358675168
 30
0.0
 10
4.301320083038726
 20
-14.68318358675168
 30
0.0
 10
4.502194381936766
 20
-14.68318358675168
 30
0.0
 10
4.702891674449561
 20
-14.68318358675168
 30
0.0
 10
4.903775289473165
 20
-14.68318358675168
 30
0.0
 10
5.159782419318195
 20
-14.68318358675168
 30
0.0
 10
5.415799952192687
 20
-14.68318358675168
 30
0.0
 10
5.671807088504952
 20
-14.68318358675168
 30
0.0
 10
6.184015893460158
 20
-14.68318358675168
 30
0.0
 10
6.696039469275783
 20
-14.68318358675168
 30
0.0
 10
7.208426373987465
 20
-14.68318358675168
 30
0.0
 10
8.233200183410795
 20
-14.68318358675168
 30
0.0
 10
9.257787670323317
 20
-14.68318358675168
 30
0.0
 10
10.28238447336137
 20
-14.68318358675168
 30
0.0
  0
LINE
  5
129
330
70
100
AcDbEntity
  8
Livello 1
370
     9
100
AcDbLine
 10
10.28238447336137
 20
-14.68318358675168
 30
0.0
 11
16.42629473812692
 21
-14.68318358675168
 31
0.0
  0
SPLINE
  5
12A
330
70
100
AcDbEntity
  8
Livello 1
370
     9
100
AcDbSpline
210
0.0
220
0.0
230
1.0
 70
     8
 71
     3
 72
     8
 73
     4
 74
     0
 42
0.000000001
 43
0.0000000001
 40
0.0
 40
0.0
 40
0.0
 40
0.0
 40
1.0
 40
1.0
 40
1.0
 40
1.0
 10
4.126642729159762
 20
-14.68209360003605
 30
0.0
 10
4.126642729159762
 20
-14.68291341910427
 30
0.0
 10
4.129735682839093
 20
-14.68318358675168
 30
0.0
 10
4.137197899396803
 20
-14.68318358675168
 30
0.0
  0
SPLINE
  5
12B
330
70
100
AcDbEntity
  8
Livello 1
370
     9
100
AcDbSpline
210
0.0
220
0.0
230
1.0
 70
     8
 71
     3
 72
     8
 73
     4
 74
     0
 42
0.000000001
 43
0.0000000001
 40
0.0
 40
0.0
 40
0.0
 40
0.0
 40
1.0
 40
1.0
 40
1.0
 40
1.0
 10
16.43830322394826
 20
-14.68209360003605
 30
0.0
 10
16.43830322394826
 20
-14.68291341910427
 30
0.0
 10
16.43538727665423
 20
-14.68318358675168
 30
0.0
 10
16.42774805371115
 20
-14.68318358675168
 30
0.0
  0
LINE
  5
12C
330
70
100
AcDbEntity
  8
Livello 1
370
     9
100
AcDbLine
 10
16.43830322394826
 20
-14.51623861285382
 30
0.0
 11
16.43830322394826
 21
-14.68190727752045
 31
0.0
  0
LINE
  5
12D
330
70
100
AcDbEntity
  8
Livello 1
370
     9
100
AcDbLine
 10
4.126642729159762
 20
-14.51623861285382
 30
0.0
 11
4.126642729159762
 21
-14.68190727752045
 31
0.0
  0
SPLINE
  5
12E
330
70
100
AcDbEntity
  8
Livello 1
370
     9
100
AcDbSpline
210
0.0
220
0.0
230
1.0
 70
    24
 71
     3
 72
    26
 73
    22
 74
     0
 42
0.000000001
 43
0.0000000001
 40
0.0
 40
0.0
 40
0.0
 40
0.0
 40
1.0
 40
1.0
 40
1.0
 40
2.0
 40
2.0
 40
2.0
 40
3.0
 40
3.0
 40
3.0
 40
4.0
 40
4.0
 40
4.0
 40
5.0
 40
5.0
 40
5.0
 40
6.0
 40
6.0
 40
6.0
 40
7.0
 40
7.0
 40
7.0
 40
7.0
 10
16.43684990836403
 20
-14.68209360003605
 30
0.0
 10
16.43885287535515
 20
-14.68209360003605
 30
0.0
 10
16.43448361247677
 20
-14.68209360003605
 30
0.0
 10
16.43357063217388
 20
-14.68209360003605
 30
0.0
 10
16.42465510003191
 20
-14.68209360003605
 30
0.0
 10
16.41537623899382
 20
-14.68209360003605
 30
0.0
 10
16.40627438434107
 20
-14.68209360003605
 30
0.0
 10
16.36224773847237
 20
-14.68209360003605
 30
0.0
 10
16.31803204322413
 20
-14.68209360003605
 30
0.0
 10
16.27381771141027
 20
-14.68209360003605
 30
0.0
 10
16.07275709000139
 20
-14.68209360003605
 30
0.0
 10
15.87151014608173
 20
-14.68209360003605
 30
0.0
 10
15.67044952467297
 20
-14.68209360003605
 30
0.0
 10
15.41389274342101
 20
-14.68209360003605
 30
0.0
 10
15.15751296855439
 20
-14.68209360003605
 30
0.0
 10
14.90077918091722
 20
-14.68209360003605
 30
0.0
 10
14.38802894730954
 20
-14.68209360003605
 30
0.0
 10
13.87491538480575
 20
-14.68209360003605
 30
0.0
 10
13.36180310993871
 20
-14.68209360003605
 30
0.0
 10
12.33538837478345
 20
-14.68209360003605
 30
0.0
 10
11.30897492726508
 20
-14.68209360003605
 30
0.0
 10
10.28256147974665
 20
-14.68209360003605
 30
0.0
  0
LINE
  5
12F
330
70
100
AcDbEntity
  8
Livello 1
370
     9
100
AcDbLine
 10
10.28238447336137
 20
-14.68209360003605
 30
0.0
 11
4.128096044744022
 21
-14.68209360003605
 31
0.0
  0
LINE
  5
130
330
70
100
AcDbEntity
  8
Livello 1
370
     9
100
AcDbLine
 10
10.28238447336137
 20
-14.68318358675168
 30
0.0
 11
10.28238447336137
 21
-14.68209360003605
 31
0.0
  0
LINE
  5
131
330
70
100
AcDbEntity
  8
Livello 1
370
     9
100
AcDbLine
 10
14.19879048921121
 20
-14.51360214925929
 30
0.0
 11
14.19879048921121
 21
-14.51104953079677
 31
0.0
  0
LINE
  5
132
330
70
100
AcDbEntity
  8
Livello 1
370
     9
100
AcDbLine
 10
13.10287874516274
 20
-13.9713756807445
 30
0.0
 11
13.10815167221857
 21
-14.37012449618993
 31
0.0
  0
LINE
  5
133
330
70
100
AcDbEntity
  8
Livello 1
370
     9
100
AcDbLine
 10
7.459337583162002
 20
-14.37012449618993
 30
0.0
 11
7.464796832728552
 21
-13.9713756807445
 31
0.0
  0
SPLINE
  5
134
330
70
100
AcDbEntity
  8
Livello 1
370
     9
100
AcDbSpline
210
0.0
220
0.0
230
1.0
 70
    24
 71
     3
 72
    23
 73
    19
 74
     0
 42
0.000000001
 43
0.0000000001
 40
0.0
 40
0.0
 40
0.0
 40
0.0
 40
1.0
 40
1.0
 40
1.0
 40
2.0
 40
2.0
 40
2.0
 40
3.0
 40
3.0
 40
3.0
 40
4.0
 40
4.0
 40
4.0
 40
5.0
 40
5.0
 40
5.0
 40
6.0
 40
6.0
 40
6.0
 40
6.0
 10
13.08850396345428
 20
-13.96164032930906
 30
0.0
 10
13.09686984418935
 20
-13.96164032930906
 30
0.0
 10
13.08012876659352
 20
-13.96164032930906
 30
0.0
 10
13.07594582622605
 20
-13.96164032930906
 30
0.0
 10
13.05993140642246
 20
-13.96164032930906
 30
0.0
 10
13.04428963164042
 20
-13.96164032930906
 30
0.0
 10
13.02808888932593
 20
-13.96164032930906
 30
0.0
 10
12.9598575858694
 20
-13.96164032930906
 30
0.0
 10
12.89162628241287
 20
-13.96164032930906
 30
0.0
 10
12.82320865644556
 20
-13.96164032930906
 30
0.0
 10
12.73477999281797
 20
-13.96164032930906
 30
0.0
 10
12.64598800029413
 20
-13.96164032930906
 30
0.0
 10
12.55755002054098
 20
-13.96164032930906
 30
0.0
 10
12.38014304187865
 20
-13.96164032930906
 30
0.0
 10
12.20310870823799
 20
-13.96164032930906
 30
0.0
 10
12.025878735961
 20
-13.96164032930906
 30
0.0
 10
11.67142810753258
 20
-13.96164032930906
 30
0.0
 10
11.31680047271881
 20
-13.96164032930906
 30
0.0
 10
10.96234984429039
 20
-13.96164032930906
 30
0.0
  0
LINE
  5
135
330
70
100
AcDbEntity
  8
Livello 1
370
     9
100
AcDbLine
 10
10.96234984429039
 20
-13.96164032930906
 30
0.0
 11
7.478994608051825
 21
-13.96164032930906
 31
0.0
  0
LINE
  5
136
330
70
100
AcDbEntity
  8
Livello 1
370
     9
100
AcDbLine
 10
10.92632438682639
 20
-14.37012449618993
 30
0.0
 11
10.91867584775787
 21
-14.37012449618993
 31
0.0
  0
LINE
  5
137
330
70
100
AcDbEntity
  8
Livello 1
370
     9
100
AcDbLine
 10
10.81496873824424
 20
-14.37012449618993
 30
0.0
 11
10.80459057439248
 21
-14.37012449618993
 31
0.0
  0
LINE
  5
138
330
70
100
AcDbEntity
  8
Livello 1
370
     9
100
AcDbLine
 10
10.77948361606157
 20
-14.37012449618993
 30
0.0
 11
10.76092711591871
 21
-14.37012449618993
 31
0.0
  0
LINE
  5
139
330
70
100
AcDbEntity
  8
Livello 1
370
     9
100
AcDbLine
 10
10.56040560785797
 20
-14.37012449618993
 30
0.0
 11
10.51619249179469
 21
-14.37012449618993
 31
0.0
  0
SPLINE
  5
13A
330
70
100
AcDbEntity
  8
Livello 1
370
     9
100
AcDbSpline
210
0.0
220
0.0
230
1.0
 70
     8
 71
     3
 72
     8
 73
     4
 74
     0
 42
0.000000001
 43
0.0000000001
 40
0.0
 40
0.0
 40
0.0
 40
0.0
 40
1.0
 40
1.0
 40
1.0
 40
1.0
 10
13.08886729235027
 20
-13.96164032930906
 30
0.0
 10
13.09377817137592
 20
-13.96300048367229
 30
0.0
 10
13.09778410545931
 20
-13.96500345071399
 30
0.0
 10
13.10123910706773
 20
-13.96791008195598
 30
0.0
  0
SPLINE
  5
13B
330
70
100
AcDbEntity
  8
Livello 1
370
     9
100
AcDbSpline
210
0.0
220
0.0
230
1.0
 70
     8
 71
     3
 72
     8
 73
     4
 74
     0
 42
0.000000001
 43
0.0000000001
 40
0.0
 40
0.0
 40
0.0
 40
0.0
 40
1.0
 40
1.0
 40
1.0
 40
1.0
 10
7.464433503832495
 20
-13.9713756807445
 30
0.0
 10
7.46734945112658
 20
-13.96636360507729
 30
0.0
 10
7.471346068983336
 20
-13.96345697383523
 30
0.0
 10
7.478808285541046
 20
-13.96164032930906
 30
0.0
  0
LINE
  5
13C
330
70
100
AcDbEntity
  8
Livello 1
370
     9
100
AcDbLine
 10
13.04937623618535
 20
-13.95044234612681
 30
0.0
 11
13.04956255869613
 21
-13.96154716805136
 31
0.0
  0
LINE
  5
13D
330
70
100
AcDbEntity
  8
Livello 1
370
     9
100
AcDbLine
 10
7.518113019195192
 20
-13.96164032930906
 30
0.0
 11
7.518290025580438
 21
-13.95044234612681
 31
0.0
  0
LINE
  5
13E
330
70
100
AcDbEntity
  8
Livello 1
370
     9
100
AcDbLine
 10
10.96580612686588
 20
-13.9713756807445
 30
0.0
 11
7.464796832728552
 21
-13.9713756807445
 31
0.0
  0
SPLINE
  5
13F
330
70
100
AcDbEntity
  8
Livello 1
370
     9
100
AcDbSpline
210
0.0
220
0.0
230
1.0
 70
     8
 71
     3
 72
     8
 73
     4
 74
     0
 42
0.000000001
 43
0.0000000001
 40
0.0
 40
0.0
 40
0.0
 40
0.0
 40
1.0
 40
1.0
 40
1.0
 40
1.0
 10
10.96234984429039
 20
-13.96164032930906
 30
0.0
 10
10.96580612686588
 20
-13.96464012180876
 30
0.0
 10
10.96689611355398
 20
-13.96746290791881
 30
0.0
 10
10.96580612686588
 20
-13.9713756807445
 30
0.0
  0
SPLINE
  5
140
330
70
100
AcDbEntity
  8
Livello 1
370
     9
100
AcDbSpline
210
0.0
220
0.0
230
1.0
 70
    24
 71
     3
 72
    23
 73
    19
 74
     0
 42
0.000000001
 43
0.0000000001
 40
0.0
 40
0.0
 40
0.0
 40
0.0
 40
1.0
 40
1.0
 40
1.0
 40
2.0
 40
2.0
 40
2.0
 40
3.0
 40
3.0
 40
3.0
 40
4.0
 40
4.0
 40
4.0
 40
5.0
 40
5.0
 40
5.0
 40
6.0
 40
6.0
 40
6.0
 40
6.0
 10
13.10287874516274
 20
-13.9713756807445
 30
0.0
 10
13.11124462589794
 20
-13.9713756807445
 30
0.0
 10
13.0945035483021
 20
-13.9713756807445
 30
0.0
 10
13.09032060793463
 20
-13.9713756807445
 30
0.0
 10
13.07430746850492
 20
-13.9713756807445
 30
0.0
 10
13.05829176832732
 20
-13.9713756807445
 30
0.0
 10
13.04246367103451
 20
-13.9713756807445
 30
0.0
 10
12.97368271617108
 20
-13.9713756807445
 30
0.0
 10
12.90491107743322
 20
-13.9713756807445
 30
0.0
 10
12.83630712895513
 20
-13.9713756807445
 30
0.0
 10
12.74733813004608
 20
-13.9713756807445
 30
0.0
 10
12.65835981501159
 20
-13.9713756807445
 30
0.0
 10
12.56919517746619
 20
-13.9713756807445
 30
0.0
 10
12.39106280412559
 20
-13.9713756807445
 30
0.0
 10
12.21275215678145
 20
-13.9713756807445
 30
0.0
 10
12.03461726171776
 20
-13.9713756807445
 30
0.0
 10
11.67834067268342
 20
-13.9713756807445
 30
0.0
 10
11.32207339977465
 20
-13.9713756807445
 30
0.0
 10
10.96580612686588
 20
-13.9713756807445
 30
0.0
  0
SPLINE
  5
195
330
70
100
AcDbEntity
  8
Livello 1
370
     9
100
AcDbSpline
210
0.0
220
0.0
230
1.0
 70
    24
 71
     3
 72
     8
 73
     4
 74
     0
 42
0.000000001
 43
0.0000000001
 40
0.0
 40
0.0
 40
0.0
 40
0.0
 40
1.0
 40
1.0
 40
1.0
 40
1.0
 10
16.08257764269009
 20
-14.51104953079677
 30
0.0
 10
16.08403891803061
 20
-14.51104953079677
 30
0.0
 10
16.08476557582272
 20
-14.51104953079677
 30
0.0
 10
16.08476557582272
 20
-14.51104953079677
 30
0.0
  0
SPLINE
  5
196
330
70
100
AcDbEntity
  8
Livello 1
370
     9
100
AcDbSpline
210
0.0
220
0.0
230
1.0
 70
    24
 71
     3
 72
     8
 73
     4
 74
     0
 42
0.000000001
 43
0.0000000001
 40
1.0
 40
1.0
 40
1.0
 40
1.0
 40
2.0
 40
2.0
 40
2.0
 40
2.0
 10
16.08476557582272
 20
-14.51104953079677
 30
0.0
 10
16.08476557582272
 20
-14.51104953079677
 30
0.0
 10
16.03035940266788
 20
-14.51104953079677
 30
0.0
 10
15.95284923817339
 20
-14.51104953079677
 30
0.0
  0
LINE
  5
19E
330
70
100
AcDbEntity
  8
0
100
AcDbLine
 10
4.138652269621457
 20
-15.67280437708563
 30
0.0
 11
16.42629473812692
 21
-15.67280437708563
 31
0.0
  0
LINE
  5
19F
330
70
100
AcDbEntity
  8
0
100
AcDbLine
 10
16.51468576202185
 20
-14.68318358675168
 30
0.0
 11
16.51468576202185
 21
-13.96791008195598
 31
0.0
  0
LINE
  5
1A0
330
70
100
AcDbEntity
  8
0
100
AcDbLine
 10
4.00042981832845
 20
-14.68190727752045
 30
0.0
 11
4.00042981832845
 21
-14.51614545159599
 31
0.0
  0
MTEXT
  5
1A2
330
70
100
AcDbEntity
  8
0
100
AcDbMText
 10
10.04643069588473
 20
-16.03964390253984
 30
0.0
 40
0.2
 41
1.245491921185788
 46
0.0
 71
     1
 72
     5
  1
900
 73
     1
 44
1.0
1001
ACAD
1000
ACAD_MTEXT_COLUMN_INFO_BEGIN
1070
    75
1070
     2
1070
    79
1070
     0
1070
    76
1070
     1
1070
    78
1070
     0
1070
    48
1040
1.245491921185788
1070
    49
1040
1.0
1070
    50
1070
     1
1040
0.0
1000
ACAD_MTEXT_COLUMN_INFO_END
  0
MTEXT
  5
1AB
330
70
100
AcDbEntity
  8
0
100
AcDbMText
 10
16.58714632607691
 20
-14.22460032670778
 30
0.0
 40
0.2
 41
1.245491921185788
 46
0.0
 71
     1
 72
     5
  1
44
 73
     1
 44
1.0
1001
ACAD
1000
ACAD_MTEXT_COLUMN_INFO_BEGIN
1070
    75
1070
     2
1070
    79
1070
     0
1070
    76
1070
     1
1070
    78
1070
     0
1070
    48
1040
1.245491921185788
1070
    49
1040
1.0
1070
    50
1070
     1
1040
0.0
1000
ACAD_MTEXT_COLUMN_INFO_END
  0
MTEXT
  5
1B3
330
70
100
AcDbEntity
  8
0
100
AcDbMText
 10
3.658431968100353
 20
-14.49974760811292
 30
0.0
 40
0.2
 41
1.245491921185788
 46
0.0
 71
     1
 72
     5
  1
14
 73
     1
 44
1.0
1001
ACAD
1000
ACAD_MTEXT_COLUMN_INFO_BEGIN
1070
    75
1070
     2
1070
    79
1070
     0
1070
    76
1070
     1
1070
    78
1070
     0
1070
    48
1040
1.245491921185788
1070
    49
1040
1.0
1070
    50
1070
     1
1040
0.0
1000
ACAD_MTEXT_COLUMN_INFO_END
  0
ENDSEC
  0
SECTION
  2
OBJECTS
  0
DICTIONARY
  5
C
330
0
100
AcDbDictionary
281
     1
  3
ACAD_CIP_PREVIOUS_PRODUCT_INFO
350
181
  3
ACAD_COLOR
350
63
  3
ACAD_DETAILVIEWSTYLE
350
6A
  3
ACAD_GROUP
350
D
  3
ACAD_LAYOUT
350
62
  3
ACAD_MATERIAL
350
10
  3
ACAD_MLEADERSTYLE
350
66
  3
ACAD_MLINESTYLE
350
5F
  3
ACAD_PLOTSETTINGS
350
61
  3
ACAD_PLOTSTYLENAME
350
E
  3
ACAD_SCALELIST
350
42
  3
ACAD_SECTIONVIEWSTYLE
350
68
  3
ACAD_TABLESTYLE
350
64
  3
ACAD_VISUALSTYLE
350
29
  3
ACDB_RECOMPOSE_DATA
350
1BD
  3
AcDbVariableDictionary
350
177
  0
DICTIONARY
  5
182
330
70
100
AcDbDictionary
280
     1
281
     1
  3
ACAD_SORTENTS
360
183
  0
XRECORD
  5
181
102
{ACAD_REACTORS
330
C
102
}
330
C
100
AcDbXrecord
280
     1
300
ACD
300
2022
300

  0
DICTIONARY
  5
63
102
{ACAD_REACTORS
330
C
102
}
330
C
100
AcDbDictionary
281
     1
  0
DICTIONARY
  5
6A
102
{ACAD_REACTORS
330
C
102
}
330
C
100
AcDbDictionary
281
     1
  3
Imperial24
350
6B
  0
DICTIONARY
  5
D
102
{ACAD_REACTORS
330
C
102
}
330
C
100
AcDbDictionary
281
     1
  0
DICTIONARY
  5
62
102
{ACAD_REACTORS
330
C
102
}
330
C
100
AcDbDictionary
281
     1
  3
Layout1
350
6F
  3
Layout2
350
77
  3
Model
350
73
  0
DICTIONARY
  5
10
102
{ACAD_REACTORS
330
C
102
}
330
C
100
AcDbDictionary
281
     1
  3
ByBlock
350
19
  3
ByLayer
350
11
  3
Global
350
21
  0
DICTIONARY
  5
66
102
{ACAD_REACTORS
330
C
102
}
330
C
100
AcDbDictionary
281
     1
  3
Standard
350
67
  0
DICTIONARY
  5
5F
102
{ACAD_REACTORS
330
C
102
}
330
C
100
AcDbDictionary
281
     1
  3
Standard
350
60
  0
DICTIONARY
  5
61
102
{ACAD_REACTORS
330
C
102
}
330
C
100
AcDbDictionary
281
     1
  0
ACDBDICTIONARYWDFLT
  5
E
102
{ACAD_REACTORS
330
C
102
}
330
C
100
AcDbDictionary
281
     1
  3
Normal
350
F
100
AcDbDictionaryWithDefault
340
F
  0
DICTIONARY
  5
42
102
{ACAD_REACTORS
330
C
102
}
330
C
100
AcDbDictionary
281
     1
  3
A0
350
43
  3
A1
350
44
  3
A2
350
45
  3
A3
350
46
  3
A4
350
47
  3
A5
350
48
  3
A6
350
49
  3
A7
350
4A
  3
A8
350
4B
  3
A9
350
4C
  3
B0
350
4D
  3
B1
350
4E
  3
B2
350
4F
  3
B3
350
50
  3
B4
350
51
  3
B5
350
52
  3
B6
350
53
  0
DICTIONARY
  5
68
102
{ACAD_REACTORS
330
C
102
}
330
C
100
AcDbDictionary
281
     1
  3
Imperial24
350
69
  0
DICTIONARY
  5
64
102
{ACAD_REACTORS
330
C
102
}
330
C
100
AcDbDictionary
281
     1
  3
Standard
350
65
  0
DICTIONARY
  5
29
102
{ACAD_REACTORS
330
C
102
}
330
C
100
AcDbDictionary
281
     1
  3
2dWireframe
350
2F
  3
Basic
350
2E
  3
Brighten
350
35
  3
ColorChange
350
39
  3
Conceptual
350
32
  3
Dim
350
34
  3
EdgeColorOff
350
41
  3
Facepattern
350
38
  3
Flat
350
2A
  3
FlatWithEdges
350
2B
  3
Gouraud
350
2C
  3
GouraudWithEdges
350
2D
  3
Hidden
350
31
  3
JitterOff
350
3F
  3
Linepattern
350
37
  3
OverhangOff
350
40
  3
Realistic
350
33
  3
Shaded
350
3E
  3
Shaded with edges
350
3D
  3
Shades of Gray
350
3A
  3
Sketchy
350
3B
  3
Thicken
350
36
  3
Wireframe
350
30
  3
X-Ray
350
3C
  0
XRECORD
  5
1BD
102
{ACAD_REACTORS
330
C
102
}
330
C
100
AcDbXrecord
280
     1
 90
        1
330
65
330
1A2
330
1AB
330
1B3
  0
DICTIONARY
  5
177
102
{ACAD_REACTORS
330
C
102
}
330
C
100
AcDbDictionary
281
     1
  3
CANNOSCALE
350
17C
  3
CMLEADERSTYLE
350
179
  3
CTABLESTYLE
350
178
  3
CVIEWDETAILSTYLE
350
17A
  3
CVIEWSECTIONSTYLE
350
17B
  0
SORTENTSTABLE
  5
183
102
{ACAD_REACTORS
330
182
102
}
330
182
100
AcDbSortentsTable
330
70
331
D7
  5
F0
331
D8
  5
F1
331
D9
  5
F2
331
DA
  5
F4
331
DB
  5
F8
331
DC
  5
F9
331
DD
  5
FA
331
DE
  5
FC
331
DF
  5
101
331
E1
  5
105
331
E4
  5
106
331
E6
  5
107
331
E7
  5
108
331
E9
  5
10A
331
EA
  5
10D
331
EB
  5
10F
331
EF
  5
114
331
F0
  5
115
331
F1
  5
118
331
F2
  5
119
331
F4
  5
11B
331
F8
  5
11C
331
F9
  5
11E
331
FA
  5
11F
331
FC
  5
120
331
101
  5
123
331
105
  5
124
331
106
  5
125
331
107
  5
126
331
108
  5
129
331
10A
  5
12C
331
10D
  5
12D
331
10F
  5
12F
331
114
  5
130
331
115
  5
131
331
118
  5
132
331
119
  5
133
331
11B
  5
137
331
11C
  5
138
331
11E
  5
139
331
11F
  5
13C
331
120
  5
13D
331
123
  5
13E
331
124
  5
184
331
125
  5
185
331
126
  5
186
331
129
  5
187
331
12C
  5
188
331
12D
  5
189
331
12F
  5
18A
331
130
  5
18B
331
131
  5
18C
331
132
  5
18D
331
133
  5
18E
331
135
  5
18F
331
136
  5
190
331
137
  5
191
331
138
  5
192
331
139
  5
193
331
13C
  5
194
331
13D
  5
195
331
13E
  5
196
331
195
  5
135
331
196
  5
136
  0
ACDBDETAILVIEWSTYLE
  5
6B
102
{ACAD_XDICTIONARY
360
1C0
102
}
102
{ACAD_REACTORS
330
6A
102
}
330
6A
100
AcDbModelDocViewStyle
 70
     0
  3
Imperial24
290
     0
100
AcDbDetailViewStyle
 70
     0
 71
     0
 90
        3
 71
     1
340
55
 62
   256
 40
0.24
340
0
 62
   256
 40
0.24
300

 40
0.36
280
     3
 71
     2
340
5D
 90
       25
 62
   256
 71
     3
340
55
 62
   256
 40
0.24
 90
        1
 40
0.75
 90
        1
300
%<\AcVar ViewType \f "%tc1">% %<\AcVar ViewDetailId>%\PSCALE %<\AcVar ViewScale \f "%sn">%
 71
     4
340
5D
 90
       25
 62
   256
340
5D
 90
       25
 62
   256
280
     0
  0
LAYOUT
  5
6F
102
{ACAD_REACTORS
330
62
102
}
330
62
100
AcDbPlotSettings
  1

  2

  4

  6

 40
0.0
 41
0.0
 42
0.0
 43
0.0
 44
0.0
 45
0.0
 46
0.0
 47
0.0
 48
0.0
 49
0.0
140
0.0
141
0.0
142
1.0
143
1.0
 70
   688
 72
     0
 73
     0
 74
     5
  7

 75
    16
147
1.0
 76
     0
 77
     2
 78
   300
148
0.0
149
0.0
100
AcDbLayout
  1
Layout1
 70
     1
 71
     1
 10
0.0
 20
0.0
 11
12.0
 21
9.0
 12
0.0
 22
0.0
 32
0.0
 14
1.000000000000000E+20
 24
1.000000000000000E+20
 34
1.000000000000000E+20
 15
-1.000000000000000E+20
 25
-1.000000000000000E+20
 35
-1.000000000000000E+20
146
0.0
 13
0.0
 23
0.0
 33
0.0
 16
1.0
 26
0.0
 36
0.0
 17
0.0
 27
1.0
 37
0.0
 76
     0
330
6C
  0
LAYOUT
  5
77
102
{ACAD_REACTORS
330
62
102
}
330
62
100
AcDbPlotSettings
  1

  2

  4

  6

 40
0.0
 41
0.0
 42
0.0
 43
0.0
 44
0.0
 45
0.0
 46
0.0
 47
0.0
 48
0.0
 49
0.0
140
0.0
141
0.0
142
1.0
143
1.0
 70
   688
 72
     0
 73
     0
 74
     5
  7

 75
    16
147
1.0
 76
     0
 77
     2
 78
   300
148
0.0
149
0.0
100
AcDbLayout
  1
Layout2
 70
     1
 71
     2
 10
0.0
 20
0.0
 11
12.0
 21
9.0
 12
0.0
 22
0.0
 32
0.0
 14
0.0
 24
0.0
 34
0.0
 15
0.0
 25
0.0
 35
0.0
146
0.0
 13
0.0
 23
0.0
 33
0.0
 16
1.0
 26
0.0
 36
0.0
 17
0.0
 27
1.0
 37
0.0
 76
     0
330
74
  0
LAYOUT
  5
73
102
{ACAD_REACTORS
330
62
102
}
330
62
100
AcDbPlotSettings
  1

  2

  4

  6

 40
0.0
 41
0.0
 42
0.0
 43
0.0
 44
0.0
 45
0.0
 46
0.0
 47
0.0
 48
0.0
 49
0.0
140
0.0
141
0.0
142
1.0
143
1.0
 70
  1712
 72
     0
 73
     0
 74
     0
  7

 75
     0
147
1.0
 76
     0
 77
     2
 78
   300
148
0.0
149
0.0
100
AcDbLayout
  1
Model
 70
     1
 71
     0
 10
0.0
 20
0.0
 11
12.0
 21
9.0
 12
0.0
 22
0.0
 32
0.0
 14
0.0
 24
0.0
 34
0.0
 15
0.0
 25
0.0
 35
0.0
146
0.0
 13
0.0
 23
0.0
 33
0.0
 16
1.0
 26
0.0
 36
0.0
 17
0.0
 27
1.0
 37
0.0
 76
     0
330
70
331
57
  0
MATERIAL
  5
19
102
{ACAD_XDICTIONARY
360
1A
102
}
102
{ACAD_REACTORS
330
10
102
}
330
10
100
AcDbMaterial
  1
ByBlock
 72
     0
 43
0.0208333333333333
 43
0.0
 43
0.0
 43
0.0
 43
0.0
 43
0.0208333333333333
 43
0.0
 43
0.0
 43
0.0
 43
0.0
 43
1.0
 43
0.0
 43
0.0
 43
0.0
 43
0.0
 43
1.0
 77
     0
 47
0.0208333333333333
 47
0.0
 47
0.0
 47
0.0
 47
0.0
 47
0.0208333333333333
 47
0.0
 47
0.0
 47
0.0
 47
0.0
 47
1.0
 47
0.0
 47
0.0
 47
0.0
 47
0.0
 47
1.0
171
     0
 49
0.0208333333333333
 49
0.0
 49
0.0
 49
0.0
 49
0.0
 49
0.0208333333333333
 49
0.0
 49
0.0
 49
0.0
 49
0.0
 49
1.0
 49
0.0
 49
0.0
 49
0.0
 49
0.0
 49
1.0
175
     0
142
0.0208333333333333
142
0.0
142
0.0
142
0.0
142
0.0
142
0.0208333333333333
142
0.0
142
0.0
142
0.0
142
0.0
142
1.0
142
0.0
142
0.0
142
0.0
142
0.0
142
1.0
179
     0
144
0.0208333333333333
144
0.0
144
0.0
144
0.0
144
0.0
144
0.0208333333333333
144
0.0
144
0.0
144
0.0
144
0.0
144
1.0
144
0.0
144
0.0
144
0.0
144
0.0
144
1.0
147
0.0208333333333333
147
0.0
147
0.0
147
0.0
147
0.0
147
0.0208333333333333
147
0.0
147
0.0
147
0.0
147
0.0
147
1.0
147
0.0
147
0.0
147
0.0
147
0.0
147
1.0
  0
MATERIAL
  5
11
102
{ACAD_XDICTIONARY
360
12
102
}
102
{ACAD_REACTORS
330
10
102
}
330
10
100
AcDbMaterial
  1
ByLayer
 72
     0
 43
0.0208333333333333
 43
0.0
 43
0.0
 43
0.0
 43
0.0
 43
0.0208333333333333
 43
0.0
 43
0.0
 43
0.0
 43
0.0
 43
1.0
 43
0.0
 43
0.0
 43
0.0
 43
0.0
 43
1.0
 77
     0
 47
0.0208333333333333
 47
0.0
 47
0.0
 47
0.0
 47
0.0
 47
0.0208333333333333
 47
0.0
 47
0.0
 47
0.0
 47
0.0
 47
1.0
 47
0.0
 47
0.0
 47
0.0
 47
0.0
 47
1.0
171
     0
 49
0.0208333333333333
 49
0.0
 49
0.0
 49
0.0
 49
0.0
 49
0.0208333333333333
 49
0.0
 49
0.0
 49
0.0
 49
0.0
 49
1.0
 49
0.0
 49
0.0
 49
0.0
 49
0.0
 49
1.0
175
     0
142
0.0208333333333333
142
0.0
142
0.0
142
0.0
142
0.0
142
0.0208333333333333
142
0.0
142
0.0
142
0.0
142
0.0
142
1.0
142
0.0
142
0.0
142
0.0
142
0.0
142
1.0
179
     0
144
0.0208333333333333
144
0.0
144
0.0
144
0.0
144
0.0
144
0.0208333333333333
144
0.0
144
0.0
144
0.0
144
0.0
144
1.0
144
0.0
144
0.0
144
0.0
144
0.0
144
1.0
147
0.0208333333333333
147
0.0
147
0.0
147
0.0
147
0.0
147
0.0208333333333333
147
0.0
147
0.0
147
0.0
147
0.0
147
1.0
147
0.0
147
0.0
147
0.0
147
0.0
147
1.0
  0
MATERIAL
  5
21
102
{ACAD_XDICTIONARY
360
22
102
}
102
{ACAD_REACTORS
330
10
102
}
330
10
100
AcDbMaterial
  1
Global
 72
     0
 43
0.0208333333333333
 43
0.0
 43
0.0
 43
0.0
 43
0.0
 43
0.0208333333333333
 43
0.0
 43
0.0
 43
0.0
 43
0.0
 43
1.0
 43
0.0
 43
0.0
 43
0.0
 43
0.0
 43
1.0
 77
     0
 47
0.0208333333333333
 47
0.0
 47
0.0
 47
0.0
 47
0.0
 47
0.0208333333333333
 47
0.0
 47
0.0
 47
0.0
 47
0.0
 47
1.0
 47
0.0
 47
0.0
 47
0.0
 47
0.0
 47
1.0
171
     0
 49
0.0208333333333333
 49
0.0
 49
0.0
 49
0.0
 49
0.0
 49
0.0208333333333333
 49
0.0
 49
0.0
 49
0.0
 49
0.0
 49
1.0
 49
0.0
 49
0.0
 49
0.0
 49
0.0
 49
1.0
175
     0
142
0.0208333333333333
142
0.0
142
0.0
142
0.0
142
0.0
142
0.0208333333333333
142
0.0
142
0.0
142
0.0
142
0.0
142
1.0
142
0.0
142
0.0
142
0.0
142
0.0
142
1.0
179
     0
144
0.0208333333333333
144
0.0
144
0.0
144
0.0
144
0.0
144
0.0208333333333333
144
0.0
144
0.0
144
0.0
144
0.0
144
1.0
144
0.0
144
0.0
144
0.0
144
0.0
144
1.0
147
0.0208333333333333
147
0.0
147
0.0
147
0.0
147
0.0
147
0.0208333333333333
147
0.0
147
0.0
147
0.0
147
0.0
147
1.0
147
0.0
147
0.0
147
0.0
147
0.0
147
1.0
  0
MLEADERSTYLE
  5
67
102
{ACAD_REACTORS
330
66
102
}
330
66
100
AcDbMLeaderStyle
179
     2
170
     2
171
     1
172
     0
 90
        2
 40
0.0
 41
0.0
173
     1
 91
-1056964608
340
5B
 92
       -2
290
     1
 42
0.09
291
     1
 43
0.36
  3
Standard
 44
0.18
300

342
55
174
     1
178
     6
175
     1
176
     0
 93
-1056964608
 45
0.18
292
     0
297
     0
 46
0.18
 94
-1056964608
 47
1.0
 49
1.0
140
1.0
293
     1
141
0.0
294
     1
177
     0
142
1.0
295
     0
296
     0
143
0.125
271
     0
272
     9
273
     9
298
     1
  0
MLINESTYLE
  5
60
102
{ACAD_REACTORS
330
5F
102
}
330
5F
100
AcDbMlineStyle
  2
STANDARD
 70
     0
  3

 62
   256
 51
90.0
 52
90.0
 71
     2
 49
0.5
 62
   256
  6
BYLAYER
 49
-0.5
 62
   256
  6
BYLAYER
  0
ACDBPLACEHOLDER
  5
F
102
{ACAD_REACTORS
330
E
102
}
330
E
  0
SCALE
  5
43
102
{ACAD_REACTORS
330
42
102
}
330
42
100
AcDbScale
 70
     0
300
1:1
140
1.0
141
1.0
290
     1
  0
SCALE
  5
44
102
{ACAD_REACTORS
330
42
102
}
330
42
100
AcDbScale
 70
     0
300
1/128" = 1'-0"
140
0.0078125
141
12.0
290
     0
  0
SCALE
  5
45
102
{ACAD_REACTORS
330
42
102
}
330
42
100
AcDbScale
 70
     0
300
1/64" = 1'-0"
140
0.015625
141
12.0
290
     0
  0
SCALE
  5
46
102
{ACAD_REACTORS
330
42
102
}
330
42
100
AcDbScale
 70
     0
300
1/32" = 1'-0"
140
0.03125
141
12.0
290
     0
  0
SCALE
  5
47
102
{ACAD_REACTORS
330
42
102
}
330
42
100
AcDbScale
 70
     0
300
1/16" = 1'-0"
140
0.0625
141
12.0
290
     0
  0
SCALE
  5
48
102
{ACAD_REACTORS
330
42
102
}
330
42
100
AcDbScale
 70
     0
300
3/32" = 1'-0"
140
0.09375
141
12.0
290
     0
  0
SCALE
  5
49
102
{ACAD_REACTORS
330
42
102
}
330
42
100
AcDbScale
 70
     0
300
1/8" = 1'-0"
140
0.125
141
12.0
290
     0
  0
SCALE
  5
4A
102
{ACAD_REACTORS
330
42
102
}
330
42
100
AcDbScale
 70
     0
300
3/16" = 1'-0"
140
0.1875
141
12.0
290
     0
  0
SCALE
  5
4B
102
{ACAD_REACTORS
330
42
102
}
330
42
100
AcDbScale
 70
     0
300
1/4" = 1'-0"
140
0.25
141
12.0
290
     0
  0
SCALE
  5
4C
102
{ACAD_REACTORS
330
42
102
}
330
42
100
AcDbScale
 70
     0
300
3/8" = 1'-0"
140
0.375
141
12.0
290
     0
  0
SCALE
  5
4D
102
{ACAD_REACTORS
330
42
102
}
330
42
100
AcDbScale
 70
     0
300
1/2" = 1'-0"
140
0.5
141
12.0
290
     0
  0
SCALE
  5
4E
102
{ACAD_REACTORS
330
42
102
}
330
42
100
AcDbScale
 70
     0
300
3/4" = 1'-0"
140
0.75
141
12.0
290
     0
  0
SCALE
  5
4F
102
{ACAD_REACTORS
330
42
102
}
330
42
100
AcDbScale
 70
     0
300
1" = 1'-0"
140
1.0
141
12.0
290
     0
  0
SCALE
  5
50
102
{ACAD_REACTORS
330
42
102
}
330
42
100
AcDbScale
 70
     0
300
1-1/2" = 1'-0"
140
1.5
141
12.0
290
     0
  0
SCALE
  5
51
102
{ACAD_REACTORS
330
42
102
}
330
42
100
AcDbScale
 70
     0
300
3" = 1'-0"
140
3.0
141
12.0
290
     0
  0
SCALE
  5
52
102
{ACAD_REACTORS
330
42
102
}
330
42
100
AcDbScale
 70
     0
300
6" = 1'-0"
140
6.0
141
12.0
290
     0
  0
SCALE
  5
53
102
{ACAD_REACTORS
330
42
102
}
330
42
100
AcDbScale
 70
     0
300
1'-0" = 1'-0"
140
12.0
141
12.0
290
     0
  0
ACDBSECTIONVIEWSTYLE
  5
69
102
{ACAD_XDICTIONARY
360
1BE
102
}
102
{ACAD_REACTORS
330
68
102
}
330
68
100
AcDbModelDocViewStyle
 70
     0
  3
Imperial24
290
     0
100
AcDbSectionViewStyle
 70
     0
 71
     0
 90
       78
 71
     1
340
55
 62
   256
 40
0.24
340
0
340
0
 62
   256
 40
0.24
300
I, O, Q, S, X, Z
 40
0.48
 90
        3
 40
0.18
 90
        1
 71
     2
340
5D
 90
       25
 62
   256
340
5D
 90
       50
 62
   256
 40
0.24
 40
0.0
 40
0.24
 71
     3
340
55
 62
   256
 40
0.24
 90
        1
 40
0.75
 90
        1
300
%<\AcVar ViewType \f "%tc1">% %<\AcVar ViewSectionStartId>%-%<\AcVar ViewSectionEndId>%\PSCALE %<\AcVar ViewScale \f "%sn">%
 71
     4
 62
   256
 62
   257
300
ANSI31
 40
1.0
 90
        0
290
     0
290
     0
 90
        6
 40
0.0
 40
1.570796326794896
 40
0.2617993877991494
 40
1.308996938995747
 40
-0.2617993877991494
 40
1.832595714594046
  0
TABLESTYLE
  5
65
102
{ACAD_XDICTIONARY
360
1BB
102
}
102
{ACAD_REACTORS
330
64
102
}
330
64
100
AcDbTableStyle
280
     0
  3
Standard
 70
     0
 71
     0
 40
0.06
 41
0.06
280
     0
281
     0
  7
Standard
140
0.18
170
     2
 62
     0
 63
     7
283
     0
 90
      512
 91
        0
  1

274
    -2
284
     1
 64
     0
275
    -2
285
     1
 65
     0
276
    -2
286
     1
 66
     0
277
    -2
287
     1
 67
     0
278
    -2
288
     1
 68
     0
279
    -2
289
     1
 69
     0
  7
Standard
140
0.25
170
     5
 62
     0
 63
     7
283
     0
 90
      512
 91
        0
  1

274
    -2
284
     1
 64
     0
275
    -2
285
     1
 65
     0
276
    -2
286
     1
 66
     0
277
    -2
287
     1
 67
     0
278
    -2
288
     1
 68
     0
279
    -2
289
     1
 69
     0
  7
Standard
140
0.18
170
     5
 62
     0
 63
     7
283
     0
 90
      512
 91
        0
  1

274
    -2
284
     1
 64
     0
275
    -2
285
     1
 65
     0
276
    -2
286
     1
 66
     0
277
    -2
287
     1
 67
     0
278
    -2
288
     1
 68
     0
279
    -2
289
     1
 69
     0
  0
VISUALSTYLE
  5
2F
102
{ACAD_REACTORS
330
29
102
}
330
29
100
AcDbVisualStyle
  2
2dWireframe
 70
     4
177
     3
291
     0
 70
    58
 90
        0
176
     1
 90
        2
176
     1
 90
        0
176
     1
 90
        0
176
     1
 40
0.6
176
     1
 40
30.0
176
     1
 62
     7
420
 16777215
176
     1
 90
        1
176
     1
 90
        4
176
     1
 62
     7
176
     1
 62
   257
176
     1
 90
        1
176
     1
 90
        1
176
     1
 40
1.0
176
     1
 90
        0
176
     1
 62
   257
176
     1
 40
1.0
176
     1
 90
        1
176
     1
 90
        6
176
     1
 90
        2
176
     1
 62
     7
176
     1
 90
        5
176
     1
 90
        0
176
     1
 90
        0
176
     1
290
     0
176
     1
 90
        1
176
     1
 40
0.0
176
     1
 90
        0
176
     1
290
     1
176
     1
290
     1
176
     1
290
     0
176
     1
290
     0
176
     1
290
     0
176
     1
290
     0
176
     1
290
     0
176
     1
290
     0
176
     1
290
     0
176
     1
 90
       50
176
     1
 40
0.0
176
     1
 40
1.0
176
     1
 90
        0
176
     1
 62
    18
420
        0
176
     1
 90
       50
176
     1
 90
        3
176
     1
 62
     5
420
      255
176
     1
290
     0
176
     1
 90
       50
176
     1
 90
       50
176
     1
 90
       50
176
     1
290
     0
176
     1
 90
       50
176
     1
 62
   256
176
     0
 40
1.0
176
     0
 90
        2
176
     1
  1
strokes_ogs.tif
176
     1
290
     0
176
     1
 40
1.0
176
     1
 40
1.0
176
     1
1001
ACAD
1000
AcDbSavedByObjectVersion
1070
     0
  0
VISUALSTYLE
  5
2E
102
{ACAD_REACTORS
330
29
102
}
330
29
100
AcDbVisualStyle
  2
Basic
 70
     7
177
     3
291
     1
 70
    58
 90
        1
176
     1
 90
        0
176
     1
 90
        1
176
     1
 90
        0
176
     1
 40
0.6
176
     1
 40
30.0
176
     1
 62
     7
420
 16777215
176
     1
 90
        0
176
     1
 90
        4
176
     1
 62
     7
176
     1
 62
   257
176
     1
 90
        1
176
     1
 90
        1
176
     1
 40
1.0
176
     1
 90
        8
176
     1
 62
     7
176
     1
 40
1.0
176
     1
 90
        1
176
     1
 90
        6
176
     1
 90
        2
176
     1
 62
     7
176
     1
 90
        5
176
     1
 90
        0
176
     1
 90
        0
176
     1
290
     0
176
     1
 90
        1
176
     1
 40
0.0
176
     1
 90
        0
176
     1
290
     0
176
     1
290
     1
176
     1
290
     1
176
     1
290
     0
176
     1
290
     0
176
     1
290
     0
176
     1
290
     0
176
     1
290
     0
176
     1
290
     0
176
     1
 90
       50
176
     1
 40
0.0
176
     1
 40
1.0
176
     1
 90
        0
176
     1
 62
    18
420
        0
176
     1
 90
       50
176
     1
 90
        3
176
     1
 62
     5
420
      255
176
     1
290
     0
176
     1
 90
       50
176
     1
 90
       50
176
     1
 90
       50
176
     1
290
     0
176
     1
 90
       50
176
     1
 62
   256
176
     0
 40
1.0
176
     0
 90
        2
176
     1
  1
strokes_ogs.tif
176
     1
290
     0
176
     1
 40
1.0
176
     1
 40
1.0
176
     1
1001
ACAD
1000
AcDbSavedByObjectVersion
1070
     0
  0
VISUALSTYLE
  5
35
102
{ACAD_REACTORS
330
29
102
}
330
29
100
AcDbVisualStyle
  2
Brighten
 70
    12
177
     3
291
     1
 70
    58
 90
        2
176
     1
 90
        2
176
     1
 90
        0
176
     1
 90
        0
176
     1
 40
0.6
176
     1
 40
30.0
176
     1
 62
     7
420
 16777215
176
     1
 90
        1
176
     1
 90
        4
176
     1
 62
     7
176
     1
 62
   257
176
     1
 90
        1
176
     1
 90
        1
176
     1
 40
1.0
176
     1
 90
        8
176
     1
 62
     7
176
     1
 40
1.0
176
     1
 90
        1
176
     1
 90
        6
176
     1
 90
        2
176
     1
 62
     7
176
     1
 90
        5
176
     1
 90
        0
176
     1
 90
        0
176
     1
290
     0
176
     1
 90
        1
176
     1
 40
50.0
176
     1
 90
        0
176
     1
290
     0
176
     1
290
     1
176
     1
290
     1
176
     1
290
     0
176
     1
290
     0
176
     1
290
     0
176
     1
290
     0
176
     1
290
     0
176
     1
290
     0
176
     1
 90
       50
176
     1
 40
0.0
176
     1
 40
1.0
176
     1
 90
        0
176
     1
 62
    18
420
        0
176
     1
 90
       50
176
     1
 90
        3
176
     1
 62
     5
420
      255
176
     1
290
     0
176
     1
 90
       50
176
     1
 90
       50
176
     1
 90
       50
176
     1
290
     0
176
     1
 90
       50
176
     1
 62
   256
176
     0
 40
1.0
176
     0
 90
        2
176
     1
  1
strokes_ogs.tif
176
     1
290
     0
176
     1
 40
1.0
176
     1
 40
1.0
176
     1
1001
ACAD
1000
AcDbSavedByObjectVersion
1070
     0
  0
VISUALSTYLE
  5
39
102
{ACAD_REACTORS
330
29
102
}
330
29
100
AcDbVisualStyle
  2
ColorChange
 70
    16
177
     3
291
     1
 70
    58
 90
        2
176
     1
 90
        2
176
     1
 90
        3
176
     1
 90
        0
176
     1
 40
0.6
176
     1
 40
30.0
176
     1
 62
     8
420
  8421504
176
     1
 90
        1
176
     1
 90
        4
176
     1
 62
     7
176
     1
 62
   257
176
     1
 90
        1
176
     1
 90
        1
176
     1
 40
1.0
176
     1
 90
        8
176
     1
 62
     8
420
  8421504
176
     1
 40
1.0
176
     1
 90
        1
176
     1
 90
        6
176
     1
 90
        2
176
     1
 62
     7
176
     1
 90
        5
176
     1
 90
        0
176
     1
 90
        0
176
     1
290
     0
176
     1
 90
        1
176
     1
 40
0.0
176
     1
 90
        0
176
     1
290
     0
176
     1
290
     1
176
     1
290
     1
176
     1
290
     0
176
     1
290
     0
176
     1
290
     0
176
     1
290
     0
176
     1
290
     0
176
     1
290
     0
176
     1
 90
       50
176
     1
 40
0.0
176
     1
 40
1.0
176
     1
 90
        0
176
     1
 62
    18
420
        0
176
     1
 90
       50
176
     1
 90
        3
176
     1
 62
     5
420
      255
176
     1
290
     0
176
     1
 90
       50
176
     1
 90
       50
176
     1
 90
       50
176
     1
290
     0
176
     1
 90
       50
176
     1
 62
   256
176
     0
 40
1.0
176
     0
 90
        2
176
     1
  1
strokes_ogs.tif
176
     1
290
     0
176
     1
 40
1.0
176
     1
 40
1.0
176
     1
1001
ACAD
1000
AcDbSavedByObjectVersion
1070
     0
  0
VISUALSTYLE
  5
32
102
{ACAD_REACTORS
330
29
102
}
330
29
100
AcDbVisualStyle
  2
Conceptual
 70
     9
177
     3
291
     0
 70
    58
 90
        3
176
     1
 90
        2
176
     1
 90
        0
176
     1
 90
        0
176
     1
 40
0.6
176
     1
 40
30.0
176
     1
 62
     7
420
 16777215
176
     1
 90
        2
176
     1
 90
        2
176
     1
 62
     7
176
     1
 62
   257
176
     1
 90
        1
176
     1
 90
        1
176
     1
 40
179.0
176
     1
 90
        8
176
     1
 62
     7
176
     1
 40
1.0
176
     1
 90
        1
176
     1
 90
        6
176
     1
 90
        2
176
     1
 62
     7
176
     1
 90
        3
176
     1
 90
        0
176
     1
 90
        0
176
     1
290
     0
176
     1
 90
        1
176
     1
 40
0.0
176
     1
 90
        0
176
     1
290
     0
176
     1
290
     1
176
     1
290
     1
176
     1
290
     0
176
     1
290
     0
176
     1
290
     0
176
     1
290
     0
176
     1
290
     0
176
     1
290
     0
176
     1
 90
       50
176
     1
 40
0.0
176
     1
 40
1.0
176
     1
 90
        0
176
     1
 62
    18
420
        0
176
     1
 90
       50
176
     1
 90
        3
176
     1
 62
     5
420
      255
176
     1
290
     0
176
     1
 90
       50
176
     1
 90
       50
176
     1
 90
       50
176
     1
290
     0
176
     1
 90
       50
176
     1
 62
   256
176
     0
 40
1.0
176
     0
 90
        2
176
     1
  1
strokes_ogs.tif
176
     1
290
     0
176
     1
 40
1.0
176
     1
 40
1.0
176
     1
1001
ACAD
1000
AcDbSavedByObjectVersion
1070
     0
  0
VISUALSTYLE
  5
34
102
{ACAD_REACTORS
330
29
102
}
330
29
100
AcDbVisualStyle
  2
Dim
 70
    11
177
     3
291
     1
 70
    58
 90
        2
176
     1
 90
        2
176
     1
 90
        0
176
     1
 90
        0
176
     1
 40
0.6
176
     1
 40
30.0
176
     1
 62
     7
420
 16777215
176
     1
 90
        1
176
     1
 90
        4
176
     1
 62
     7
176
     1
 62
   257
176
     1
 90
        1
176
     1
 90
        1
176
     1
 40
1.0
176
     1
 90
        8
176
     1
 62
     7
176
     1
 40
1.0
176
     1
 90
        1
176
     1
 90
        6
176
     1
 90
        2
176
     1
 62
     7
176
     1
 90
        5
176
     1
 90
        0
176
     1
 90
        0
176
     1
290
     0
176
     1
 90
        1
176
     1
 40
-50.0
176
     1
 90
        0
176
     1
290
     0
176
     1
290
     1
176
     1
290
     1
176
     1
290
     0
176
     1
290
     0
176
     1
290
     0
176
     1
290
     0
176
     1
290
     0
176
     1
290
     0
176
     1
 90
       50
176
     1
 40
0.0
176
     1
 40
1.0
176
     1
 90
        0
176
     1
 62
    18
420
        0
176
     1
 90
       50
176
     1
 90
        3
176
     1
 62
     5
420
      255
176
     1
290
     0
176
     1
 90
       50
176
     1
 90
       50
176
     1
 90
       50
176
     1
290
     0
176
     1
 90
       50
176
     1
 62
   256
176
     0
 40
1.0
176
     0
 90
        2
176
     1
  1
strokes_ogs.tif
176
     1
290
     0
176
     1
 40
1.0
176
     1
 40
1.0
176
     1
1001
ACAD
1000
AcDbSavedByObjectVersion
1070
     0
  0
VISUALSTYLE
  5
41
102
{ACAD_REACTORS
330
29
102
}
330
29
100
AcDbVisualStyle
  2
EdgeColorOff
 70
    22
177
     3
291
     1
 70
    58
 90
        2
176
     0
 90
        2
176
     0
 90
        0
176
     0
 90
        0
176
     0
 40
0.6
176
     0
 40
30.0
176
     0
 62
     7
420
 16777215
176
     0
 90
        1
176
     0
 90
        4
176
     0
 62
     7
176
     0
 62
   257
176
     0
 90
        1
176
     0
 90
        1
176
     0
 40
1.0
176
     0
 90
        8
176
     2
 62
     7
176
     0
 40
1.0
176
     0
 90
        1
176
     0
 90
        6
176
     0
 90
        2
176
     0
 62
     7
176
     0
 90
        5
176
     0
 90
        0
176
     0
 90
        0
176
     0
290
     0
176
     0
 90
        1
176
     0
 40
0.0
176
     0
 90
        0
176
     0
290
     0
176
     0
290
     1
176
     0
290
     1
176
     0
290
     0
176
     0
290
     0
176
     0
290
     0
176
     0
290
     0
176
     0
290
     0
176
     0
290
     0
176
     0
 90
       50
176
     0
 40
0.0
176
     0
 40
1.0
176
     0
 90
        0
176
     0
 62
    18
420
        0
176
     0
 90
       50
176
     0
 90
        3
176
     0
 62
     5
420
      255
176
     0
290
     0
176
     0
 90
       50
176
     0
 90
       50
176
     0
 90
       50
176
     0
290
     0
176
     0
 90
       50
176
     0
 62
   256
176
     0
 40
1.0
176
     0
 90
        2
176
     0
  1
strokes_ogs.tif
176
     0
290
     0
176
     0
 40
1.0
176
     0
 40
1.0
176
     0
1001
ACAD
1000
AcDbSavedByObjectVersion
1070
     0
  0
VISUALSTYLE
  5
38
102
{ACAD_REACTORS
330
29
102
}
330
29
100
AcDbVisualStyle
  2
Facepattern
 70
    15
177
     3
291
     1
 70
    58
 90
        2
176
     1
 90
        2
176
     1
 90
        0
176
     1
 90
        0
176
     1
 40
0.6
176
     1
 40
30.0
176
     1
 62
     7
420
 16777215
176
     1
 90
        1
176
     1
 90
        4
176
     1
 62
     7
176
     1
 62
   257
176
     1
 90
        1
176
     1
 90
        1
176
     1
 40
1.0
176
     1
 90
        8
176
     1
 62
     7
176
     1
 40
1.0
176
     1
 90
        1
176
     1
 90
        6
176
     1
 90
        2
176
     1
 62
     7
176
     1
 90
        5
176
     1
 90
        0
176
     1
 90
        0
176
     1
290
     0
176
     1
 90
        1
176
     1
 40
0.0
176
     1
 90
        0
176
     1
290
     0
176
     1
290
     1
176
     1
290
     1
176
     1
290
     0
176
     1
290
     0
176
     1
290
     0
176
     1
290
     0
176
     1
290
     0
176
     1
290
     0
176
     1
 90
       50
176
     1
 40
0.0
176
     1
 40
1.0
176
     1
 90
        0
176
     1
 62
    18
420
        0
176
     1
 90
       50
176
     1
 90
        3
176
     1
 62
     5
420
      255
176
     1
290
     0
176
     1
 90
       50
176
     1
 90
       50
176
     1
 90
       50
176
     1
290
     0
176
     1
 90
       50
176
     1
 62
   256
176
     0
 40
1.0
176
     0
 90
        2
176
     1
  1
strokes_ogs.tif
176
     1
290
     0
176
     1
 40
1.0
176
     1
 40
1.0
176
     1
1001
ACAD
1000
AcDbSavedByObjectVersion
1070
     0
  0
VISUALSTYLE
  5
2A
102
{ACAD_REACTORS
330
29
102
}
330
29
100
AcDbVisualStyle
  2
Flat
 70
     0
177
     3
291
     1
 70
    58
 90
        2
176
     1
 90
        1
176
     1
 90
        1
176
     1
 90
        2
176
     1
 40
0.6
176
     1
 40
30.0
176
     1
 62
     7
420
 16777215
176
     1
 90
        0
176
     1
 90
        0
176
     1
 62
     7
176
     1
 62
   257
176
     1
 90
        1
176
     1
 90
        1
176
     1
 40
1.0
176
     1
 90
        8
176
     1
 62
     7
176
     1
 40
1.0
176
     1
 90
        1
176
     1
 90
        6
176
     1
 90
        2
176
     1
 62
     7
176
     1
 90
        5
176
     1
 90
        0
176
     1
 90
        0
176
     1
290
     0
176
     1
 90
       13
176
     1
 40
0.0
176
     1
 90
        0
176
     1
290
     0
176
     1
290
     1
176
     1
290
     1
176
     1
290
     0
176
     1
290
     0
176
     1
290
     0
176
     1
290
     0
176
     1
290
     0
176
     1
290
     0
176
     1
 90
       50
176
     1
 40
0.0
176
     1
 40
1.0
176
     1
 90
        0
176
     1
 62
    18
420
        0
176
     1
 90
       50
176
     1
 90
        3
176
     1
 62
     5
420
      255
176
     1
290
     0
176
     1
 90
       50
176
     1
 90
       50
176
     1
 90
       50
176
     1
290
     0
176
     1
 90
       50
176
     1
 62
   256
176
     0
 40
1.0
176
     0
 90
        2
176
     1
  1
strokes_ogs.tif
176
     1
290
     0
176
     1
 40
1.0
176
     1
 40
1.0
176
     1
1001
ACAD
1000
AcDbSavedByObjectVersion
1070
     0
  0
VISUALSTYLE
  5
2B
102
{ACAD_REACTORS
330
29
102
}
330
29
100
AcDbVisualStyle
  2
FlatWithEdges
 70
     1
177
     3
291
     1
 70
    58
 90
        2
176
     1
 90
        1
176
     1
 90
        1
176
     1
 90
        2
176
     1
 40
0.6
176
     1
 40
30.0
176
     1
 62
     7
420
 16777215
176
     1
 90
        1
176
     1
 90
        0
176
     1
 62
     7
176
     1
 62
   257
176
     1
 90
        1
176
     1
 90
        1
176
     1
 40
1.0
176
     1
 90
        0
176
     1
 62
   257
176
     1
 40
1.0
176
     1
 90
        1
176
     1
 90
        6
176
     1
 90
        2
176
     1
 62
     7
176
     1
 90
        5
176
     1
 90
        0
176
     1
 90
        0
176
     1
290
     0
176
     1
 90
       13
176
     1
 40
0.0
176
     1
 90
        0
176
     1
290
     0
176
     1
290
     1
176
     1
290
     1
176
     1
290
     0
176
     1
290
     0
176
     1
290
     0
176
     1
290
     0
176
     1
290
     0
176
     1
290
     0
176
     1
 90
       50
176
     1
 40
0.0
176
     1
 40
1.0
176
     1
 90
        0
176
     1
 62
    18
420
        0
176
     1
 90
       50
176
     1
 90
        3
176
     1
 62
     5
420
      255
176
     1
290
     0
176
     1
 90
       50
176
     1
 90
       50
176
     1
 90
       50
176
     1
290
     0
176
     1
 90
       50
176
     1
 62
   256
176
     0
 40
1.0
176
     0
 90
        2
176
     1
  1
strokes_ogs.tif
176
     1
290
     0
176
     1
 40
1.0
176
     1
 40
1.0
176
     1
1001
ACAD
1000
AcDbSavedByObjectVersion
1070
     0
  0
VISUALSTYLE
  5
2C
102
{ACAD_REACTORS
330
29
102
}
330
29
100
AcDbVisualStyle
  2
Gouraud
 70
     2
177
     3
291
     1
 70
    58
 90
        2
176
     1
 90
        2
176
     1
 90
        1
176
     1
 90
        2
176
     1
 40
0.6
176
     1
 40
30.0
176
     1
 62
     7
420
 16777215
176
     1
 90
        0
176
     1
 90
        0
176
     1
 62
     7
176
     1
 62
   257
176
     1
 90
        1
176
     1
 90
        1
176
     1
 40
1.0
176
     1
 90
        0
176
     1
 62
     7
176
     1
 40
1.0
176
     1
 90
        1
176
     1
 90
        6
176
     1
 90
        2
176
     1
 62
     7
176
     1
 90
        5
176
     1
 90
        0
176
     1
 90
        0
176
     1
290
     0
176
     1
 90
       13
176
     1
 40
0.0
176
     1
 90
        0
176
     1
290
     0
176
     1
290
     1
176
     1
290
     1
176
     1
290
     0
176
     1
290
     0
176
     1
290
     0
176
     1
290
     0
176
     1
290
     0
176
     1
290
     0
176
     1
 90
       50
176
     1
 40
0.0
176
     1
 40
1.0
176
     1
 90
        0
176
     1
 62
    18
420
        0
176
     1
 90
       50
176
     1
 90
        3
176
     1
 62
     5
420
      255
176
     1
290
     0
176
     1
 90
       50
176
     1
 90
       50
176
     1
 90
       50
176
     1
290
     0
176
     1
 90
       50
176
     1
 62
   256
176
     0
 40
1.0
176
     0
 90
        2
176
     1
  1
strokes_ogs.tif
176
     1
290
     0
176
     1
 40
1.0
176
     1
 40
1.0
176
     1
1001
ACAD
1000
AcDbSavedByObjectVersion
1070
     0
  0
VISUALSTYLE
  5
2D
102
{ACAD_REACTORS
330
29
102
}
330
29
100
AcDbVisualStyle
  2
GouraudWithEdges
 70
     3
177
     3
291
     1
 70
    58
 90
        2
176
     1
 90
        2
176
     1
 90
        1
176
     1
 90
        2
176
     1
 40
0.6
176
     1
 40
30.0
176
     1
 62
     7
420
 16777215
176
     1
 90
        1
176
     1
 90
        0
176
     1
 62
     7
176
     1
 62
   257
176
     1
 90
        1
176
     1
 90
        1
176
     1
 40
1.0
176
     1
 90
        0
176
     1
 62
   257
176
     1
 40
1.0
176
     1
 90
        1
176
     1
 90
        6
176
     1
 90
        2
176
     1
 62
     7
176
     1
 90
        5
176
     1
 90
        0
176
     1
 90
        0
176
     1
290
     0
176
     1
 90
       13
176
     1
 40
0.0
176
     1
 90
        0
176
     1
290
     0
176
     1
290
     1
176
     1
290
     1
176
     1
290
     0
176
     1
290
     0
176
     1
290
     0
176
     1
290
     0
176
     1
290
     0
176
     1
290
     0
176
     1
 90
       50
176
     1
 40
0.0
176
     1
 40
1.0
176
     1
 90
        0
176
     1
 62
    18
420
        0
176
     1
 90
       50
176
     1
 90
        3
176
     1
 62
     5
420
      255
176
     1
290
     0
176
     1
 90
       50
176
     1
 90
       50
176
     1
 90
       50
176
     1
290
     0
176
     1
 90
       50
176
     1
 62
   256
176
     0
 40
1.0
176
     0
 90
        2
176
     1
  1
strokes_ogs.tif
176
     1
290
     0
176
     1
 40
1.0
176
     1
 40
1.0
176
     1
1001
ACAD
1000
AcDbSavedByObjectVersion
1070
     0
  0
VISUALSTYLE
  5
31
102
{ACAD_REACTORS
330
29
102
}
330
29
100
AcDbVisualStyle
  2
Hidden
 70
     6
177
     3
291
     0
 70
    58
 90
        1
176
     1
 90
        2
176
     1
 90
        2
176
     1
 90
        0
176
     1
 40
0.6
176
     1
 40
30.0
176
     1
 62
     7
420
 16777215
176
     1
 90
        2
176
     1
 90
        2
176
     1
 62
     7
176
     1
 62
   257
176
     1
 90
        2
176
     1
 90
        1
176
     1
 40
40.0
176
     1
 90
        0
176
     1
 62
   257
176
     1
 40
1.0
176
     1
 90
        1
176
     1
 90
        6
176
     1
 90
        2
176
     1
 62
     7
176
     1
 90
        3
176
     1
 90
        0
176
     1
 90
        0
176
     1
290
     0
176
     1
 90
        1
176
     1
 40
0.0
176
     1
 90
        0
176
     1
290
     0
176
     1
290
     1
176
     1
290
     1
176
     1
290
     0
176
     1
290
     0
176
     1
290
     0
176
     1
290
     0
176
     1
290
     0
176
     1
290
     0
176
     1
 90
       50
176
     1
 40
0.0
176
     1
 40
1.0
176
     1
 90
        0
176
     1
 62
    18
420
        0
176
     1
 90
       50
176
     1
 90
        3
176
     1
 62
     5
420
      255
176
     1
290
     0
176
     1
 90
       50
176
     1
 90
       50
176
     1
 90
       50
176
     1
290
     0
176
     1
 90
       50
176
     1
 62
   256
176
     0
 40
1.0
176
     0
 90
        2
176
     1
  1
strokes_ogs.tif
176
     1
290
     0
176
     1
 40
1.0
176
     1
 40
1.0
176
     1
1001
ACAD
1000
AcDbSavedByObjectVersion
1070
     0
  0
VISUALSTYLE
  5
3F
102
{ACAD_REACTORS
330
29
102
}
330
29
100
AcDbVisualStyle
  2
JitterOff
 70
    20
177
     3
291
     1
 70
    58
 90
        2
176
     0
 90
        2
176
     0
 90
        0
176
     0
 90
        0
176
     0
 40
0.6
176
     0
 40
30.0
176
     0
 62
     7
420
 16777215
176
     0
 90
        1
176
     0
 90
        4
176
     0
 62
     7
176
     0
 62
   257
176
     0
 90
        1
176
     0
 90
        1
176
     0
 40
1.0
176
     0
 90
       10
176
     2
 62
     7
176
     0
 40
1.0
176
     0
 90
        1
176
     0
 90
        6
176
     0
 90
        2
176
     0
 62
     7
176
     0
 90
        5
176
     0
 90
        0
176
     0
 90
        0
176
     0
290
     0
176
     0
 90
        1
176
     0
 40
0.0
176
     0
 90
        0
176
     0
290
     0
176
     0
290
     1
176
     0
290
     1
176
     0
290
     0
176
     0
290
     0
176
     0
290
     0
176
     0
290
     0
176
     0
290
     0
176
     0
290
     0
176
     0
 90
       50
176
     0
 40
0.0
176
     0
 40
1.0
176
     0
 90
        0
176
     0
 62
    18
420
        0
176
     0
 90
       50
176
     0
 90
        3
176
     0
 62
     5
420
      255
176
     0
290
     0
176
     0
 90
       50
176
     0
 90
       50
176
     0
 90
       50
176
     0
290
     0
176
     0
 90
       50
176
     0
 62
   256
176
     0
 40
1.0
176
     0
 90
        2
176
     0
  1
strokes_ogs.tif
176
     0
290
     0
176
     0
 40
1.0
176
     0
 40
1.0
176
     0
1001
ACAD
1000
AcDbSavedByObjectVersion
1070
     0
  0
VISUALSTYLE
  5
37
102
{ACAD_REACTORS
330
29
102
}
330
29
100
AcDbVisualStyle
  2
Linepattern
 70
    14
177
     3
291
     1
 70
    58
 90
        2
176
     1
 90
        2
176
     1
 90
        0
176
     1
 90
        0
176
     1
 40
0.6
176
     1
 40
30.0
176
     1
 62
     7
420
 16777215
176
     1
 90
        1
176
     1
 90
        4
176
     1
 62
     7
176
     1
 62
   257
176
     1
 90
        7
176
     1
 90
        7
176
     1
 40
1.0
176
     1
 90
        8
176
     1
 62
     7
176
     1
 40
1.0
176
     1
 90
        1
176
     1
 90
        6
176
     1
 90
        2
176
     1
 62
     7
176
     1
 90
        5
176
     1
 90
        0
176
     1
 90
        0
176
     1
290
     0
176
     1
 90
        1
176
     1
 40
0.0
176
     1
 90
        0
176
     1
290
     0
176
     1
290
     1
176
     1
290
     1
176
     1
290
     0
176
     1
290
     0
176
     1
290
     0
176
     1
290
     0
176
     1
290
     0
176
     1
290
     0
176
     1
 90
       50
176
     1
 40
0.0
176
     1
 40
1.0
176
     1
 90
        0
176
     1
 62
    18
420
        0
176
     1
 90
       50
176
     1
 90
        3
176
     1
 62
     5
420
      255
176
     1
290
     0
176
     1
 90
       50
176
     1
 90
       50
176
     1
 90
       50
176
     1
290
     0
176
     1
 90
       50
176
     1
 62
   256
176
     0
 40
1.0
176
     0
 90
        2
176
     1
  1
strokes_ogs.tif
176
     1
290
     0
176
     1
 40
1.0
176
     1
 40
1.0
176
     1
1001
ACAD
1000
AcDbSavedByObjectVersion
1070
     0
  0
VISUALSTYLE
  5
40
102
{ACAD_REACTORS
330
29
102
}
330
29
100
AcDbVisualStyle
  2
OverhangOff
 70
    21
177
     3
291
     1
 70
    58
 90
        2
176
     0
 90
        2
176
     0
 90
        0
176
     0
 90
        0
176
     0
 40
0.6
176
     0
 40
30.0
176
     0
 62
     7
420
 16777215
176
     0
 90
        1
176
     0
 90
        4
176
     0
 62
     7
176
     0
 62
   257
176
     0
 90
        1
176
     0
 90
        1
176
     0
 40
1.0
176
     0
 90
        9
176
     2
 62
     7
176
     0
 40
1.0
176
     0
 90
        1
176
     0
 90
        6
176
     0
 90
        2
176
     0
 62
     7
176
     0
 90
        5
176
     0
 90
        0
176
     0
 90
        0
176
     0
290
     0
176
     0
 90
        1
176
     0
 40
0.0
176
     0
 90
        0
176
     0
290
     0
176
     0
290
     1
176
     0
290
     1
176
     0
290
     0
176
     0
290
     0
176
     0
290
     0
176
     0
290
     0
176
     0
290
     0
176
     0
290
     0
176
     0
 90
       50
176
     0
 40
0.0
176
     0
 40
1.0
176
     0
 90
        0
176
     0
 62
    18
420
        0
176
     0
 90
       50
176
     0
 90
        3
176
     0
 62
     5
420
      255
176
     0
290
     0
176
     0
 90
       50
176
     0
 90
       50
176
     0
 90
       50
176
     0
290
     0
176
     0
 90
       50
176
     0
 62
   256
176
     0
 40
1.0
176
     0
 90
        2
176
     0
  1
strokes_ogs.tif
176
     0
290
     0
176
     0
 40
1.0
176
     0
 40
1.0
176
     0
1001
ACAD
1000
AcDbSavedByObjectVersion
1070
     0
  0
VISUALSTYLE
  5
33
102
{ACAD_REACTORS
330
29
102
}
330
29
100
AcDbVisualStyle
  2
Realistic
 70
     8
177
     3
291
     0
 70
    58
 90
        2
176
     1
 90
        3
176
     1
 90
        0
176
     1
 90
        2
176
     1
 40
0.6
176
     1
 40
30.0
176
     1
 62
     7
420
 16777215
176
     1
 90
        0
176
     1
 90
        0
176
     1
 62
     7
176
     1
 62
   257
176
     1
 90
        1
176
     1
 90
        1
176
     1
 40
1.0
176
     1
 90
        8
176
     1
 62
   257
176
     1
 40
1.0
176
     1
 90
        1
176
     1
 90
        6
176
     1
 90
        2
176
     1
 62
     7
176
     1
 90
        3
176
     1
 90
        0
176
     1
 90
        0
176
     1
290
     0
176
     1
 90
       13
176
     1
 40
0.0
176
     1
 90
        0
176
     1
290
     0
176
     1
290
     1
176
     1
290
     1
176
     1
290
     0
176
     1
290
     0
176
     1
290
     0
176
     1
290
     0
176
     1
290
     0
176
     1
290
     0
176
     1
 90
       50
176
     1
 40
0.0
176
     1
 40
1.0
176
     1
 90
        0
176
     1
 62
    18
420
        0
176
     1
 90
       50
176
     1
 90
        3
176
     1
 62
     5
420
      255
176
     1
290
     0
176
     1
 90
       50
176
     1
 90
       50
176
     1
 90
       50
176
     1
290
     0
176
     1
 90
       50
176
     1
 62
   256
176
     0
 40
1.0
176
     0
 90
        2
176
     1
  1
strokes_ogs.tif
176
     1
290
     0
176
     1
 40
1.0
176
     1
 40
1.0
176
     1
1001
ACAD
1000
AcDbSavedByObjectVersion
1070
     0
  0
VISUALSTYLE
  5
3E
102
{ACAD_REACTORS
330
29
102
}
330
29
100
AcDbVisualStyle
  2
Shaded
 70
    27
177
     3
291
     0
 70
    58
 90
        2
176
     1
 90
        2
176
     1
 90
        1
176
     1
 90
        2
176
     1
 40
0.6
176
     1
 40
30.0
176
     1
 62
     7
420
 16777215
176
     1
 90
        0
176
     1
 90
        4
176
     1
 62
     7
176
     1
 62
   257
176
     1
 90
        1
176
     1
 90
        1
176
     1
 40
1.0
176
     1
 90
        8
176
     1
 62
   257
176
     1
 40
1.0
176
     1
 90
        1
176
     1
 90
        6
176
     1
 90
        2
176
     1
 62
     8
420
  7895160
176
     1
 90
        3
176
     1
 90
        0
176
     1
 90
        0
176
     1
290
     0
176
     1
 90
        5
176
     1
 40
0.0
176
     1
 90
        0
176
     1
290
     0
176
     1
290
     1
176
     1
290
     1
176
     1
290
     0
176
     1
290
     0
176
     1
290
     0
176
     1
290
     0
176
     1
290
     0
176
     1
290
     0
176
     1
 90
       50
176
     1
 40
0.0
176
     1
 40
1.0
176
     1
 90
        0
176
     1
 62
    18
420
        0
176
     1
 90
       50
176
     1
 90
        3
176
     1
 62
     5
420
      255
176
     1
290
     0
176
     1
 90
       50
176
     1
 90
       50
176
     1
 90
       50
176
     1
290
     0
176
     1
 90
       50
176
     1
 62
   256
176
     0
 40
1.0
176
     0
 90
        2
176
     1
  1
strokes_ogs.tif
176
     1
290
     0
176
     1
 40
1.0
176
     1
 40
1.0
176
     1
1001
ACAD
1000
AcDbSavedByObjectVersion
1070
     0
  0
VISUALSTYLE
  5
3D
102
{ACAD_REACTORS
330
29
102
}
330
29
100
AcDbVisualStyle
  2
Shaded with edges
 70
    26
177
     3
291
     0
 70
    58
 90
        2
176
     1
 90
        2
176
     1
 90
        1
176
     1
 90
        2
176
     1
 40
0.6
176
     1
 40
30.0
176
     1
 62
     7
420
 16777215
176
     1
 90
        1
176
     1
 90
        2
176
     1
 62
     7
176
     1
 62
   257
176
     1
 90
        2
176
     1
 90
        1
176
     1
 40
1.0
176
     1
 90
        8
176
     1
 62
   257
176
     1
 40
1.0
176
     1
 90
        1
176
     1
 90
        6
176
     1
 90
        2
176
     1
 62
     7
176
     1
 90
        3
176
     1
 90
        0
176
     1
 90
        0
176
     1
290
     0
176
     1
 90
        5
176
     1
 40
0.0
176
     1
 90
        0
176
     1
290
     0
176
     1
290
     1
176
     1
290
     1
176
     1
290
     0
176
     1
290
     0
176
     1
290
     0
176
     1
290
     0
176
     1
290
     0
176
     1
290
     0
176
     1
 90
       50
176
     1
 40
0.0
176
     1
 40
1.0
176
     1
 90
        0
176
     1
 62
    18
420
        0
176
     1
 90
       50
176
     1
 90
        3
176
     1
 62
     5
420
      255
176
     1
290
     0
176
     1
 90
       50
176
     1
 90
       50
176
     1
 90
       50
176
     1
290
     0
176
     1
 90
       50
176
     1
 62
   256
176
     0
 40
1.0
176
     0
 90
        2
176
     1
  1
strokes_ogs.tif
176
     1
290
     0
176
     1
 40
1.0
176
     1
 40
1.0
176
     1
1001
ACAD
1000
AcDbSavedByObjectVersion
1070
     0
  0
VISUALSTYLE
  5
3A
102
{ACAD_REACTORS
330
29
102
}
330
29
100
AcDbVisualStyle
  2
Shades of Gray
 70
    23
177
     3
291
     0
 70
    58
 90
        2
176
     1
 90
        2
176
     1
 90
        3
176
     1
 90
        0
176
     1
 40
0.6
176
     1
 40
30.0
176
     1
 62
     7
420
 16777215
176
     1
 90
        2
176
     1
 90
        2
176
     1
 62
     7
176
     1
 62
     7
176
     1
 90
        1
176
     1
 90
        1
176
     1
 40
40.0
176
     1
 90
        8
176
     1
 62
     7
176
     1
 40
1.0
176
     1
 90
        1
176
     1
 90
        6
176
     1
 90
        2
176
     1
 62
     7
176
     1
 90
        3
176
     1
 90
        0
176
     1
 90
        0
176
     1
290
     0
176
     1
 90
        1
176
     1
 40
0.0
176
     1
 90
        0
176
     1
290
     0
176
     1
290
     1
176
     1
290
     1
176
     1
290
     0
176
     1
290
     0
176
     1
290
     0
176
     1
290
     0
176
     1
290
     0
176
     1
290
     0
176
     1
 90
       50
176
     1
 40
0.0
176
     1
 40
1.0
176
     1
 90
        0
176
     1
 62
    18
420
        0
176
     1
 90
       50
176
     1
 90
        3
176
     1
 62
     5
420
      255
176
     1
290
     0
176
     1
 90
       50
176
     1
 90
       50
176
     1
 90
       50
176
     1
290
     0
176
     1
 90
       50
176
     1
 62
   256
176
     0
 40
1.0
176
     0
 90
        2
176
     1
  1
strokes_ogs.tif
176
     1
290
     0
176
     1
 40
1.0
176
     1
 40
1.0
176
     1
1001
ACAD
1000
AcDbSavedByObjectVersion
1070
     0
  0
VISUALSTYLE
  5
3B
102
{ACAD_REACTORS
330
29
102
}
330
29
100
AcDbVisualStyle
  2
Sketchy
 70
    24
177
     3
291
     0
 70
    58
 90
        1
176
     1
 90
        2
176
     1
 90
        2
176
     1
 90
        0
176
     1
 40
0.6
176
     1
 40
30.0
176
     1
 62
     7
420
 16777215
176
     1
 90
        2
176
     1
 90
        2
176
     1
 62
     7
176
     1
 62
     7
176
     1
 90
        1
176
     1
 90
        1
176
     1
 40
40.0
176
     1
 90
       11
176
     1
 62
     7
176
     1
 40
1.0
176
     1
 90
        1
176
     1
 90
        6
176
     1
 90
        2
176
     1
 62
     7
176
     1
 90
        6
176
     1
 90
        0
176
     1
 90
        0
176
     1
290
     0
176
     1
 90
        1
176
     1
 40
0.0
176
     1
 90
        0
176
     1
290
     0
176
     1
290
     1
176
     1
290
     1
176
     1
290
     0
176
     1
290
     0
176
     1
290
     0
176
     1
290
     0
176
     1
290
     0
176
     1
290
     0
176
     1
 90
       50
176
     1
 40
0.0
176
     1
 40
1.0
176
     1
 90
        0
176
     1
 62
    18
420
        0
176
     1
 90
       50
176
     1
 90
        3
176
     1
 62
     5
420
      255
176
     1
290
     0
176
     1
 90
       50
176
     1
 90
       50
176
     1
 90
       50
176
     1
290
     0
176
     1
 90
       50
176
     1
 62
   256
176
     0
 40
1.0
176
     0
 90
        2
176
     1
  1
strokes_ogs.tif
176
     1
290
     0
176
     1
 40
1.0
176
     1
 40
1.0
176
     1
1001
ACAD
1000
AcDbSavedByObjectVersion
1070
     0
  0
VISUALSTYLE
  5
36
102
{ACAD_REACTORS
330
29
102
}
330
29
100
AcDbVisualStyle
  2
Thicken
 70
    13
177
     3
291
     1
 70
    58
 90
        2
176
     1
 90
        2
176
     1
 90
        0
176
     1
 90
        0
176
     1
 40
0.6
176
     1
 40
30.0
176
     1
 62
     7
420
 16777215
176
     1
 90
        1
176
     1
 90
        4
176
     1
 62
     7
176
     1
 62
   257
176
     1
 90
        1
176
     1
 90
        1
176
     1
 40
1.0
176
     1
 90
       12
176
     1
 62
     7
176
     1
 40
1.0
176
     1
 90
        1
176
     1
 90
        6
176
     1
 90
        2
176
     1
 62
     7
176
     1
 90
        5
176
     1
 90
        0
176
     1
 90
        0
176
     1
290
     0
176
     1
 90
        1
176
     1
 40
0.0
176
     1
 90
        0
176
     1
290
     0
176
     1
290
     1
176
     1
290
     1
176
     1
290
     0
176
     1
290
     0
176
     1
290
     0
176
     1
290
     0
176
     1
290
     0
176
     1
290
     0
176
     1
 90
       50
176
     1
 40
0.0
176
     1
 40
1.0
176
     1
 90
        0
176
     1
 62
    18
420
        0
176
     1
 90
       50
176
     1
 90
        3
176
     1
 62
     5
420
      255
176
     1
290
     0
176
     1
 90
       50
176
     1
 90
       50
176
     1
 90
       50
176
     1
290
     0
176
     1
 90
       50
176
     1
 62
   256
176
     0
 40
1.0
176
     0
 90
        2
176
     1
  1
strokes_ogs.tif
176
     1
290
     0
176
     1
 40
1.0
176
     1
 40
1.0
176
     1
1001
ACAD
1000
AcDbSavedByObjectVersion
1070
     0
  0
VISUALSTYLE
  5
30
102
{ACAD_REACTORS
330
29
102
}
330
29
100
AcDbVisualStyle
  2
Wireframe
 70
     5
177
     3
291
     0
 70
    58
 90
        0
176
     1
 90
        2
176
     1
 90
        0
176
     1
 90
        0
176
     1
 40
0.6
176
     1
 40
30.0
176
     1
 62
     7
420
 16777215
176
     1
 90
        1
176
     1
 90
        4
176
     1
 62
     7
176
     1
 62
   257
176
     1
 90
        1
176
     1
 90
        1
176
     1
 40
1.0
176
     1
 90
        0
176
     1
 62
   257
176
     1
 40
1.0
176
     1
 90
        1
176
     1
 90
        6
176
     1
 90
        2
176
     1
 62
     7
176
     1
 90
        3
176
     1
 90
        0
176
     1
 90
        0
176
     1
290
     0
176
     1
 90
        1
176
     1
 40
0.0
176
     1
 90
        0
176
     1
290
     0
176
     1
290
     1
176
     1
290
     1
176
     1
290
     0
176
     1
290
     0
176
     1
290
     0
176
     1
290
     0
176
     1
290
     0
176
     1
290
     0
176
     1
 90
       50
176
     1
 40
0.0
176
     1
 40
1.0
176
     1
 90
        0
176
     1
 62
    18
420
        0
176
     1
 90
       50
176
     1
 90
        3
176
     1
 62
     5
420
      255
176
     1
290
     0
176
     1
 90
       50
176
     1
 90
       50
176
     1
 90
       50
176
     1
290
     0
176
     1
 90
       50
176
     1
 62
   256
176
     0
 40
1.0
176
     0
 90
        2
176
     1
  1
strokes_ogs.tif
176
     1
290
     0
176
     1
 40
1.0
176
     1
 40
1.0
176
     1
1001
ACAD
1000
AcDbSavedByObjectVersion
1070
     0
  0
VISUALSTYLE
  5
3C
102
{ACAD_REACTORS
330
29
102
}
330
29
100
AcDbVisualStyle
  2
X-Ray
 70
    25
177
     3
291
     0
 70
    58
 90
        2
176
     1
 90
        2
176
     1
 90
        1
176
     1
 90
        1
176
     1
 40
0.5
176
     1
 40
30.0
176
     1
 62
     7
420
 16777215
176
     1
 90
        1
176
     1
 90
        0
176
     1
 62
     7
176
     1
 62
   257
176
     1
 90
        1
176
     1
 90
        1
176
     1
 40
1.0
176
     1
 90
        8
176
     1
 62
     7
176
     1
 40
1.0
176
     1
 90
        1
176
     1
 90
        6
176
     1
 90
        2
176
     1
 62
     7
176
     1
 90
        3
176
     1
 90
        0
176
     1
 90
        0
176
     1
290
     0
176
     1
 90
       13
176
     1
 40
0.0
176
     1
 90
        0
176
     1
290
     0
176
     1
290
     1
176
     1
290
     1
176
     1
290
     0
176
     1
290
     0
176
     1
290
     0
176
     1
290
     0
176
     1
290
     0
176
     1
290
     0
176
     1
 90
       50
176
     1
 40
0.0
176
     1
 40
1.0
176
     1
 90
        0
176
     1
 62
    18
420
        0
176
     1
 90
       50
176
     1
 90
        3
176
     1
 62
     5
420
      255
176
     1
290
     0
176
     1
 90
       50
176
     1
 90
       50
176
     1
 90
       50
176
     1
290
     0
176
     1
 90
       50
176
     1
 62
   256
176
     0
 40
1.0
176
     0
 90
        2
176
     1
  1
strokes_ogs.tif
176
     1
290
     0
176
     1
 40
1.0
176
     1
 40
1.0
176
     1
1001
ACAD
1000
AcDbSavedByObjectVersion
1070
     0
  0
DICTIONARYVAR
  5
17C
102
{ACAD_REACTORS
330
177
102
}
330
177
100
DictionaryVariables
280
     0
  1
1:1
  0
DICTIONARYVAR
  5
179
102
{ACAD_REACTORS
330
177
102
}
330
177
100
DictionaryVariables
280
     0
  1
STANDARD
  0
DICTIONARYVAR
  5
178
102
{ACAD_REACTORS
330
177
102
}
330
177
100
DictionaryVariables
280
     0
  1
STANDARD
  0
DICTIONARYVAR
  5
17A
102
{ACAD_REACTORS
330
177
102
}
330
177
100
DictionaryVariables
280
     0
  1
Imperial24
  0
DICTIONARYVAR
  5
17B
102
{ACAD_REACTORS
330
177
102
}
330
177
100
DictionaryVariables
280
     0
  1
Imperial24
  0
DICTIONARY
  5
1C0
330
6B
100
AcDbDictionary
280
     1
281
     1
  3
ACAD_XREC_ROUNDTRIP
360
1C1
  0
DICTIONARY
  5
1A
330
19
100
AcDbDictionary
280
     1
281
     1
  3
BUMPTILE
360
1C
  3
DIFFUSETILE
360
1B
  3
OPACITYTILE
360
1F
  3
REFLECTIONTILE
360
1E
  3
REFRACTIONTILE
360
20
  3
SPECULARTILE
360
1D
  0
DICTIONARY
  5
12
330
11
100
AcDbDictionary
280
     1
281
     1
  3
BUMPTILE
360
14
  3
DIFFUSETILE
360
13
  3
OPACITYTILE
360
17
  3
REFLECTIONTILE
360
16
  3
REFRACTIONTILE
360
18
  3
SPECULARTILE
360
15
  0
DICTIONARY
  5
22
330
21
100
AcDbDictionary
280
     1
281
     1
  3
BUMPTILE
360
24
  3
DIFFUSETILE
360
23
  3
OPACITYTILE
360
27
  3
REFLECTIONTILE
360
26
  3
REFRACTIONTILE
360
28
  3
SPECULARTILE
360
25
  0
DICTIONARY
  5
1BE
330
69
100
AcDbDictionary
280
     1
281
     1
  3
ACAD_XREC_ROUNDTRIP
360
1BF
  0
DICTIONARY
  5
1BB
330
65
100
AcDbDictionary
280
     1
281
     1
  3
ACAD_ROUNDTRIP_2008_TABLESTYLE_CELLSTYLEMAP
360
1BC
  0
XRECORD
  5
1C1
102
{ACAD_REACTORS
330
1C0
102
}
330
1C0
100
AcDbXrecord
280
     1
102
DISPLAYNAME
  1
Imperial24
102
FLAGS
 90
        0
  0
XRECORD
  5
1C
102
{ACAD_REACTORS
330
1A
102
}
330
1A
100
AcDbXrecord
280
     1
270
     1
271
     1
  0
XRECORD
  5
1B
102
{ACAD_REACTORS
330
1A
102
}
330
1A
100
AcDbXrecord
280
     1
270
     1
271
     1
  0
XRECORD
  5
1F
102
{ACAD_REACTORS
330
1A
102
}
330
1A
100
AcDbXrecord
280
     1
270
     1
271
     1
  0
XRECORD
  5
1E
102
{ACAD_REACTORS
330
1A
102
}
330
1A
100
AcDbXrecord
280
     1
270
     1
271
     1
  0
XRECORD
  5
20
102
{ACAD_REACTORS
330
1A
102
}
330
1A
100
AcDbXrecord
280
     1
270
     1
271
     1
  0
XRECORD
  5
1D
102
{ACAD_REACTORS
330
1A
102
}
330
1A
100
AcDbXrecord
280
     1
270
     1
271
     1
  0
XRECORD
  5
14
102
{ACAD_REACTORS
330
12
102
}
330
12
100
AcDbXrecord
280
     1
270
     1
271
     1
  0
XRECORD
  5
13
102
{ACAD_REACTORS
330
12
102
}
330
12
100
AcDbXrecord
280
     1
270
     1
271
     1
  0
XRECORD
  5
17
102
{ACAD_REACTORS
330
12
102
}
330
12
100
AcDbXrecord
280
     1
270
     1
271
     1
  0
XRECORD
  5
16
102
{ACAD_REACTORS
330
12
102
}
330
12
100
AcDbXrecord
280
     1
270
     1
271
     1
  0
XRECORD
  5
18
102
{ACAD_REACTORS
330
12
102
}
330
12
100
AcDbXrecord
280
     1
270
     1
271
     1
  0
XRECORD
  5
15
102
{ACAD_REACTORS
330
12
102
}
330
12
100
AcDbXrecord
280
     1
270
     1
271
     1
  0
XRECORD
  5
24
102
{ACAD_REACTORS
330
22
102
}
330
22
100
AcDbXrecord
280
     1
270
     1
271
     1
  0
XRECORD
  5
23
102
{ACAD_REACTORS
330
22
102
}
330
22
100
AcDbXrecord
280
     1
270
     1
271
     1
  0
XRECORD
  5
27
102
{ACAD_REACTORS
330
22
102
}
330
22
100
AcDbXrecord
280
     1
270
     1
271
     1
  0
XRECORD
  5
26
102
{ACAD_REACTORS
330
22
102
}
330
22
100
AcDbXrecord
280
     1
270
     1
271
     1
  0
XRECORD
  5
28
102
{ACAD_REACTORS
330
22
102
}
330
22
100
AcDbXrecord
280
     1
270
     1
271
     1
  0
XRECORD
  5
25
102
{ACAD_REACTORS
330
22
102
}
330
22
100
AcDbXrecord
280
     1
270
     1
271
     1
  0
XRECORD
  5
1BF
102
{ACAD_REACTORS
330
1BE
102
}
330
1BE
100
AcDbXrecord
280
     1
102
DISPLAYNAME
  1
Imperial24
102
FLAGS
 90
        0
  0
CELLSTYLEMAP
  5
1BC
102
{ACAD_REACTORS
330
1BB
102
}
330
1BB
100
AcDbCellStyleMap
 90
        3
300
CELLSTYLE
  1
TABLEFORMAT_BEGIN
 90
        5
170
     1
 91
        0
 92
    32768
 62
   257
 93
        1
300
CONTENTFORMAT
  1
CONTENTFORMAT_BEGIN
 90
        0
 91
        0
 92
      512
 93
        0
300

 40
0.0
140
1.0
 94
        5
 62
     0
340
55
144
0.25
309
CONTENTFORMAT_END
171
     0
 94
        0
309
TABLEFORMAT_END
  1
CELLSTYLE_BEGIN
 90
        1
 91
        1
300
_TITLE
309
CELLSTYLE_END
300
CELLSTYLE
  1
TABLEFORMAT_BEGIN
 90
        5
170
     1
 91
        0
 92
        0
 62
   257
 93
        1
300
CONTENTFORMAT
  1
CONTENTFORMAT_BEGIN
 90
        0
 91
        0
 92
      512
 93
        0
300

 40
0.0
140
1.0
 94
        5
 62
     0
340
55
144
0.18
309
CONTENTFORMAT_END
171
     0
 94
        0
309
TABLEFORMAT_END
  1
CELLSTYLE_BEGIN
 90
        2
 91
        1
300
_HEADER
309
CELLSTYLE_END
300
CELLSTYLE
  1
TABLEFORMAT_BEGIN
 90
        5
170
     1
 91
        0
 92
        0
 62
   257
 93
        1
300
CONTENTFORMAT
  1
CONTENTFORMAT_BEGIN
 90
        0
 91
        0
 92
      512
 93
        0
300

 40
0.0
140
1.0
 94
        2
 62
     0
340
55
144
0.18
309
CONTENTFORMAT_END
171
     0
 94
        0
309
TABLEFORMAT_END
  1
CELLSTYLE_BEGIN
 90
        3
 91
        2
300
_DATA
309
CELLSTYLE_END
  0
ENDSEC
  0
EOF
