  0
SECTION
  2
HEADER
  9
$ACADVER
  1
AC1032
  9
$ACADMAINTVER
 90
      199
  9
$DWGCODEPAGE
  3
ANSI_1252
  9
$LASTSAVEDBY
  1
ufficio.tecnico
  9
$REQUIREDVERSIONS
160
                 0
  9
$INSBASE
 10
0.0
 20
0.0
 30
0.0
  9
$EXTMIN
 10
7.080119661226253
 20
-17.6044017736252
 30
0.0
  9
$EXTMAX
 10
14.33010759033592
 20
-9.780436177229946
 30
0.0
  9
$LIMMIN
 10
0.0
 20
0.0
  9
$LIMMAX
 10
12.0
 20
9.0
  9
$ORTHOMODE
 70
     1
  9
$REGENMODE
 70
     1
  9
$FILLMODE
 70
     1
  9
$QTEXTMODE
 70
     0
  9
$MIRRTEXT
 70
     0
  9
$LTSCALE
 40
1.0
  9
$ATTMODE
 70
     1
  9
$TEXTSIZE
 40
0.2
  9
$TRACEWID
 40
0.05
  9
$TEXTSTYLE
  7
Standard
  9
$CLAYER
  8
0
  9
$CELTYPE
  6
ByLayer
  9
$CECOLOR
 62
   256
  9
$CELTSCALE
 40
1.0
  9
$DISPSILH
 70
     0
  9
$DIMSCALE
 40
1.0
  9
$DIMASZ
 40
0.18
  9
$DIMEXO
 40
0.0625
  9
$DIMDLI
 40
0.38
  9
$DIMRND
 40
0.0
  9
$DIMDLE
 40
0.0
  9
$DIMEXE
 40
0.18
  9
$DIMTP
 40
0.0
  9
$DIMTM
 40
0.0
  9
$DIMTXT
 40
0.18
  9
$DIMCEN
 40
0.09
  9
$DIMTSZ
 40
0.0
  9
$DIMTOL
 70
     0
  9
$DIMLIM
 70
     0
  9
$DIMTIH
 70
     1
  9
$DIMTOH
 70
     1
  9
$DIMSE1
 70
     0
  9
$DIMSE2
 70
     0
  9
$DIMTAD
 70
     0
  9
$DIMZIN
 70
     0
  9
$DIMBLK
  1

  9
$DIMASO
 70
     1
  9
$DIMSHO
 70
     1
  9
$DIMPOST
  1

  9
$DIMAPOST
  1

  9
$DIMALT
 70
     0
  9
$DIMALTD
 70
     2
  9
$DIMALTF
 40
25.4
  9
$DIMLFAC
 40
1.0
  9
$DIMTOFL
 70
     0
  9
$DIMTVP
 40
0.0
  9
$DIMTIX
 70
     0
  9
$DIMSOXD
 70
     0
  9
$DIMSAH
 70
     0
  9
$DIMBLK1
  1

  9
$DIMBLK2
  1

  9
$DIMSTYLE
  2
Standard
  9
$DIMCLRD
 70
     0
  9
$DIMCLRE
 70
     0
  9
$DIMCLRT
 70
     0
  9
$DIMTFAC
 40
1.0
  9
$DIMGAP
 40
0.09
  9
$DIMJUST
 70
     0
  9
$DIMSD1
 70
     0
  9
$DIMSD2
 70
     0
  9
$DIMTOLJ
 70
     1
  9
$DIMTZIN
 70
     0
  9
$DIMALTZ
 70
     0
  9
$DIMALTTZ
 70
     0
  9
$DIMUPT
 70
     0
  9
$DIMDEC
 70
     4
  9
$DIMTDEC
 70
     4
  9
$DIMALTU
 70
     2
  9
$DIMALTTD
 70
     2
  9
$DIMTXSTY
  7
Standard
  9
$DIMAUNIT
 70
     0
  9
$DIMADEC
 70
     0
  9
$DIMALTRND
 40
0.0
  9
$DIMAZIN
 70
     0
  9
$DIMDSEP
 70
    46
  9
$DIMATFIT
 70
     3
  9
$DIMFRAC
 70
     0
  9
$DIMLDRBLK
  1

  9
$DIMLUNIT
 70
     2
  9
$DIMLWD
 70
    -2
  9
$DIMLWE
 70
    -2
  9
$DIMTMOVE
 70
     0
  9
$DIMFXL
 40
1.0
  9
$DIMFXLON
 70
     0
  9
$DIMJOGANG
 40
0.7853981633974483
  9
$DIMTFILL
 70
     0
  9
$DIMTFILLCLR
 70
     0
  9
$DIMARCSYM
 70
     0
  9
$DIMLTYPE
  6

  9
$DIMLTEX1
  6

  9
$DIMLTEX2
  6

  9
$DIMTXTDIRECTION
 70
     0
  9
$LUNITS
 70
     2
  9
$LUPREC
 70
     4
  9
$SKETCHINC
 40
0.1
  9
$FILLETRAD
 40
0.0
  9
$AUNITS
 70
     0
  9
$AUPREC
 70
     0
  9
$MENU
  1
.
  9
$ELEVATION
 40
0.0
  9
$PELEVATION
 40
0.0
  9
$THICKNESS
 40
0.0
  9
$LIMCHECK
 70
     0
  9
$CHAMFERA
 40
0.0
  9
$CHAMFERB
 40
0.0
  9
$CHAMFERC
 40
0.0
  9
$CHAMFERD
 40
0.0
  9
$SKPOLY
 70
     0
  9
$TDCREATE
 40
2459858.679803240
  9
$TDUCREATE
 40
2459858.596469908
  9
$TDUPDATE
 40
2459913.578148148
  9
$TDUUPDATE
 40
2459913.536481482
  9
$TDINDWG
 40
0.0071759259
  9
$TDUSRTIMER
 40
0.0071759259
  9
$USRTIMER
 70
     1
  9
$ANGBASE
 50
0.0
  9
$ANGDIR
 70
     0
  9
$PDMODE
 70
     0
  9
$PDSIZE
 40
0.0
  9
$PLINEWID
 40
0.0
  9
$SPLFRAME
 70
     0
  9
$SPLINETYPE
 70
     6
  9
$SPLINESEGS
 70
     8
  9
$HANDSEED
  5
2A1
  9
$SURFTAB1
 70
     6
  9
$SURFTAB2
 70
     6
  9
$SURFTYPE
 70
     6
  9
$SURFU
 70
     6
  9
$SURFV
 70
     6
  9
$UCSBASE
  2

  9
$UCSNAME
  2

  9
$UCSORG
 10
0.0
 20
0.0
 30
0.0
  9
$UCSXDIR
 10
1.0
 20
0.0
 30
0.0
  9
$UCSYDIR
 10
0.0
 20
1.0
 30
0.0
  9
$UCSORTHOREF
  2

  9
$UCSORTHOVIEW
 70
     0
  9
$UCSORGTOP
 10
0.0
 20
0.0
 30
0.0
  9
$UCSORGBOTTOM
 10
0.0
 20
0.0
 30
0.0
  9
$UCSORGLEFT
 10
0.0
 20
0.0
 30
0.0
  9
$UCSORGRIGHT
 10
0.0
 20
0.0
 30
0.0
  9
$UCSORGFRONT
 10
0.0
 20
0.0
 30
0.0
  9
$UCSORGBACK
 10
0.0
 20
0.0
 30
0.0
  9
$PUCSBASE
  2

  9
$PUCSNAME
  2

  9
$PUCSORG
 10
0.0
 20
0.0
 30
0.0
  9
$PUCSXDIR
 10
1.0
 20
0.0
 30
0.0
  9
$PUCSYDIR
 10
0.0
 20
1.0
 30
0.0
  9
$PUCSORTHOREF
  2

  9
$PUCSORTHOVIEW
 70
     0
  9
$PUCSORGTOP
 10
0.0
 20
0.0
 30
0.0
  9
$PUCSORGBOTTOM
 10
0.0
 20
0.0
 30
0.0
  9
$PUCSORGLEFT
 10
0.0
 20
0.0
 30
0.0
  9
$PUCSORGRIGHT
 10
0.0
 20
0.0
 30
0.0
  9
$PUCSORGFRONT
 10
0.0
 20
0.0
 30
0.0
  9
$PUCSORGBACK
 10
0.0
 20
0.0
 30
0.0
  9
$USERI1
 70
     0
  9
$USERI2
 70
     0
  9
$USERI3
 70
     0
  9
$USERI4
 70
     0
  9
$USERI5
 70
     0
  9
$USERR1
 40
0.0
  9
$USERR2
 40
0.0
  9
$USERR3
 40
0.0
  9
$USERR4
 40
0.0
  9
$USERR5
 40
0.0
  9
$WORLDVIEW
 70
     1
  9
$SHADEDGE
 70
     3
  9
$SHADEDIF
 70
    70
  9
$TILEMODE
 70
     1
  9
$MAXACTVP
 70
    64
  9
$PINSBASE
 10
0.0
 20
0.0
 30
0.0
  9
$PLIMCHECK
 70
     0
  9
$PEXTMIN
 10
1.000000000000000E+20
 20
1.000000000000000E+20
 30
1.000000000000000E+20
  9
$PEXTMAX
 10
-1.000000000000000E+20
 20
-1.000000000000000E+20
 30
-1.000000000000000E+20
  9
$PLIMMIN
 10
0.0
 20
0.0
  9
$PLIMMAX
 10
12.0
 20
9.0
  9
$UNITMODE
 70
     0
  9
$VISRETAIN
 70
     1
  9
$PLINEGEN
 70
     0
  9
$PSLTSCALE
 70
     1
  9
$TREEDEPTH
 70
  3020
  9
$CMLSTYLE
  2
Standard
  9
$CMLJUST
 70
     0
  9
$CMLSCALE
 40
1.0
  9
$PROXYGRAPHICS
 70
     1
  9
$MEASUREMENT
 70
     0
  9
$CELWEIGHT
370
    -1
  9
$ENDCAPS
280
     0
  9
$JOINSTYLE
280
     0
  9
$LWDISPLAY
290
     1
  9
$INSUNITS
 70
     5
  9
$HYPERLINKBASE
  1

  9
$STYLESHEET
  1

  9
$XEDIT
290
     1
  9
$CEPSNTYPE
380
     0
  9
$PSTYLEMODE
290
     1
  9
$FINGERPRINTGUID
  2
{A835D906-D412-1447-9B44-BFB657AAC39D}
  9
$VERSIONGUID
  2
{898B6457-9CA1-CC42-ABFE-DAFEC9090657}
  9
$EXTNAMES
290
     1
  9
$PSVPSCALE
 40
0.0
  9
$OLESTARTUP
290
     0
  9
$SORTENTS
280
   127
  9
$INDEXCTL
280
     0
  9
$HIDETEXT
280
     1
  9
$XCLIPFRAME
280
     2
  9
$HALOGAP
280
     0
  9
$OBSCOLOR
 70
   257
  9
$OBSLTYPE
280
     0
  9
$INTERSECTIONDISPLAY
280
     0
  9
$INTERSECTIONCOLOR
 70
   257
  9
$DIMASSOC
280
     2
  9
$PROJECTNAME
  1

  9
$CAMERADISPLAY
290
     0
  9
$LENSLENGTH
 40
50.0
  9
$CAMERAHEIGHT
 40
0.0
  9
$STEPSPERSEC
 40
2.0
  9
$STEPSIZE
 40
6.0
  9
$3DDWFPREC
 40
2.0
  9
$PSOLWIDTH
 40
0.25
  9
$PSOLHEIGHT
 40
4.0
  9
$LOFTANG1
 40
1.570796326794896
  9
$LOFTANG2
 40
1.570796326794896
  9
$LOFTMAG1
 40
0.0
  9
$LOFTMAG2
 40
0.0
  9
$LOFTPARAM
 70
     7
  9
$LOFTNORMALS
280
     1
  9
$LATITUDE
 40
37.795
  9
$LONGITUDE
 40
-122.394
  9
$NORTHDIRECTION
 40
0.0
  9
$TIMEZONE
 70
 -8000
  9
$LIGHTGLYPHDISPLAY
280
     1
  9
$TILEMODELIGHTSYNCH
280
     1
  9
$CMATERIAL
347
11
  9
$SOLIDHIST
280
     0
  9
$SHOWHIST
280
     1
  9
$DWFFRAME
280
     2
  9
$DGNFRAME
280
     0
  9
$REALWORLDSCALE
290
     1
  9
$INTERFERECOLOR
 62
     1
  9
$INTERFEREOBJVS
345
33
  9
$INTERFEREVPVS
346
30
  9
$CSHADOW
280
     0
  9
$SHADOWPLANELOCATION
 40
0.0
  0
ENDSEC
  0
SECTION
  2
CLASSES
  0
CLASS
  1
ACDBDICTIONARYWDFLT
  2
AcDbDictionaryWithDefault
  3
ObjectDBX Classes
 90
        0
 91
        1
280
     0
281
     0
  0
CLASS
  1
MATERIAL
  2
AcDbMaterial
  3
ObjectDBX Classes
 90
     1153
 91
        3
280
     0
281
     0
  0
CLASS
  1
VISUALSTYLE
  2
AcDbVisualStyle
  3
ObjectDBX Classes
 90
     4095
 91
       24
280
     0
281
     0
  0
CLASS
  1
SCALE
  2
AcDbScale
  3
ObjectDBX Classes
 90
     1153
 91
       17
280
     0
281
     0
  0
CLASS
  1
TABLESTYLE
  2
AcDbTableStyle
  3
ObjectDBX Classes
 90
     4095
 91
        1
280
     0
281
     0
  0
CLASS
  1
MLEADERSTYLE
  2
AcDbMLeaderStyle
  3
ACDB_MLEADERSTYLE_CLASS
 90
     4095
 91
        1
280
     0
281
     0
  0
CLASS
  1
ACDBSECTIONVIEWSTYLE
  2
AcDbSectionViewStyle
  3
ObjectDBX Classes
 90
     1025
 91
        1
280
     0
281
     0
  0
CLASS
  1
ACDBDETAILVIEWSTYLE
  2
AcDbDetailViewStyle
  3
ObjectDBX Classes
 90
     1025
 91
        1
280
     0
281
     0
  0
CLASS
  1
DICTIONARYVAR
  2
AcDbDictionaryVar
  3
ObjectDBX Classes
 90
        0
 91
        5
280
     0
281
     0
  0
CLASS
  1
SORTENTSTABLE
  2
AcDbSortentsTable
  3
ObjectDBX Classes
 90
        0
 91
        1
280
     0
281
     0
  0
CLASS
  1
CELLSTYLEMAP
  2
AcDbCellStyleMap
  3
ObjectDBX Classes
 90
     1152
 91
        2
280
     0
281
     0
  0
ENDSEC
  0
SECTION
  2
TABLES
  0
TABLE
  2
VPORT
  5
8
330
0
100
AcDbSymbolTable
 70
     1
1001
ACAD
1000
DbSaveVer
1071
      249
  0
VPORT
  5
57
330
8
100
AcDbSymbolTableRecord
100
AcDbViewportTableRecord
  2
*Active
 70
     0
 10
0.0
 20
0.0
 11
1.0
 21
1.0
 12
-3.575468218793446
 22
-2.565692485927268
 13
0.0
 23
0.0
 14
1.0
 24
1.0
 15
0.0
 25
0.0
 16
0.0
 26
0.0
 36
1.0
 17
16.38766465519127
 27
-14.85000416295415
 37
0.0
 40
15.72236738066764
 41
2.495448634590377
 42
50.0
 43
0.0
 44
0.0
 50
0.0
 51
0.0
 71
     0
 72
   100
 73
     1
 74
     1
 75
     0
 76
     0
 77
     0
 78
     0
281
     0
 65
     1
110
0.0
120
0.0
130
0.0
111
1.0
121
0.0
131
0.0
112
0.0
122
1.0
132
0.0
 79
     0
146
0.0
348
2F
 60
     3
 61
     5
292
     1
282
     1
141
0.0
142
0.0
 63
   250
421
  3355443
1001
ACAD_NAV_VCDISPLAY
1070
     3
  0
ENDTAB
  0
TABLE
  2
LTYPE
  5
5
330
0
100
AcDbSymbolTable
 70
     2
  0
LTYPE
  5
5B
330
5
100
AcDbSymbolTableRecord
100
AcDbLinetypeTableRecord
  2
ByBlock
 70
     0
  3

 72
    65
 73
     0
 40
0.0
  0
LTYPE
  5
5C
330
5
100
AcDbSymbolTableRecord
100
AcDbLinetypeTableRecord
  2
ByLayer
 70
     0
  3

 72
    65
 73
     0
 40
0.0
  0
LTYPE
  5
5D
330
5
100
AcDbSymbolTableRecord
100
AcDbLinetypeTableRecord
  2
Continuous
 70
     0
  3
Solid line
 72
    65
 73
     0
 40
0.0
  0
ENDTAB
  0
TABLE
  2
LAYER
  5
2
330
0
100
AcDbSymbolTable
 70
     2
  0
LAYER
  5
54
330
2
100
AcDbSymbolTableRecord
100
AcDbLayerTableRecord
  2
0
 70
     0
 62
     7
  6
Continuous
370
    -3
390
F
347
21
348
0
  0
LAYER
  5
78
330
2
100
AcDbSymbolTableRecord
100
AcDbLayerTableRecord
  2
Livello 1
 70
     0
 62
     7
  6
Continuous
370
     0
390
F
347
21
348
0
  0
ENDTAB
  0
TABLE
  2
STYLE
  5
3
330
0
100
AcDbSymbolTable
 70
     2
  0
STYLE
  5
55
330
3
100
AcDbSymbolTableRecord
100
AcDbTextStyleTableRecord
  2
Standard
 70
     0
 40
0.0
 41
1.0
 50
0.0
 71
     0
 42
0.2
  3
txt
  4

  0
STYLE
  5
5A
330
3
100
AcDbSymbolTableRecord
100
AcDbTextStyleTableRecord
  2
Annotative
 70
     0
 40
0.0
 41
1.0
 50
0.0
 71
     0
 42
0.2
  3
txt
  4

1001
AcadAnnotative
1000
AnnotativeData
1002
{
1070
     1
1070
     1
1002
}
  0
ENDTAB
  0
TABLE
  2
VIEW
  5
6
330
0
100
AcDbSymbolTable
 70
     0
  0
ENDTAB
  0
TABLE
  2
UCS
  5
7
330
0
100
AcDbSymbolTable
 70
     0
  0
ENDTAB
  0
TABLE
  2
APPID
  5
9
330
0
100
AcDbSymbolTable
 70
     4
  0
APPID
  5
56
330
9
100
AcDbSymbolTableRecord
100
AcDbRegAppTableRecord
  2
ACAD
 70
     0
  0
APPID
  5
5E
330
9
100
AcDbSymbolTableRecord
100
AcDbRegAppTableRecord
  2
AcadAnnotative
 70
     0
  0
APPID
  5
264
330
9
100
AcDbSymbolTableRecord
100
AcDbRegAppTableRecord
  2
ACAD_EXEMPT_FROM_CAD_STANDARDS
 70
     0
  0
APPID
  5
270
330
9
100
AcDbSymbolTableRecord
100
AcDbRegAppTableRecord
  2
ACAD_NAV_VCDISPLAY
 70
     0
  0
ENDTAB
  0
TABLE
  2
DIMSTYLE
  5
A
330
0
100
AcDbSymbolTable
 70
     2
100
AcDbDimStyleTable
 71
     1
340
58
  0
DIMSTYLE
105
58
330
A
100
AcDbSymbolTableRecord
100
AcDbDimStyleTableRecord
  2
Standard
 70
     0
340
55
  0
DIMSTYLE
105
59
330
A
100
AcDbSymbolTableRecord
100
AcDbDimStyleTableRecord
  2
Annotative
 70
     0
340
55
1001
AcadAnnotative
1000
AnnotativeData
1002
{
1070
     1
1070
     1
1002
}
  0
ENDTAB
  0
TABLE
  2
BLOCK_RECORD
  5
1
330
0
100
AcDbSymbolTable
 70
    27
  0
BLOCK_RECORD
  5
70
102
{ACAD_XDICTIONARY
360
247
102
}
330
1
100
AcDbSymbolTableRecord
100
AcDbBlockTableRecord
  2
*Model_Space
340
73
 70
     0
280
     1
281
     0
  0
BLOCK_RECORD
  5
6C
330
1
100
AcDbSymbolTableRecord
100
AcDbBlockTableRecord
  2
*Paper_Space
340
6F
 70
     0
280
     1
281
     0
  0
BLOCK_RECORD
  5
74
330
1
100
AcDbSymbolTableRecord
100
AcDbBlockTableRecord
  2
*Paper_Space0
340
77
 70
     0
280
     1
281
     0
  0
BLOCK_RECORD
  5
7F
330
1
100
AcDbSymbolTableRecord
100
AcDbBlockTableRecord
  2
Block_0
340
0
 70
     0
280
     1
281
     0
  0
BLOCK_RECORD
  5
83
330
1
100
AcDbSymbolTableRecord
100
AcDbBlockTableRecord
  2
Block_1
340
0
102
{BLKREFS
331
84
102
}
 70
     0
280
     1
281
     0
  0
BLOCK_RECORD
  5
92
330
1
100
AcDbSymbolTableRecord
100
AcDbBlockTableRecord
  2
Block_2
340
0
 70
     0
280
     1
281
     0
  0
BLOCK_RECORD
  5
99
330
1
100
AcDbSymbolTableRecord
100
AcDbBlockTableRecord
  2
Block_3
340
0
 70
     0
280
     1
281
     0
  0
BLOCK_RECORD
  5
A0
330
1
100
AcDbSymbolTableRecord
100
AcDbBlockTableRecord
  2
Block_4
340
0
 70
     0
280
     1
281
     0
  0
BLOCK_RECORD
  5
A4
330
1
100
AcDbSymbolTableRecord
100
AcDbBlockTableRecord
  2
Block_5
340
0
102
{BLKREFS
331
A5
102
}
 70
     0
280
     1
281
     0
  0
BLOCK_RECORD
  5
AD
330
1
100
AcDbSymbolTableRecord
100
AcDbBlockTableRecord
  2
Block_6
340
0
 70
     0
280
     1
281
     0
  0
BLOCK_RECORD
  5
B4
330
1
100
AcDbSymbolTableRecord
100
AcDbBlockTableRecord
  2
Block_7
340
0
 70
     0
280
     1
281
     0
  0
BLOCK_RECORD
  5
BB
330
1
100
AcDbSymbolTableRecord
100
AcDbBlockTableRecord
  2
Block_8
340
0
 70
     0
280
     1
281
     0
  0
BLOCK_RECORD
  5
BF
330
1
100
AcDbSymbolTableRecord
100
AcDbBlockTableRecord
  2
Block_9
340
0
102
{BLKREFS
331
C0
102
}
 70
     0
280
     1
281
     0
  0
BLOCK_RECORD
  5
C8
330
1
100
AcDbSymbolTableRecord
100
AcDbBlockTableRecord
  2
Block_10
340
0
 70
     0
280
     1
281
     0
  0
BLOCK_RECORD
  5
CF
330
1
100
AcDbSymbolTableRecord
100
AcDbBlockTableRecord
  2
Block_11
340
0
 70
     0
280
     1
281
     0
  0
BLOCK_RECORD
  5
D6
330
1
100
AcDbSymbolTableRecord
100
AcDbBlockTableRecord
  2
Block_12
340
0
 70
     0
280
     1
281
     0
  0
BLOCK_RECORD
  5
DA
330
1
100
AcDbSymbolTableRecord
100
AcDbBlockTableRecord
  2
Block_13
340
0
102
{BLKREFS
331
DB
102
}
 70
     0
280
     1
281
     0
  0
BLOCK_RECORD
  5
EA
330
1
100
AcDbSymbolTableRecord
100
AcDbBlockTableRecord
  2
Block_14
340
0
 70
     0
280
     1
281
     0
  0
BLOCK_RECORD
  5
F1
330
1
100
AcDbSymbolTableRecord
100
AcDbBlockTableRecord
  2
Block_15
340
0
 70
     0
280
     1
281
     0
  0
BLOCK_RECORD
  5
F8
330
1
100
AcDbSymbolTableRecord
100
AcDbBlockTableRecord
  2
Block_16
340
0
 70
     0
280
     1
281
     0
  0
BLOCK_RECORD
  5
FC
330
1
100
AcDbSymbolTableRecord
100
AcDbBlockTableRecord
  2
Block_17
340
0
102
{BLKREFS
331
FD
102
}
 70
     0
280
     1
281
     0
  0
BLOCK_RECORD
  5
100
330
1
100
AcDbSymbolTableRecord
100
AcDbBlockTableRecord
  2
Block_18
340
0
102
{BLKREFS
331
101
102
}
 70
     0
280
     1
281
     0
  0
BLOCK_RECORD
  5
109
330
1
100
AcDbSymbolTableRecord
100
AcDbBlockTableRecord
  2
Block_19
340
0
102
{BLKREFS
331
10A
102
}
 70
     0
280
     1
281
     0
  0
BLOCK_RECORD
  5
110
330
1
100
AcDbSymbolTableRecord
100
AcDbBlockTableRecord
  2
Block_20
340
0
102
{BLKREFS
331
111
102
}
 70
     0
280
     1
281
     0
  0
BLOCK_RECORD
  5
117
330
1
100
AcDbSymbolTableRecord
100
AcDbBlockTableRecord
  2
Block_21
340
0
 70
     0
280
     1
281
     0
  0
BLOCK_RECORD
  5
11B
330
1
100
AcDbSymbolTableRecord
100
AcDbBlockTableRecord
  2
Block_22
340
0
102
{BLKREFS
331
11C
102
}
 70
     0
280
     1
281
     0
  0
BLOCK_RECORD
  5
11F
330
1
100
AcDbSymbolTableRecord
100
AcDbBlockTableRecord
  2
Block_23
340
0
102
{BLKREFS
331
120
102
}
 70
     0
280
     1
281
     0
  0
BLOCK_RECORD
  5
128
330
1
100
AcDbSymbolTableRecord
100
AcDbBlockTableRecord
  2
Block_24
340
0
102
{BLKREFS
331
129
102
}
 70
     0
280
     1
281
     0
  0
BLOCK_RECORD
  5
12F
330
1
100
AcDbSymbolTableRecord
100
AcDbBlockTableRecord
  2
Block_25
340
0
102
{BLKREFS
331
130
102
}
 70
     0
280
     1
281
     0
  0
ENDTAB
  0
ENDSEC
  0
SECTION
  2
BLOCKS
  0
BLOCK
  5
71
330
70
100
AcDbEntity
  8
0
100
AcDbBlockBegin
  2
*Model_Space
 70
     0
 10
0.0
 20
0.0
 30
0.0
  3
*Model_Space
  1

  0
ENDBLK
  5
72
330
70
100
AcDbEntity
  8
0
100
AcDbBlockEnd
  0
BLOCK
  5
6D
330
6C
100
AcDbEntity
 67
     1
  8
0
100
AcDbBlockBegin
  2
*Paper_Space
 70
     0
 10
0.0
 20
0.0
 30
0.0
  3
*Paper_Space
  1

  0
ENDBLK
  5
6E
330
6C
100
AcDbEntity
 67
     1
  8
0
100
AcDbBlockEnd
  0
BLOCK
  5
75
330
74
100
AcDbEntity
 67
     1
  8
0
100
AcDbBlockBegin
  2
*Paper_Space0
 70
     0
 10
0.0
 20
0.0
 30
0.0
  3
*Paper_Space0
  1

  0
ENDBLK
  5
76
330
74
100
AcDbEntity
 67
     1
  8
0
100
AcDbBlockEnd
  0
BLOCK
  5
81
330
7F
100
AcDbEntity
  8
0
100
AcDbBlockBegin
  2
Block_0
 70
     0
 10
0.0
 20
0.0
 30
0.0
  3
Block_0
  1

  0
INSERT
  5
84
330
7F
100
AcDbEntity
  8
Livello 1
100
AcDbBlockReference
  2
Block_1
 10
0.0
 20
0.0
 30
0.0
  0
ENDBLK
  5
82
330
7F
100
AcDbEntity
  8
0
100
AcDbBlockEnd
  0
BLOCK
  5
85
330
83
100
AcDbEntity
  8
0
100
AcDbBlockBegin
  2
Block_1
 70
     0
 10
0.0
 20
0.0
 30
0.0
  3
Block_1
  1

  0
SPLINE
  5
87
330
83
100
AcDbEntity
  8
Livello 1
100
AcDbSpline
210
0.0
220
0.0
230
1.0
 70
     9
 71
     3
 72
    17
 73
    13
 74
     0
 42
0.000000001
 43
0.0000000001
 40
0.0
 40
0.0
 40
0.0
 40
0.0
 40
1.0
 40
1.0
 40
1.0
 40
2.0
 40
2.0
 40
2.0
 40
3.0
 40
3.0
 40
3.0
 40
4.0
 40
4.0
 40
4.0
 40
4.0
 10
10.04026570387014
 20
-16.94814723968657
 30
0.0
 10
10.04705254197608
 20
-16.95662217458029
 30
0.0
 10
10.05747395581896
 20
-16.96244438595036
 30
0.0
 10
10.07103040655342
 20
-16.96244438595036
 30
0.0
 10
10.1003481691329
 20
-16.96244438595036
 30
0.0
 10
10.11488647208065
 20
-16.93581379784937
 30
0.0
 10
10.11488647208065
 20
-16.90914875879354
 30
0.0
 10
10.11488647208065
 20
-16.89753878700825
 30
0.0
 10
10.11221652307958
 20
-16.88613552095208
 30
0.0
 10
10.10639431170951
 20
-16.87669595932249
 30
0.0
 10
10.10639431170951
 20
-16.87669595932249
 30
0.0
 10
10.04026570387014
 20
-16.94814723968657
 30
0.0
 10
10.04026570387014
 20
-16.94814723968657
 30
0.0
  0
SPLINE
  5
88
330
83
100
AcDbEntity
  8
Livello 1
100
AcDbSpline
210
0.0
220
0.0
230
1.0
 70
     9
 71
     3
 72
    17
 73
    13
 74
     0
 42
0.000000001
 43
0.0000000001
 40
0.0
 40
0.0
 40
0.0
 40
0.0
 40
1.0
 40
1.0
 40
1.0
 40
2.0
 40
2.0
 40
2.0
 40
3.0
 40
3.0
 40
3.0
 40
4.0
 40
4.0
 40
4.0
 40
4.0
 10
10.10203626592067
 20
-16.87039143458448
 30
0.0
 10
10.09502549660818
 20
-16.8616753430068
 30
0.0
 10
10.0846040827653
 20
-16.85585313163673
 30
0.0
 10
10.07103040655342
 20
-16.85585313163673
 30
0.0
 10
10.04172986945137
 20
-16.85585313163673
 30
0.0
 10
10.02719156650361
 20
-16.88251817069256
 30
0.0
 10
10.02719156650361
 20
-16.90914875879354
 30
0.0
 10
10.02719156650361
 20
-16.92079318153369
 30
0.0
 10
10.02986151550468
 20
-16.93216199663501
 30
0.0
 10
10.0359076580813
 20
-16.94184271494856
 30
0.0
 10
10.0359076580813
 20
-16.94184271494856
 30
0.0
 10
10.10203626592067
 20
-16.87039143458448
 30
0.0
 10
10.10203626592067
 20
-16.87039143458448
 30
0.0
  0
SPLINE
  5
89
330
83
100
AcDbEntity
  8
Livello 1
100
AcDbSpline
210
0.0
220
0.0
230
1.0
 70
    11
 71
     3
 72
    41
 73
    37
 74
     0
 42
0.000000001
 43
0.0000000001
 40
0.0
 40
0.0
 40
0.0
 40
0.0
 40
1.0
 40
1.0
 40
1.0
 40
2.0
 40
2.0
 40
2.0
 40
3.0
 40
3.0
 40
3.0
 40
4.0
 40
4.0
 40
4.0
 40
5.0
 40
5.0
 40
5.0
 40
6.0
 40
6.0
 40
6.0
 40
7.0
 40
7.0
 40
7.0
 40
8.0
 40
8.0
 40
8.0
 40
9.0
 40
9.0
 40
9.0
 40
10.0
 40
10.0
 40
10.0
 40
11.0
 40
11.0
 40
11.0
 40
12.0
 40
12.0
 40
12.0
 40
12.0
 10
10.13014824508031
 20
-16.85078884127341
 30
0.0
 10
10.13014824508031
 20
-16.85078884127341
 30
0.0
 10
10.11705688223636
 20
-16.86505153658234
 30
0.0
 10
10.11705688223636
 20
-16.86505153658234
 30
0.0
 10
10.12579019929147
 20
-16.87717827269042
 30
0.0
 10
10.13014824508031
 20
-16.89268120237405
 30
0.0
 10
10.13014824508031
 20
-16.90914875879354
 30
0.0
 10
10.13014824508031
 20
-16.94501220279499
 30
0.0
 10
10.10930541739455
 20
-16.97529459211034
 30
0.0
 10
10.07103040655342
 20
-16.97529459211034
 30
0.0
 10
10.05383938008202
 20
-16.97529459211034
 30
0.0
 10
10.04002454718617
 20
-16.9692312240563
 30
0.0
 10
10.03034382887262
 20
-16.95882703569085
 30
0.0
 10
10.03034382887262
 20
-16.95882703569085
 30
0.0
 10
10.01604668260883
 20
-16.97432996537447
 30
0.0
 10
10.01604668260883
 20
-16.97432996537447
 30
0.0
 10
10.01604668260883
 20
-16.97432996537447
 30
0.0
 10
10.01072401008411
 20
-16.96947238074027
 30
0.0
 10
10.01072401008411
 20
-16.96947238074027
 30
0.0
 10
10.01072401008411
 20
-16.96947238074027
 30
0.0
 10
10.02550346971584
 20
-16.95324598100474
 30
0.0
 10
10.02550346971584
 20
-16.95324598100474
 30
0.0
 10
10.01652899597677
 20
-16.9416015582646
 30
0.0
 10
10.01192979350396
 20
-16.92585747189701
 30
0.0
 10
10.01192979350396
 20
-16.90914875879354
 30
0.0
 10
10.01192979350396
 20
-16.87331976574694
 30
0.0
 10
10.03277262118972
 20
-16.8430373764316
 30
0.0
 10
10.07103040655342
 20
-16.8430373764316
 30
0.0
 10
10.08847981518621
 20
-16.8430373764316
 30
0.0
 10
10.10253580476603
 20
-16.84930745021475
 30
0.0
 10
10.11221652307958
 20
-16.85950493285109
 30
0.0
 10
10.11221652307958
 20
-16.85950493285109
 30
0.0
 10
10.12480834707817
 20
-16.84593125663921
 30
0.0
 10
10.12480834707817
 20
-16.84593125663921
 30
0.0
 10
10.12480834707817
 20
-16.84593125663921
 30
0.0
 10
10.13014824508031
 20
-16.85078884127341
 30
0.0
 10
10.13014824508031
 20
-16.85078884127341
 30
0.0
  0
HATCH
  5
8A
330
83
100
AcDbEntity
  8
Livello 1
 62
    18
420
        0
440
 33554687
100
AcDbHatch
 10
0.0
 20
0.0
 30
0.0
210
0.0
220
0.0
230
1.0
  2
SOLID
 70
     1
 71
     1
 91
        3
 92
        1
 93
        1
 72
     4
 94
        3
 73
     0
 74
     0
 95
       17
 96
       13
 40
0.0
 40
0.0
 40
0.0
 40
0.0
 40
1.0
 40
1.0
 40
1.0
 40
2.0
 40
2.0
 40
2.0
 40
3.0
 40
3.0
 40
3.0
 40
4.0
 40
4.0
 40
4.0
 40
4.0
 10
10.04026570387014
 20
-16.94814723968657
 10
10.04705254197608
 20
-16.95662217458029
 10
10.05747395581896
 20
-16.96244438595036
 10
10.07103040655342
 20
-16.96244438595036
 10
10.1003481691329
 20
-16.96244438595036
 10
10.11488647208065
 20
-16.93581379784937
 10
10.11488647208065
 20
-16.90914875879354
 10
10.11488647208065
 20
-16.89753878700825
 10
10.11221652307958
 20
-16.88613552095208
 10
10.10639431170951
 20
-16.87669595932249
 10
10.10639431170951
 20
-16.87669595932249
 10
10.04026570387014
 20
-16.94814723968657
 10
10.04026570387014
 20
-16.94814723968657
 97
        0
 97
        1
330
87
 92
        1
 93
        1
 72
     4
 94
        3
 73
     0
 74
     0
 95
       17
 96
       13
 40
0.0
 40
0.0
 40
0.0
 40
0.0
 40
1.0
 40
1.0
 40
1.0
 40
2.0
 40
2.0
 40
2.0
 40
3.0
 40
3.0
 40
3.0
 40
4.0
 40
4.0
 40
4.0
 40
4.0
 10
10.10203626592067
 20
-16.87039143458448
 10
10.09502549660818
 20
-16.8616753430068
 10
10.0846040827653
 20
-16.85585313163673
 10
10.07103040655342
 20
-16.85585313163673
 10
10.04172986945137
 20
-16.85585313163673
 10
10.02719156650361
 20
-16.88251817069256
 10
10.02719156650361
 20
-16.90914875879354
 10
10.02719156650361
 20
-16.92079318153369
 10
10.02986151550468
 20
-16.93216199663501
 10
10.0359076580813
 20
-16.94184271494856
 10
10.0359076580813
 20
-16.94184271494856
 10
10.10203626592067
 20
-16.87039143458448
 10
10.10203626592067
 20
-16.87039143458448
 97
        0
 97
        1
330
88
 92
        1
 93
        1
 72
     4
 94
        3
 73
     0
 74
     0
 95
       41
 96
       37
 40
0.0
 40
0.0
 40
0.0
 40
0.0
 40
1.0
 40
1.0
 40
1.0
 40
2.0
 40
2.0
 40
2.0
 40
3.0
 40
3.0
 40
3.0
 40
4.0
 40
4.0
 40
4.0
 40
5.0
 40
5.0
 40
5.0
 40
6.0
 40
6.0
 40
6.0
 40
7.0
 40
7.0
 40
7.0
 40
8.0
 40
8.0
 40
8.0
 40
9.0
 40
9.0
 40
9.0
 40
10.0
 40
10.0
 40
10.0
 40
11.0
 40
11.0
 40
11.0
 40
12.0
 40
12.0
 40
12.0
 40
12.0
 10
10.13014824508031
 20
-16.85078884127341
 10
10.13014824508031
 20
-16.85078884127341
 10
10.11705688223636
 20
-16.86505153658234
 10
10.11705688223636
 20
-16.86505153658234
 10
10.12579019929147
 20
-16.87717827269042
 10
10.13014824508031
 20
-16.89268120237405
 10
10.13014824508031
 20
-16.90914875879354
 10
10.13014824508031
 20
-16.94501220279499
 10
10.10930541739455
 20
-16.97529459211034
 10
10.07103040655342
 20
-16.97529459211034
 10
10.05383938008202
 20
-16.97529459211034
 10
10.04002454718617
 20
-16.9692312240563
 10
10.03034382887262
 20
-16.95882703569085
 10
10.03034382887262
 20
-16.95882703569085
 10
10.01604668260883
 20
-16.97432996537447
 10
10.01604668260883
 20
-16.97432996537447
 10
10.01604668260883
 20
-16.97432996537447
 10
10.01072401008411
 20
-16.96947238074027
 10
10.01072401008411
 20
-16.96947238074027
 10
10.01072401008411
 20
-16.96947238074027
 10
10.02550346971584
 20
-16.95324598100474
 10
10.02550346971584
 20
-16.95324598100474
 10
10.01652899597677
 20
-16.9416015582646
 10
10.01192979350396
 20
-16.92585747189701
 10
10.01192979350396
 20
-16.90914875879354
 10
10.01192979350396
 20
-16.87331976574694
 10
10.03277262118972
 20
-16.8430373764316
 10
10.07103040655342
 20
-16.8430373764316
 10
10.08847981518621
 20
-16.8430373764316
 10
10.10253580476603
 20
-16.84930745021475
 10
10.11221652307958
 20
-16.85950493285109
 10
10.11221652307958
 20
-16.85950493285109
 10
10.12480834707817
 20
-16.84593125663921
 10
10.12480834707817
 20
-16.84593125663921
 10
10.12480834707817
 20
-16.84593125663921
 10
10.13014824508031
 20
-16.85078884127341
 10
10.13014824508031
 20
-16.85078884127341
 97
        0
 97
        1
330
89
 75
     2
 76
     1
 98
        1
 10
0.0
 20
0.0
450
        0
451
        0
460
0.0
461
0.0
452
        0
462
0.0
453
        0
470

  0
SPLINE
  5
8B
330
83
100
AcDbEntity
  8
Livello 1
100
AcDbSpline
210
0.0
220
0.0
230
1.0
 70
     9
 71
     3
 72
    59
 73
    55
 74
     0
 42
0.000000001
 43
0.0000000001
 40
0.0
 40
0.0
 40
0.0
 40
0.0
 40
1.0
 40
1.0
 40
1.0
 40
2.0
 40
2.0
 40
2.0
 40
3.0
 40
3.0
 40
3.0
 40
4.0
 40
4.0
 40
4.0
 40
5.0
 40
5.0
 40
5.0
 40
6.0
 40
6.0
 40
6.0
 40
7.0
 40
7.0
 40
7.0
 40
8.0
 40
8.0
 40
8.0
 40
9.0
 40
9.0
 40
9.0
 40
10.0
 40
10.0
 40
10.0
 40
11.0
 40
11.0
 40
11.0
 40
12.0
 40
12.0
 40
12.0
 40
13.0
 40
13.0
 40
13.0
 40
14.0
 40
14.0
 40
14.0
 40
15.0
 40
15.0
 40
15.0
 40
16.0
 40
16.0
 40
16.0
 40
17.0
 40
17.0
 40
17.0
 40
18.0
 40
18.0
 40
18.0
 40
18.0
 10
10.22876410334558
 20
-16.91762369368726
 30
0.0
 10
10.22779947660971
 20
-16.94452988942706
 30
0.0
 10
10.24378471966127
 20
-16.96244438595036
 30
0.0
 10
10.27115600329158
 20
-16.96244438595036
 30
0.0
 10
10.29344577108115
 20
-16.96244438595036
 30
0.0
 10
10.31451252997345
 20
-16.94911186642244
 30
0.0
 10
10.31451252997345
 20
-16.92489284516113
 30
0.0
 10
10.31451252997345
 20
-16.9009149805838
 30
0.0
 10
10.29633965128876
 20
-16.88906385211454
 30
0.0
 10
10.27382595229265
 20
-16.88906385211454
 30
0.0
 10
10.27382595229265
 20
-16.88906385211454
 30
0.0
 10
10.26097574613267
 20
-16.88906385211454
 30
0.0
 10
10.26097574613267
 20
-16.88906385211454
 30
0.0
 10
10.26097574613267
 20
-16.88906385211454
 30
0.0
 10
10.26097574613267
 20
-16.87621364595456
 30
0.0
 10
10.26097574613267
 20
-16.87621364595456
 30
0.0
 10
10.26097574613267
 20
-16.87621364595456
 30
0.0
 10
10.27382595229265
 20
-16.87621364595456
 30
0.0
 10
10.27382595229265
 20
-16.87621364595456
 30
0.0
 10
10.28957003866024
 20
-16.87645480263852
 30
0.0
 10
10.30820800523545
 20
-16.86677408432497
 30
0.0
 10
10.30820800523545
 20
-16.84544894327127
 30
0.0
 10
10.30820800523545
 20
-16.82315917548171
 30
0.0
 10
10.29149929213198
 20
-16.81347845716815
 30
0.0
 10
10.27115600329158
 20
-16.81347845716815
 30
0.0
 10
10.24571397313301
 20
-16.81347845716815
 30
0.0
 10
10.23215752239855
 20
-16.83115179700749
 30
0.0
 10
10.23263983576649
 20
-16.85633544500466
 30
0.0
 10
10.23263983576649
 20
-16.85633544500466
 30
0.0
 10
10.21737806276683
 20
-16.85633544500466
 30
0.0
 10
10.21737806276683
 20
-16.85633544500466
 30
0.0
 10
10.2176192194508
 20
-16.82436495890154
 30
0.0
 10
10.2379625082912
 20
-16.80062825100817
 30
0.0
 10
10.27091484660761
 20
-16.80062825100817
 30
0.0
 10
10.29756266018602
 20
-16.80062825100817
 30
0.0
 10
10.3234697782351
 20
-16.81371961385212
 30
0.0
 10
10.3234697782351
 20
-16.8437608464835
 30
0.0
 10
10.3234697782351
 20
-16.86215765637474
 30
0.0
 10
10.31306558986965
 20
-16.87693711600646
 30
0.0
 10
10.29489271118495
 20
-16.88131238727272
 30
0.0
 10
10.29489271118495
 20
-16.88131238727272
 30
0.0
 10
10.29489271118495
 20
-16.88179470064065
 30
0.0
 10
10.29489271118495
 20
-16.88179470064065
 30
0.0
 10
10.31694132229055
 20
-16.88541205090017
 30
0.0
 10
10.32977430297311
 20
-16.90139729395173
 30
0.0
 10
10.32977430297311
 20
-16.9236870617413
 30
0.0
 10
10.32977430297311
 20
-16.95686333126425
 30
0.0
 10
10.30264417602677
 20
-16.97529459211034
 30
0.0
 10
10.27139715997555
 20
-16.97529459211034
 30
0.0
 10
10.23627441150343
 20
-16.97529459211034
 30
0.0
 10
10.21107353802882
 20
-16.95396945105664
 30
0.0
 10
10.21350233034593
 20
-16.91762369368726
 30
0.0
 10
10.21350233034593
 20
-16.91762369368726
 30
0.0
 10
10.22876410334558
 20
-16.91762369368726
 30
0.0
 10
10.22876410334558
 20
-16.91762369368726
 30
0.0
  0
HATCH
  5
8C
330
83
100
AcDbEntity
  8
Livello 1
 62
    18
420
        0
440
 33554687
100
AcDbHatch
 10
0.0
 20
0.0
 30
0.0
210
0.0
220
0.0
230
1.0
  2
SOLID
 70
     1
 71
     1
 91
        1
 92
        1
 93
        1
 72
     4
 94
        3
 73
     0
 74
     0
 95
       59
 96
       55
 40
0.0
 40
0.0
 40
0.0
 40
0.0
 40
1.0
 40
1.0
 40
1.0
 40
2.0
 40
2.0
 40
2.0
 40
3.0
 40
3.0
 40
3.0
 40
4.0
 40
4.0
 40
4.0
 40
5.0
 40
5.0
 40
5.0
 40
6.0
 40
6.0
 40
6.0
 40
7.0
 40
7.0
 40
7.0
 40
8.0
 40
8.0
 40
8.0
 40
9.0
 40
9.0
 40
9.0
 40
10.0
 40
10.0
 40
10.0
 40
11.0
 40
11.0
 40
11.0
 40
12.0
 40
12.0
 40
12.0
 40
13.0
 40
13.0
 40
13.0
 40
14.0
 40
14.0
 40
14.0
 40
15.0
 40
15.0
 40
15.0
 40
16.0
 40
16.0
 40
16.0
 40
17.0
 40
17.0
 40
17.0
 40
18.0
 40
18.0
 40
18.0
 40
18.0
 10
10.22876410334558
 20
-16.91762369368726
 10
10.22779947660971
 20
-16.94452988942706
 10
10.24378471966127
 20
-16.96244438595036
 10
10.27115600329158
 20
-16.96244438595036
 10
10.29344577108115
 20
-16.96244438595036
 10
10.31451252997345
 20
-16.94911186642244
 10
10.31451252997345
 20
-16.92489284516113
 10
10.31451252997345
 20
-16.9009149805838
 10
10.29633965128876
 20
-16.88906385211454
 10
10.27382595229265
 20
-16.88906385211454
 10
10.27382595229265
 20
-16.88906385211454
 10
10.26097574613267
 20
-16.88906385211454
 10
10.26097574613267
 20
-16.88906385211454
 10
10.26097574613267
 20
-16.88906385211454
 10
10.26097574613267
 20
-16.87621364595456
 10
10.26097574613267
 20
-16.87621364595456
 10
10.26097574613267
 20
-16.87621364595456
 10
10.27382595229265
 20
-16.87621364595456
 10
10.27382595229265
 20
-16.87621364595456
 10
10.28957003866024
 20
-16.87645480263852
 10
10.30820800523545
 20
-16.86677408432497
 10
10.30820800523545
 20
-16.84544894327127
 10
10.30820800523545
 20
-16.82315917548171
 10
10.29149929213198
 20
-16.81347845716815
 10
10.27115600329158
 20
-16.81347845716815
 10
10.24571397313301
 20
-16.81347845716815
 10
10.23215752239855
 20
-16.83115179700749
 10
10.23263983576649
 20
-16.85633544500466
 10
10.23263983576649
 20
-16.85633544500466
 10
10.21737806276683
 20
-16.85633544500466
 10
10.21737806276683
 20
-16.85633544500466
 10
10.2176192194508
 20
-16.82436495890154
 10
10.2379625082912
 20
-16.80062825100817
 10
10.27091484660761
 20
-16.80062825100817
 10
10.29756266018602
 20
-16.80062825100817
 10
10.3234697782351
 20
-16.81371961385212
 10
10.3234697782351
 20
-16.8437608464835
 10
10.3234697782351
 20
-16.86215765637474
 10
10.31306558986965
 20
-16.87693711600646
 10
10.29489271118495
 20
-16.88131238727272
 10
10.29489271118495
 20
-16.88131238727272
 10
10.29489271118495
 20
-16.88179470064065
 10
10.29489271118495
 20
-16.88179470064065
 10
10.31694132229055
 20
-16.88541205090017
 10
10.32977430297311
 20
-16.90139729395173
 10
10.32977430297311
 20
-16.9236870617413
 10
10.32977430297311
 20
-16.95686333126425
 10
10.30264417602677
 20
-16.97529459211034
 10
10.27139715997555
 20
-16.97529459211034
 10
10.23627441150343
 20
-16.97529459211034
 10
10.21107353802882
 20
-16.95396945105664
 10
10.21350233034593
 20
-16.91762369368726
 10
10.21350233034593
 20
-16.91762369368726
 10
10.22876410334558
 20
-16.91762369368726
 10
10.22876410334558
 20
-16.91762369368726
 97
        0
 97
        1
330
8B
 75
     2
 76
     1
 98
        1
 10
0.0
 20
0.0
450
        0
451
        0
460
0.0
461
0.0
452
        0
462
0.0
453
        0
470

  0
SPLINE
  5
8D
330
83
100
AcDbEntity
  8
Livello 1
100
AcDbSpline
210
0.0
220
0.0
230
1.0
 70
     9
 71
     3
 72
    53
 73
    49
 74
     0
 42
0.000000001
 43
0.0000000001
 40
0.0
 40
0.0
 40
0.0
 40
0.0
 40
1.0
 40
1.0
 40
1.0
 40
2.0
 40
2.0
 40
2.0
 40
3.0
 40
3.0
 40
3.0
 40
4.0
 40
4.0
 40
4.0
 40
5.0
 40
5.0
 40
5.0
 40
6.0
 40
6.0
 40
6.0
 40
7.0
 40
7.0
 40
7.0
 40
8.0
 40
8.0
 40
8.0
 40
9.0
 40
9.0
 40
9.0
 40
10.0
 40
10.0
 40
10.0
 40
11.0
 40
11.0
 40
11.0
 40
12.0
 40
12.0
 40
12.0
 40
13.0
 40
13.0
 40
13.0
 40
14.0
 40
14.0
 40
14.0
 40
15.0
 40
15.0
 40
15.0
 40
16.0
 40
16.0
 40
16.0
 40
16.0
 10
10.36403577757392
 20
-16.92320474837336
 30
0.0
 10
10.36475924762582
 20
-16.94670029958277
 30
0.0
 10
10.38244981294258
 20
-16.96244438595036
 30
0.0
 10
10.40570420746802
 20
-16.96244438595036
 30
0.0
 10
10.43186970767849
 20
-16.96244438595036
 30
0.0
 10
10.44809610741401
 20
-16.94087808821269
 30
0.0
 10
10.44809610741401
 20
-16.91617675358345
 30
0.0
 10
10.44809610741401
 20
-16.89123426227024
 30
0.0
 10
10.42992322872932
 20
-16.87207953137226
 30
0.0
 10
10.40473958073214
 20
-16.87207953137226
 30
0.0
 10
10.38971896441646
 20
-16.87207953137226
 30
0.0
 10
10.3751806614687
 20
-16.87934868284613
 30
0.0
 10
10.36694688325895
 20
-16.89219888900612
 30
0.0
 10
10.36694688325895
 20
-16.89219888900612
 30
0.0
 10
10.35387274589243
 20
-16.89219888900612
 30
0.0
 10
10.35387274589243
 20
-16.89219888900612
 30
0.0
 10
10.35387274589243
 20
-16.89219888900612
 30
0.0
 10
10.37034030231193
 20
-16.80428005222253
 30
0.0
 10
10.37034030231193
 20
-16.80428005222253
 30
0.0
 10
10.37034030231193
 20
-16.80428005222253
 30
0.0
 10
10.45512410220392
 20
-16.80428005222253
 30
0.0
 10
10.45512410220392
 20
-16.80428005222253
 30
0.0
 10
10.45512410220392
 20
-16.80428005222253
 30
0.0
 10
10.45512410220392
 20
-16.81830159084751
 30
0.0
 10
10.45512410220392
 20
-16.81830159084751
 30
0.0
 10
10.45512410220392
 20
-16.81830159084751
 30
0.0
 10
10.38100287283877
 20
-16.81830159084751
 30
0.0
 10
10.38100287283877
 20
-16.81830159084751
 30
0.0
 10
10.38100287283877
 20
-16.81830159084751
 30
0.0
 10
10.37009914562796
 20
-16.87452554916678
 30
0.0
 10
10.37009914562796
 20
-16.87452554916678
 30
0.0
 10
10.37009914562796
 20
-16.87452554916678
 30
0.0
 10
10.37058145899589
 20
-16.87500786253472
 30
0.0
 10
10.37058145899589
 20
-16.87500786253472
 30
0.0
 10
10.37905639388961
 20
-16.86505153658234
 30
0.0
 10
10.3933535401534
 20
-16.85926377616712
 30
0.0
 10
10.40642767751992
 20
-16.85926377616712
 30
0.0
 10
10.44130926930807
 20
-16.85926377616712
 30
0.0
 10
10.46335788041367
 20
-16.8837239541124
 30
0.0
 10
10.46335788041367
 20
-16.91786485037123
 30
0.0
 10
10.46335788041367
 20
-16.95107557084903
 30
0.0
 10
10.43695122351923
 20
-16.97529459211034
 30
0.0
 10
10.40449842404818
 20
-16.97529459211034
 30
0.0
 10
10.37301025131299
 20
-16.97529459211034
 30
0.0
 10
10.34949747462617
 20
-16.95541639116045
 30
0.0
 10
10.34877400457426
 20
-16.92320474837336
 30
0.0
 10
10.34877400457426
 20
-16.92320474837336
 30
0.0
 10
10.36403577757392
 20
-16.92320474837336
 30
0.0
 10
10.36403577757392
 20
-16.92320474837336
 30
0.0
  0
HATCH
  5
8E
330
83
100
AcDbEntity
  8
Livello 1
 62
    18
420
        0
440
 33554687
100
AcDbHatch
 10
0.0
 20
0.0
 30
0.0
210
0.0
220
0.0
230
1.0
  2
SOLID
 70
     1
 71
     1
 91
        1
 92
        1
 93
        1
 72
     4
 94
        3
 73
     0
 74
     0
 95
       53
 96
       49
 40
0.0
 40
0.0
 40
0.0
 40
0.0
 40
1.0
 40
1.0
 40
1.0
 40
2.0
 40
2.0
 40
2.0
 40
3.0
 40
3.0
 40
3.0
 40
4.0
 40
4.0
 40
4.0
 40
5.0
 40
5.0
 40
5.0
 40
6.0
 40
6.0
 40
6.0
 40
7.0
 40
7.0
 40
7.0
 40
8.0
 40
8.0
 40
8.0
 40
9.0
 40
9.0
 40
9.0
 40
10.0
 40
10.0
 40
10.0
 40
11.0
 40
11.0
 40
11.0
 40
12.0
 40
12.0
 40
12.0
 40
13.0
 40
13.0
 40
13.0
 40
14.0
 40
14.0
 40
14.0
 40
15.0
 40
15.0
 40
15.0
 40
16.0
 40
16.0
 40
16.0
 40
16.0
 10
10.36403577757392
 20
-16.92320474837336
 10
10.36475924762582
 20
-16.94670029958277
 10
10.38244981294258
 20
-16.96244438595036
 10
10.40570420746802
 20
-16.96244438595036
 10
10.43186970767849
 20
-16.96244438595036
 10
10.44809610741401
 20
-16.94087808821269
 10
10.44809610741401
 20
-16.91617675358345
 10
10.44809610741401
 20
-16.89123426227024
 10
10.42992322872932
 20
-16.87207953137226
 10
10.40473958073214
 20
-16.87207953137226
 10
10.38971896441646
 20
-16.87207953137226
 10
10.3751806614687
 20
-16.87934868284613
 10
10.36694688325895
 20
-16.89219888900612
 10
10.36694688325895
 20
-16.89219888900612
 10
10.35387274589243
 20
-16.89219888900612
 10
10.35387274589243
 20
-16.89219888900612
 10
10.35387274589243
 20
-16.89219888900612
 10
10.37034030231193
 20
-16.80428005222253
 10
10.37034030231193
 20
-16.80428005222253
 10
10.37034030231193
 20
-16.80428005222253
 10
10.45512410220392
 20
-16.80428005222253
 10
10.45512410220392
 20
-16.80428005222253
 10
10.45512410220392
 20
-16.80428005222253
 10
10.45512410220392
 20
-16.81830159084751
 10
10.45512410220392
 20
-16.81830159084751
 10
10.45512410220392
 20
-16.81830159084751
 10
10.38100287283877
 20
-16.81830159084751
 10
10.38100287283877
 20
-16.81830159084751
 10
10.38100287283877
 20
-16.81830159084751
 10
10.37009914562796
 20
-16.87452554916678
 10
10.37009914562796
 20
-16.87452554916678
 10
10.37009914562796
 20
-16.87452554916678
 10
10.37058145899589
 20
-16.87500786253472
 10
10.37058145899589
 20
-16.87500786253472
 10
10.37905639388961
 20
-16.86505153658234
 10
10.3933535401534
 20
-16.85926377616712
 10
10.40642767751992
 20
-16.85926377616712
 10
10.44130926930807
 20
-16.85926377616712
 10
10.46335788041367
 20
-16.8837239541124
 10
10.46335788041367
 20
-16.91786485037123
 10
10.46335788041367
 20
-16.95107557084903
 10
10.43695122351923
 20
-16.97529459211034
 10
10.40449842404818
 20
-16.97529459211034
 10
10.37301025131299
 20
-16.97529459211034
 10
10.34949747462617
 20
-16.95541639116045
 10
10.34877400457426
 20
-16.92320474837336
 10
10.34877400457426
 20
-16.92320474837336
 10
10.36403577757392
 20
-16.92320474837336
 10
10.36403577757392
 20
-16.92320474837336
 97
        0
 97
        1
330
8D
 75
     2
 76
     1
 98
        1
 10
0.0
 20
0.0
450
        0
451
        0
460
0.0
461
0.0
452
        0
462
0.0
453
        0
470

  0
SPLINE
  5
8F
330
83
100
AcDbEntity
  8
Livello 1
100
AcDbSpline
210
0.0
220
0.0
230
1.0
 70
     9
 71
     3
 72
    17
 73
    13
 74
     0
 42
0.000000001
 43
0.0000000001
 40
0.0
 40
0.0
 40
0.0
 40
0.0
 40
1.0
 40
1.0
 40
1.0
 40
2.0
 40
2.0
 40
2.0
 40
3.0
 40
3.0
 40
3.0
 40
4.0
 40
4.0
 40
4.0
 40
4.0
 10
10.49808444290499
 20
-16.88782361773984
 30
0.0
 10
10.49808444290499
 20
-16.91738253700329
 30
0.0
 10
10.50316595874573
 20
-16.96244438595036
 30
0.0
 10
10.54192328295479
 20
-16.96244438595036
 30
0.0
 10
10.58068060716385
 20
-16.96244438595036
 30
0.0
 10
10.58577934848202
 20
-16.91738253700329
 30
0.0
 10
10.58577934848202
 20
-16.88782361773984
 30
0.0
 10
10.58577934848202
 20
-16.85854030611522
 30
0.0
 10
10.58068060716385
 20
-16.81347845716815
 30
0.0
 10
10.54192328295479
 20
-16.81347845716815
 30
0.0
 10
10.50316595874573
 20
-16.81347845716815
 30
0.0
 10
10.49808444290499
 20
-16.85854030611522
 30
0.0
 10
10.49808444290499
 20
-16.88782361773984
 30
0.0
  0
SPLINE
  5
90
330
83
100
AcDbEntity
  8
Livello 1
100
AcDbSpline
210
0.0
220
0.0
230
1.0
 70
     9
 71
     3
 72
    17
 73
    13
 74
     0
 42
0.000000001
 43
0.0000000001
 40
0.0
 40
0.0
 40
0.0
 40
0.0
 40
1.0
 40
1.0
 40
1.0
 40
2.0
 40
2.0
 40
2.0
 40
3.0
 40
3.0
 40
3.0
 40
4.0
 40
4.0
 40
4.0
 40
4.0
 10
10.60104112148168
 20
-16.88782361773984
 30
0.0
 10
10.60104112148168
 20
-16.92758001963963
 30
0.0
 10
10.59136040316813
 20
-16.97529459211034
 30
0.0
 10
10.54192328295479
 20
-16.97529459211034
 30
0.0
 10
10.49252061369631
 20
-16.97529459211034
 30
0.0
 10
10.48282266990533
 20
-16.92758001963963
 30
0.0
 10
10.48282266990533
 20
-16.88806477442382
 30
0.0
 10
10.48282266990533
 20
-16.84834282347888
 30
0.0
 10
10.49252061369631
 20
-16.80062825100817
 30
0.0
 10
10.54192328295479
 20
-16.80062825100817
 30
0.0
 10
10.59136040316813
 20
-16.80062825100817
 30
0.0
 10
10.60104112148168
 20
-16.84834282347888
 30
0.0
 10
10.60104112148168
 20
-16.88782361773984
 30
0.0
  0
HATCH
  5
91
330
83
100
AcDbEntity
  8
Livello 1
 62
    18
420
        0
440
 33554687
100
AcDbHatch
 10
0.0
 20
0.0
 30
0.0
210
0.0
220
0.0
230
1.0
  2
SOLID
 70
     1
 71
     1
 91
        2
 92
        1
 93
        1
 72
     4
 94
        3
 73
     0
 74
     0
 95
       17
 96
       13
 40
0.0
 40
0.0
 40
0.0
 40
0.0
 40
1.0
 40
1.0
 40
1.0
 40
2.0
 40
2.0
 40
2.0
 40
3.0
 40
3.0
 40
3.0
 40
4.0
 40
4.0
 40
4.0
 40
4.0
 10
10.49808444290499
 20
-16.88782361773984
 10
10.49808444290499
 20
-16.91738253700329
 10
10.50316595874573
 20
-16.96244438595036
 10
10.54192328295479
 20
-16.96244438595036
 10
10.58068060716385
 20
-16.96244438595036
 10
10.58577934848202
 20
-16.91738253700329
 10
10.58577934848202
 20
-16.88782361773984
 10
10.58577934848202
 20
-16.85854030611522
 10
10.58068060716385
 20
-16.81347845716815
 10
10.54192328295479
 20
-16.81347845716815
 10
10.50316595874573
 20
-16.81347845716815
 10
10.49808444290499
 20
-16.85854030611522
 10
10.49808444290499
 20
-16.88782361773984
 97
        0
 97
        1
330
8F
 92
        1
 93
        1
 72
     4
 94
        3
 73
     0
 74
     0
 95
       17
 96
       13
 40
0.0
 40
0.0
 40
0.0
 40
0.0
 40
1.0
 40
1.0
 40
1.0
 40
2.0
 40
2.0
 40
2.0
 40
3.0
 40
3.0
 40
3.0
 40
4.0
 40
4.0
 40
4.0
 40
4.0
 10
10.60104112148168
 20
-16.88782361773984
 10
10.60104112148168
 20
-16.92758001963963
 10
10.59136040316813
 20
-16.97529459211034
 10
10.54192328295479
 20
-16.97529459211034
 10
10.49252061369631
 20
-16.97529459211034
 10
10.48282266990533
 20
-16.92758001963963
 10
10.48282266990533
 20
-16.88806477442382
 10
10.48282266990533
 20
-16.84834282347888
 10
10.49252061369631
 20
-16.80062825100817
 10
10.54192328295479
 20
-16.80062825100817
 10
10.59136040316813
 20
-16.80062825100817
 10
10.60104112148168
 20
-16.84834282347888
 10
10.60104112148168
 20
-16.88782361773984
 97
        0
 97
        1
330
90
 75
     2
 76
     1
 98
        1
 10
0.0
 20
0.0
450
        0
451
        0
460
0.0
461
0.0
452
        0
462
0.0
453
        0
470

  0
ENDBLK
  5
86
330
83
100
AcDbEntity
  8
0
100
AcDbBlockEnd
  0
BLOCK
  5
94
330
92
100
AcDbEntity
  8
0
100
AcDbBlockBegin
  2
Block_2
 70
     0
 10
0.0
 20
0.0
 30
0.0
  3
Block_2
  1

  0
LINE
  5
96
330
92
100
AcDbEntity
  8
Livello 1
 62
    18
420
        0
370
     9
100
AcDbLine
 10
10.0017408061191
 20
-16.89033517264961
 30
0.0
 11
7.648158732638446
 21
-16.89033517264961
 31
0.0
  0
LWPOLYLINE
  5
97
330
92
100
AcDbEntity
  8
Livello 1
100
AcDbPolyline
 90
        3
 70
     1
 43
0.0
 10
7.391445959955272
 20
-16.89121225572108
 10
7.646342912702442
 20
-16.80623489915832
 10
7.646342912702442
 20
-16.97443544614089
  0
HATCH
  5
98
330
92
100
AcDbEntity
  8
Livello 1
 62
    18
420
        0
440
 33554687
100
AcDbHatch
 10
0.0
 20
0.0
 30
0.0
210
0.0
220
0.0
230
1.0
  2
SOLID
 70
     1
 71
     1
 91
        1
 92
        1
 93
        3
 72
     1
 10
7.391445959955272
 20
-16.89121225572108
 11
7.646342912702442
 21
-16.80623489915832
 72
     1
 10
7.646342912702442
 20
-16.80623489915832
 11
7.646342912702442
 21
-16.97443544614089
 72
     1
 10
7.646342912702442
 20
-16.97443544614089
 11
7.391445959955272
 21
-16.89121225572108
 97
        1
330
97
 75
     0
 76
     1
 98
        1
 10
0.0
 20
0.0
450
        0
451
        0
460
0.0
461
0.0
452
        0
462
0.0
453
        0
470

  0
ENDBLK
  5
95
330
92
100
AcDbEntity
  8
0
100
AcDbBlockEnd
  0
BLOCK
  5
9B
330
99
100
AcDbEntity
  8
0
100
AcDbBlockBegin
  2
Block_3
 70
     0
 10
0.0
 20
0.0
 30
0.0
  3
Block_3
  1

  0
LINE
  5
9D
330
99
100
AcDbEntity
  8
Livello 1
 62
    18
420
        0
370
     9
100
AcDbLine
 10
10.64581329671143
 20
-16.89033517264961
 30
0.0
 11
13.1712938997915
 21
-16.89033517264961
 31
0.0
  0
LWPOLYLINE
  5
9E
330
99
100
AcDbEntity
  8
Livello 1
100
AcDbPolyline
 90
        3
 70
     1
 43
0.0
 10
13.42800667247496
 20
-16.88945808957813
 10
13.17310971972772
 20
-16.97443544614089
 10
13.17310971972772
 20
-16.80623489915832
  0
HATCH
  5
9F
330
99
100
AcDbEntity
  8
Livello 1
 62
    18
420
        0
440
 33554687
100
AcDbHatch
 10
0.0
 20
0.0
 30
0.0
210
0.0
220
0.0
230
1.0
  2
SOLID
 70
     1
 71
     1
 91
        1
 92
        1
 93
        3
 72
     1
 10
13.42800667247496
 20
-16.88945808957813
 11
13.17310971972772
 21
-16.97443544614089
 72
     1
 10
13.17310971972772
 20
-16.97443544614089
 11
13.17310971972772
 21
-16.80623489915832
 72
     1
 10
13.17310971972772
 20
-16.80623489915832
 11
13.42800667247496
 21
-16.88945808957813
 97
        1
330
9E
 75
     0
 76
     1
 98
        1
 10
0.0
 20
0.0
450
        0
451
        0
460
0.0
461
0.0
452
        0
462
0.0
453
        0
470

  0
ENDBLK
  5
9C
330
99
100
AcDbEntity
  8
0
100
AcDbBlockEnd
  0
BLOCK
  5
A2
330
A0
100
AcDbEntity
  8
0
100
AcDbBlockBegin
  2
Block_4
 70
     0
 10
0.0
 20
0.0
 30
0.0
  3
Block_4
  1

  0
INSERT
  5
A5
330
A0
100
AcDbEntity
  8
Livello 1
100
AcDbBlockReference
  2
Block_5
 10
0.0
 20
0.0
 30
0.0
  0
ENDBLK
  5
A3
330
A0
100
AcDbEntity
  8
0
100
AcDbBlockEnd
  0
BLOCK
  5
A6
330
A4
100
AcDbEntity
  8
0
100
AcDbBlockBegin
  2
Block_5
 70
     0
 10
0.0
 20
0.0
 30
0.0
  3
Block_5
  1

  0
SPLINE
  5
A8
330
A4
100
AcDbEntity
  8
Livello 1
100
AcDbSpline
210
0.0
220
0.0
230
1.0
 70
     9
 71
     3
 72
    26
 73
    22
 74
     0
 42
0.000000001
 43
0.0000000001
 40
0.0
 40
0.0
 40
0.0
 40
0.0
 40
1.0
 40
1.0
 40
1.0
 40
2.0
 40
2.0
 40
2.0
 40
3.0
 40
3.0
 40
3.0
 40
4.0
 40
4.0
 40
4.0
 40
5.0
 40
5.0
 40
5.0
 40
6.0
 40
6.0
 40
6.0
 40
7.0
 40
7.0
 40
7.0
 40
7.0
 10
6.719073077747314
 20
-16.68921386301519
 30
0.0
 10
6.745720891325722
 20
-16.68824923627932
 30
0.0
 10
6.762188447745216
 20
-16.68776692291139
 30
0.0
 10
6.766787650218025
 20
-16.65651990686017
 30
0.0
 10
6.766787650218025
 20
-16.65651990686017
 30
0.0
 10
6.779155543010071
 20
-16.65651990686017
 30
0.0
 10
6.779155543010071
 20
-16.65651990686017
 30
0.0
 10
6.779155543010071
 20
-16.65651990686017
 30
0.0
 10
6.779155543010071
 20
-16.82608750664417
 30
0.0
 10
6.779155543010071
 20
-16.82608750664417
 30
0.0
 10
6.779155543010071
 20
-16.82608750664417
 30
0.0
 10
6.763893770010414
 20
-16.82608750664417
 30
0.0
 10
6.763893770010414
 20
-16.82608750664417
 30
0.0
 10
6.763893770010414
 20
-16.82608750664417
 30
0.0
 10
6.763893770010414
 20
-16.70013481570343
 30
0.0
 10
6.763893770010414
 20
-16.70013481570343
 30
0.0
 10
6.763893770010414
 20
-16.70013481570343
 30
0.0
 10
6.719073077747314
 20
-16.70013481570343
 30
0.0
 10
6.719073077747314
 20
-16.70013481570343
 30
0.0
 10
6.719073077747314
 20
-16.70013481570343
 30
0.0
 10
6.719073077747314
 20
-16.68921386301519
 30
0.0
 10
6.719073077747314
 20
-16.68921386301519
 30
0.0
  0
HATCH
  5
A9
330
A4
100
AcDbEntity
  8
Livello 1
 62
    18
420
        0
440
 33554687
100
AcDbHatch
 10
0.0
 20
0.0
 30
0.0
210
0.0
220
0.0
230
1.0
  2
SOLID
 70
     1
 71
     1
 91
        1
 92
        1
 93
        1
 72
     4
 94
        3
 73
     0
 74
     0
 95
       26
 96
       22
 40
0.0
 40
0.0
 40
0.0
 40
0.0
 40
1.0
 40
1.0
 40
1.0
 40
2.0
 40
2.0
 40
2.0
 40
3.0
 40
3.0
 40
3.0
 40
4.0
 40
4.0
 40
4.0
 40
5.0
 40
5.0
 40
5.0
 40
6.0
 40
6.0
 40
6.0
 40
7.0
 40
7.0
 40
7.0
 40
7.0
 10
6.719073077747314
 20
-16.68921386301519
 10
6.745720891325722
 20
-16.68824923627932
 10
6.762188447745216
 20
-16.68776692291139
 10
6.766787650218025
 20
-16.65651990686017
 10
6.766787650218025
 20
-16.65651990686017
 10
6.779155543010071
 20
-16.65651990686017
 10
6.779155543010071
 20
-16.65651990686017
 10
6.779155543010071
 20
-16.65651990686017
 10
6.779155543010071
 20
-16.82608750664417
 10
6.779155543010071
 20
-16.82608750664417
 10
6.779155543010071
 20
-16.82608750664417
 10
6.763893770010414
 20
-16.82608750664417
 10
6.763893770010414
 20
-16.82608750664417
 10
6.763893770010414
 20
-16.82608750664417
 10
6.763893770010414
 20
-16.70013481570343
 10
6.763893770010414
 20
-16.70013481570343
 10
6.763893770010414
 20
-16.70013481570343
 10
6.719073077747314
 20
-16.70013481570343
 10
6.719073077747314
 20
-16.70013481570343
 10
6.719073077747314
 20
-16.70013481570343
 10
6.719073077747314
 20
-16.68921386301519
 10
6.719073077747314
 20
-16.68921386301519
 97
        0
 97
        1
330
A8
 75
     2
 76
     1
 98
        1
 10
0.0
 20
0.0
450
        0
451
        0
460
0.0
461
0.0
452
        0
462
0.0
453
        0
470

  0
SPLINE
  5
AA
330
A4
100
AcDbEntity
  8
Livello 1
100
AcDbSpline
210
0.0
220
0.0
230
1.0
 70
    11
 71
     3
 72
    17
 73
    13
 74
     0
 42
0.000000001
 43
0.0000000001
 40
0.0
 40
0.0
 40
0.0
 40
0.0
 40
1.0
 40
1.0
 40
1.0
 40
2.0
 40
2.0
 40
2.0
 40
3.0
 40
3.0
 40
3.0
 40
4.0
 40
4.0
 40
4.0
 40
4.0
 10
6.915633000658242
 20
-16.77110378269958
 30
0.0
 10
6.915633000658242
 20
-16.77110378269958
 30
0.0
 10
6.915633000658242
 20
-16.67880967464974
 30
0.0
 10
6.915633000658242
 20
-16.67880967464974
 30
0.0
 10
6.915633000658242
 20
-16.67880967464974
 30
0.0
 10
6.915150687290307
 20
-16.67880967464974
 30
0.0
 10
6.915150687290307
 20
-16.67880967464974
 30
0.0
 10
6.915150687290307
 20
-16.67880967464974
 30
0.0
 10
6.851192489606646
 20
-16.77110378269958
 30
0.0
 10
6.851192489606646
 20
-16.77110378269958
 30
0.0
 10
6.851192489606646
 20
-16.77110378269958
 30
0.0
 10
6.915633000658242
 20
-16.77110378269958
 30
0.0
 10
6.915633000658242
 20
-16.77110378269958
 30
0.0
  0
SPLINE
  5
AB
330
A4
100
AcDbEntity
  8
Livello 1
100
AcDbSpline
210
0.0
220
0.0
230
1.0
 70
    11
 71
     3
 72
    38
 73
    34
 74
     0
 42
0.000000001
 43
0.0000000001
 40
0.0
 40
0.0
 40
0.0
 40
0.0
 40
1.0
 40
1.0
 40
1.0
 40
2.0
 40
2.0
 40
2.0
 40
3.0
 40
3.0
 40
3.0
 40
4.0
 40
4.0
 40
4.0
 40
5.0
 40
5.0
 40
5.0
 40
6.0
 40
6.0
 40
6.0
 40
7.0
 40
7.0
 40
7.0
 40
8.0
 40
8.0
 40
8.0
 40
9.0
 40
9.0
 40
9.0
 40
10.0
 40
10.0
 40
10.0
 40
11.0
 40
11.0
 40
11.0
 40
11.0
 10
6.83739488218822
 20
-16.76914007827299
 30
0.0
 10
6.83739488218822
 20
-16.76914007827299
 30
0.0
 10
6.91587415734221
 20
-16.65651990686017
 30
0.0
 10
6.91587415734221
 20
-16.65651990686017
 30
0.0
 10
6.91587415734221
 20
-16.65651990686017
 30
0.0
 10
6.92968899023806
 20
-16.65651990686017
 30
0.0
 10
6.92968899023806
 20
-16.65651990686017
 30
0.0
 10
6.92968899023806
 20
-16.65651990686017
 30
0.0
 10
6.92968899023806
 20
-16.77110378269958
 30
0.0
 10
6.92968899023806
 20
-16.77110378269958
 30
0.0
 10
6.92968899023806
 20
-16.77110378269958
 30
0.0
 10
6.955113794919205
 20
-16.77110378269958
 30
0.0
 10
6.955113794919205
 20
-16.77110378269958
 30
0.0
 10
6.955113794919205
 20
-16.77110378269958
 30
0.0
 10
6.955113794919205
 20
-16.78391953790471
 30
0.0
 10
6.955113794919205
 20
-16.78391953790471
 30
0.0
 10
6.955113794919205
 20
-16.78391953790471
 30
0.0
 10
6.92968899023806
 20
-16.78391953790471
 30
0.0
 10
6.92968899023806
 20
-16.78391953790471
 30
0.0
 10
6.92968899023806
 20
-16.78391953790471
 30
0.0
 10
6.92968899023806
 20
-16.82608750664417
 30
0.0
 10
6.92968899023806
 20
-16.82608750664417
 30
0.0
 10
6.92968899023806
 20
-16.82608750664417
 30
0.0
 10
6.915633000658242
 20
-16.82608750664417
 30
0.0
 10
6.915633000658242
 20
-16.82608750664417
 30
0.0
 10
6.915633000658242
 20
-16.82608750664417
 30
0.0
 10
6.915633000658242
 20
-16.78391953790471
 30
0.0
 10
6.915633000658242
 20
-16.78391953790471
 30
0.0
 10
6.915633000658242
 20
-16.78391953790471
 30
0.0
 10
6.83739488218822
 20
-16.78391953790471
 30
0.0
 10
6.83739488218822
 20
-16.78391953790471
 30
0.0
 10
6.83739488218822
 20
-16.78391953790471
 30
0.0
 10
6.83739488218822
 20
-16.76914007827299
 30
0.0
 10
6.83739488218822
 20
-16.76914007827299
 30
0.0
  0
HATCH
  5
AC
330
A4
100
AcDbEntity
  8
Livello 1
 62
    18
420
        0
440
 33554687
100
AcDbHatch
 10
0.0
 20
0.0
 30
0.0
210
0.0
220
0.0
230
1.0
  2
SOLID
 70
     1
 71
     1
 91
        2
 92
        1
 93
        1
 72
     4
 94
        3
 73
     0
 74
     0
 95
       17
 96
       13
 40
0.0
 40
0.0
 40
0.0
 40
0.0
 40
1.0
 40
1.0
 40
1.0
 40
2.0
 40
2.0
 40
2.0
 40
3.0
 40
3.0
 40
3.0
 40
4.0
 40
4.0
 40
4.0
 40
4.0
 10
6.915633000658242
 20
-16.77110378269958
 10
6.915633000658242
 20
-16.77110378269958
 10
6.915633000658242
 20
-16.67880967464974
 10
6.915633000658242
 20
-16.67880967464974
 10
6.915633000658242
 20
-16.67880967464974
 10
6.915150687290307
 20
-16.67880967464974
 10
6.915150687290307
 20
-16.67880967464974
 10
6.915150687290307
 20
-16.67880967464974
 10
6.851192489606646
 20
-16.77110378269958
 10
6.851192489606646
 20
-16.77110378269958
 10
6.851192489606646
 20
-16.77110378269958
 10
6.915633000658242
 20
-16.77110378269958
 10
6.915633000658242
 20
-16.77110378269958
 97
        0
 97
        1
330
AA
 92
        1
 93
        1
 72
     4
 94
        3
 73
     0
 74
     0
 95
       38
 96
       34
 40
0.0
 40
0.0
 40
0.0
 40
0.0
 40
1.0
 40
1.0
 40
1.0
 40
2.0
 40
2.0
 40
2.0
 40
3.0
 40
3.0
 40
3.0
 40
4.0
 40
4.0
 40
4.0
 40
5.0
 40
5.0
 40
5.0
 40
6.0
 40
6.0
 40
6.0
 40
7.0
 40
7.0
 40
7.0
 40
8.0
 40
8.0
 40
8.0
 40
9.0
 40
9.0
 40
9.0
 40
10.0
 40
10.0
 40
10.0
 40
11.0
 40
11.0
 40
11.0
 40
11.0
 10
6.83739488218822
 20
-16.76914007827299
 10
6.83739488218822
 20
-16.76914007827299
 10
6.91587415734221
 20
-16.65651990686017
 10
6.91587415734221
 20
-16.65651990686017
 10
6.91587415734221
 20
-16.65651990686017
 10
6.92968899023806
 20
-16.65651990686017
 10
6.92968899023806
 20
-16.65651990686017
 10
6.92968899023806
 20
-16.65651990686017
 10
6.92968899023806
 20
-16.77110378269958
 10
6.92968899023806
 20
-16.77110378269958
 10
6.92968899023806
 20
-16.77110378269958
 10
6.955113794919205
 20
-16.77110378269958
 10
6.955113794919205
 20
-16.77110378269958
 10
6.955113794919205
 20
-16.77110378269958
 10
6.955113794919205
 20
-16.78391953790471
 10
6.955113794919205
 20
-16.78391953790471
 10
6.955113794919205
 20
-16.78391953790471
 10
6.92968899023806
 20
-16.78391953790471
 10
6.92968899023806
 20
-16.78391953790471
 10
6.92968899023806
 20
-16.78391953790471
 10
6.92968899023806
 20
-16.82608750664417
 10
6.92968899023806
 20
-16.82608750664417
 10
6.92968899023806
 20
-16.82608750664417
 10
6.915633000658242
 20
-16.82608750664417
 10
6.915633000658242
 20
-16.82608750664417
 10
6.915633000658242
 20
-16.82608750664417
 10
6.915633000658242
 20
-16.78391953790471
 10
6.915633000658242
 20
-16.78391953790471
 10
6.915633000658242
 20
-16.78391953790471
 10
6.83739488218822
 20
-16.78391953790471
 10
6.83739488218822
 20
-16.78391953790471
 10
6.83739488218822
 20
-16.78391953790471
 10
6.83739488218822
 20
-16.76914007827299
 10
6.83739488218822
 20
-16.76914007827299
 97
        0
 97
        1
330
AB
 75
     2
 76
     1
 98
        1
 10
0.0
 20
0.0
450
        0
451
        0
460
0.0
461
0.0
452
        0
462
0.0
453
        0
470

  0
ENDBLK
  5
A7
330
A4
100
AcDbEntity
  8
0
100
AcDbBlockEnd
  0
BLOCK
  5
AF
330
AD
100
AcDbEntity
  8
0
100
AcDbBlockBegin
  2
Block_6
 70
     0
 10
0.0
 20
0.0
 30
0.0
  3
Block_6
  1

  0
LINE
  5
B1
330
AD
100
AcDbEntity
  8
Livello 1
 62
    18
420
        0
370
     9
100
AcDbLine
 10
6.825058389096125
 20
-16.61941088961681
 30
0.0
 11
6.825058389096125
 21
-16.56670411783225
 31
0.0
  0
LWPOLYLINE
  5
B2
330
AD
100
AcDbEntity
  8
Livello 1
100
AcDbPolyline
 90
        3
 70
     1
 43
0.0
 10
6.82418130602462
 20
-16.30999134514891
 10
6.909158662587379
 20
-16.56488829789615
 10
6.740958115604772
 20
-16.56488829789615
  0
HATCH
  5
B3
330
AD
100
AcDbEntity
  8
Livello 1
 62
    18
420
        0
440
 33554687
100
AcDbHatch
 10
0.0
 20
0.0
 30
0.0
210
0.0
220
0.0
230
1.0
  2
SOLID
 70
     1
 71
     1
 91
        1
 92
        1
 93
        3
 72
     1
 10
6.82418130602462
 20
-16.30999134514891
 11
6.909158662587379
 21
-16.56488829789615
 72
     1
 10
6.909158662587379
 20
-16.56488829789615
 11
6.740958115604772
 21
-16.56488829789615
 72
     1
 10
6.740958115604772
 20
-16.56488829789615
 11
6.82418130602462
 21
-16.30999134514891
 97
        1
330
B2
 75
     0
 76
     1
 98
        1
 10
0.0
 20
0.0
450
        0
451
        0
460
0.0
461
0.0
452
        0
462
0.0
453
        0
470

  0
ENDBLK
  5
B0
330
AD
100
AcDbEntity
  8
0
100
AcDbBlockEnd
  0
BLOCK
  5
B6
330
B4
100
AcDbEntity
  8
0
100
AcDbBlockBegin
  2
Block_7
 70
     0
 10
0.0
 20
0.0
 30
0.0
  3
Block_7
  1

  0
LINE
  5
B8
330
B4
100
AcDbEntity
  8
Livello 1
 62
    18
420
        0
370
     9
100
AcDbLine
 10
6.825058389096125
 20
-16.90607675968363
 30
0.0
 11
6.825058389096125
 21
-16.9496643293869
 31
0.0
  0
LWPOLYLINE
  5
B9
330
B4
100
AcDbEntity
  8
Livello 1
100
AcDbPolyline
 90
        3
 70
     1
 43
0.0
 10
6.825935472167597
 20
-17.2063771020703
 10
6.740958115604772
 20
-16.95148014932307
 10
6.909158662587379
 20
-16.95148014932307
  0
HATCH
  5
BA
330
B4
100
AcDbEntity
  8
Livello 1
 62
    18
420
        0
440
 33554687
100
AcDbHatch
 10
0.0
 20
0.0
 30
0.0
210
0.0
220
0.0
230
1.0
  2
SOLID
 70
     1
 71
     1
 91
        1
 92
        1
 93
        3
 72
     1
 10
6.825935472167597
 20
-17.2063771020703
 11
6.740958115604772
 21
-16.95148014932307
 72
     1
 10
6.740958115604772
 20
-16.95148014932307
 11
6.909158662587379
 21
-16.95148014932307
 72
     1
 10
6.909158662587379
 20
-16.95148014932307
 11
6.825935472167597
 21
-17.2063771020703
 97
        1
330
B9
 75
     0
 76
     1
 98
        1
 10
0.0
 20
0.0
450
        0
451
        0
460
0.0
461
0.0
452
        0
462
0.0
453
        0
470

  0
ENDBLK
  5
B7
330
B4
100
AcDbEntity
  8
0
100
AcDbBlockEnd
  0
BLOCK
  5
BD
330
BB
100
AcDbEntity
  8
0
100
AcDbBlockBegin
  2
Block_8
 70
     0
 10
0.0
 20
0.0
 30
0.0
  3
Block_8
  1

  0
INSERT
  5
C0
330
BB
100
AcDbEntity
  8
Livello 1
100
AcDbBlockReference
  2
Block_9
 10
0.0
 20
0.0
 30
0.0
  0
ENDBLK
  5
BE
330
BB
100
AcDbEntity
  8
0
100
AcDbBlockEnd
  0
BLOCK
  5
C1
330
BF
100
AcDbEntity
  8
0
100
AcDbBlockBegin
  2
Block_9
 70
     0
 10
0.0
 20
0.0
 30
0.0
  3
Block_9
  1

  0
SPLINE
  5
C3
330
BF
100
AcDbEntity
  8
Livello 1
100
AcDbSpline
210
0.0
220
0.0
230
1.0
 70
    11
 71
     3
 72
    17
 73
    13
 74
     0
 42
0.000000001
 43
0.0000000001
 40
0.0
 40
0.0
 40
0.0
 40
0.0
 40
1.0
 40
1.0
 40
1.0
 40
2.0
 40
2.0
 40
2.0
 40
3.0
 40
3.0
 40
3.0
 40
4.0
 40
4.0
 40
4.0
 40
4.0
 10
13.92197536544311
 20
-16.32723768037999
 30
0.0
 10
13.92197536544311
 20
-16.32723768037999
 30
0.0
 10
13.92197536544311
 20
-16.23494357233015
 30
0.0
 10
13.92197536544311
 20
-16.23494357233015
 30
0.0
 10
13.92197536544311
 20
-16.23494357233015
 30
0.0
 10
13.92149305207517
 20
-16.23494357233015
 30
0.0
 10
13.92149305207517
 20
-16.23494357233015
 30
0.0
 10
13.92149305207517
 20
-16.23494357233015
 30
0.0
 10
13.85755207986894
 20
-16.32723768037999
 30
0.0
 10
13.85755207986894
 20
-16.32723768037999
 30
0.0
 10
13.85755207986894
 20
-16.32723768037999
 30
0.0
 10
13.92197536544311
 20
-16.32723768037999
 30
0.0
 10
13.92197536544311
 20
-16.32723768037999
 30
0.0
  0
SPLINE
  5
C4
330
BF
100
AcDbEntity
  8
Livello 1
100
AcDbSpline
210
0.0
220
0.0
230
1.0
 70
    11
 71
     3
 72
    38
 73
    34
 74
     0
 42
0.000000001
 43
0.0000000001
 40
0.0
 40
0.0
 40
0.0
 40
0.0
 40
1.0
 40
1.0
 40
1.0
 40
2.0
 40
2.0
 40
2.0
 40
3.0
 40
3.0
 40
3.0
 40
4.0
 40
4.0
 40
4.0
 40
5.0
 40
5.0
 40
5.0
 40
6.0
 40
6.0
 40
6.0
 40
7.0
 40
7.0
 40
7.0
 40
8.0
 40
8.0
 40
8.0
 40
9.0
 40
9.0
 40
9.0
 40
10.0
 40
10.0
 40
10.0
 40
11.0
 40
11.0
 40
11.0
 40
11.0
 10
13.84373724697309
 20
-16.3252739759534
 30
0.0
 10
13.84373724697309
 20
-16.3252739759534
 30
0.0
 10
13.92221652212708
 20
-16.21265380454058
 30
0.0
 10
13.92221652212708
 20
-16.21265380454058
 30
0.0
 10
13.92221652212708
 20
-16.21265380454058
 30
0.0
 10
13.93603135502293
 20
-16.21265380454058
 30
0.0
 10
13.93603135502293
 20
-16.21265380454058
 30
0.0
 10
13.93603135502293
 20
-16.21265380454058
 30
0.0
 10
13.93603135502293
 20
-16.32723768037999
 30
0.0
 10
13.93603135502293
 20
-16.32723768037999
 30
0.0
 10
13.93603135502293
 20
-16.32723768037999
 30
0.0
 10
13.96145615970408
 20
-16.32723768037999
 30
0.0
 10
13.96145615970408
 20
-16.32723768037999
 30
0.0
 10
13.96145615970408
 20
-16.32723768037999
 30
0.0
 10
13.96145615970408
 20
-16.34005343558512
 30
0.0
 10
13.96145615970408
 20
-16.34005343558512
 30
0.0
 10
13.96145615970408
 20
-16.34005343558512
 30
0.0
 10
13.93603135502293
 20
-16.34005343558512
 30
0.0
 10
13.93603135502293
 20
-16.34005343558512
 30
0.0
 10
13.93603135502293
 20
-16.34005343558512
 30
0.0
 10
13.93603135502293
 20
-16.38222140432458
 30
0.0
 10
13.93603135502293
 20
-16.38222140432458
 30
0.0
 10
13.93603135502293
 20
-16.38222140432458
 30
0.0
 10
13.92197536544311
 20
-16.38222140432458
 30
0.0
 10
13.92197536544311
 20
-16.38222140432458
 30
0.0
 10
13.92197536544311
 20
-16.38222140432458
 30
0.0
 10
13.92197536544311
 20
-16.34005343558512
 30
0.0
 10
13.92197536544311
 20
-16.34005343558512
 30
0.0
 10
13.92197536544311
 20
-16.34005343558512
 30
0.0
 10
13.84373724697309
 20
-16.34005343558512
 30
0.0
 10
13.84373724697309
 20
-16.34005343558512
 30
0.0
 10
13.84373724697309
 20
-16.34005343558512
 30
0.0
 10
13.84373724697309
 20
-16.3252739759534
 30
0.0
 10
13.84373724697309
 20
-16.3252739759534
 30
0.0
  0
HATCH
  5
C5
330
BF
100
AcDbEntity
  8
Livello 1
 62
    18
420
        0
440
 33554687
100
AcDbHatch
 10
0.0
 20
0.0
 30
0.0
210
0.0
220
0.0
230
1.0
  2
SOLID
 70
     1
 71
     1
 91
        2
 92
        1
 93
        1
 72
     4
 94
        3
 73
     0
 74
     0
 95
       17
 96
       13
 40
0.0
 40
0.0
 40
0.0
 40
0.0
 40
1.0
 40
1.0
 40
1.0
 40
2.0
 40
2.0
 40
2.0
 40
3.0
 40
3.0
 40
3.0
 40
4.0
 40
4.0
 40
4.0
 40
4.0
 10
13.92197536544311
 20
-16.32723768037999
 10
13.92197536544311
 20
-16.32723768037999
 10
13.92197536544311
 20
-16.23494357233015
 10
13.92197536544311
 20
-16.23494357233015
 10
13.92197536544311
 20
-16.23494357233015
 10
13.92149305207517
 20
-16.23494357233015
 10
13.92149305207517
 20
-16.23494357233015
 10
13.92149305207517
 20
-16.23494357233015
 10
13.85755207986894
 20
-16.32723768037999
 10
13.85755207986894
 20
-16.32723768037999
 10
13.85755207986894
 20
-16.32723768037999
 10
13.92197536544311
 20
-16.32723768037999
 10
13.92197536544311
 20
-16.32723768037999
 97
        0
 97
        1
330
C3
 92
        1
 93
        1
 72
     4
 94
        3
 73
     0
 74
     0
 95
       38
 96
       34
 40
0.0
 40
0.0
 40
0.0
 40
0.0
 40
1.0
 40
1.0
 40
1.0
 40
2.0
 40
2.0
 40
2.0
 40
3.0
 40
3.0
 40
3.0
 40
4.0
 40
4.0
 40
4.0
 40
5.0
 40
5.0
 40
5.0
 40
6.0
 40
6.0
 40
6.0
 40
7.0
 40
7.0
 40
7.0
 40
8.0
 40
8.0
 40
8.0
 40
9.0
 40
9.0
 40
9.0
 40
10.0
 40
10.0
 40
10.0
 40
11.0
 40
11.0
 40
11.0
 40
11.0
 10
13.84373724697309
 20
-16.3252739759534
 10
13.84373724697309
 20
-16.3252739759534
 10
13.92221652212708
 20
-16.21265380454058
 10
13.92221652212708
 20
-16.21265380454058
 10
13.92221652212708
 20
-16.21265380454058
 10
13.93603135502293
 20
-16.21265380454058
 10
13.93603135502293
 20
-16.21265380454058
 10
13.93603135502293
 20
-16.21265380454058
 10
13.93603135502293
 20
-16.32723768037999
 10
13.93603135502293
 20
-16.32723768037999
 10
13.93603135502293
 20
-16.32723768037999
 10
13.96145615970408
 20
-16.32723768037999
 10
13.96145615970408
 20
-16.32723768037999
 10
13.96145615970408
 20
-16.32723768037999
 10
13.96145615970408
 20
-16.34005343558512
 10
13.96145615970408
 20
-16.34005343558512
 10
13.96145615970408
 20
-16.34005343558512
 10
13.93603135502293
 20
-16.34005343558512
 10
13.93603135502293
 20
-16.34005343558512
 10
13.93603135502293
 20
-16.34005343558512
 10
13.93603135502293
 20
-16.38222140432458
 10
13.93603135502293
 20
-16.38222140432458
 10
13.93603135502293
 20
-16.38222140432458
 10
13.92197536544311
 20
-16.38222140432458
 10
13.92197536544311
 20
-16.38222140432458
 10
13.92197536544311
 20
-16.38222140432458
 10
13.92197536544311
 20
-16.34005343558512
 10
13.92197536544311
 20
-16.34005343558512
 10
13.92197536544311
 20
-16.34005343558512
 10
13.84373724697309
 20
-16.34005343558512
 10
13.84373724697309
 20
-16.34005343558512
 10
13.84373724697309
 20
-16.34005343558512
 10
13.84373724697309
 20
-16.3252739759534
 10
13.84373724697309
 20
-16.3252739759534
 97
        0
 97
        1
330
C4
 75
     2
 76
     1
 98
        1
 10
0.0
 20
0.0
450
        0
451
        0
460
0.0
461
0.0
452
        0
462
0.0
453
        0
470

  0
SPLINE
  5
C6
330
BF
100
AcDbEntity
  8
Livello 1
100
AcDbSpline
210
0.0
220
0.0
230
1.0
 70
    11
 71
     3
 72
    41
 73
    37
 74
     0
 42
0.000000001
 43
0.0000000001
 40
0.0
 40
0.0
 40
0.0
 40
0.0
 40
1.0
 40
1.0
 40
1.0
 40
2.0
 40
2.0
 40
2.0
 40
3.0
 40
3.0
 40
3.0
 40
4.0
 40
4.0
 40
4.0
 40
5.0
 40
5.0
 40
5.0
 40
6.0
 40
6.0
 40
6.0
 40
7.0
 40
7.0
 40
7.0
 40
8.0
 40
8.0
 40
8.0
 40
9.0
 40
9.0
 40
9.0
 40
10.0
 40
10.0
 40
10.0
 40
11.0
 40
11.0
 40
11.0
 40
12.0
 40
12.0
 40
12.0
 40
12.0
 10
14.0914051614077
 20
-16.38222140432458
 30
0.0
 10
14.0914051614077
 20
-16.38222140432458
 30
0.0
 10
13.97974961673075
 20
-16.38222140432458
 30
0.0
 10
13.97974961673075
 20
-16.38222140432458
 30
0.0
 10
13.98095540015059
 20
-16.33181965737537
 30
0.0
 10
14.03256293051964
 20
-16.31948621553818
 30
0.0
 10
14.06136392877632
 20
-16.29065076632664
 30
0.0
 10
14.07059678467679
 20
-16.28121120469706
 30
0.0
 10
14.07541991835614
 20
-16.27225395643541
 30
0.0
 10
14.07541991835614
 20
-16.25868028022352
 30
0.0
 10
14.07541991835614
 20
-16.23663166911792
 30
0.0
 10
14.05798773520078
 20
-16.22402261964191
 30
0.0
 10
14.03738606419898
 20
-16.22402261964191
 30
0.0
 10
14.00954969267816
 20
-16.22402261964191
 30
0.0
 10
13.99862873998992
 20
-16.24631238743148
 30
0.0
 10
13.99911105335785
 20
-16.27125487874468
 30
0.0
 10
13.99911105335785
 20
-16.27125487874468
 30
0.0
 10
13.9838492803582
 20
-16.27125487874468
 30
0.0
 10
13.9838492803582
 20
-16.27125487874468
 30
0.0
 10
13.9831258103063
 20
-16.23639051243396
 30
0.0
 10
14.00131591446842
 20
-16.21120686443678
 30
0.0
 10
14.03810953425089
 20
-16.21120686443678
 30
0.0
 10
14.06766845351433
 20
-16.21120686443678
 30
0.0
 10
14.0906816913558
 20
-16.22743326417231
 30
0.0
 10
14.0906816913558
 20
-16.25892143690749
 30
0.0
 10
14.0906816913558
 20
-16.28727457275109
 30
0.0
 10
14.07011447130886
 20
-16.30494791259043
 30
0.0
 10
14.04806586020326
 20
-16.31924505885421
 30
0.0
 10
14.03159830378377
 20
-16.33037271727157
 30
0.0
 10
14.00131591446842
 20
-16.34539333358726
 30
0.0
 10
13.99718179988612
 20
-16.36816541474476
 30
0.0
 10
13.99718179988612
 20
-16.36816541474476
 30
0.0
 10
14.0914051614077
 20
-16.36816541474476
 30
0.0
 10
14.0914051614077
 20
-16.36816541474476
 30
0.0
 10
14.0914051614077
 20
-16.36816541474476
 30
0.0
 10
14.0914051614077
 20
-16.38222140432458
 30
0.0
 10
14.0914051614077
 20
-16.38222140432458
 30
0.0
  0
HATCH
  5
C7
330
BF
100
AcDbEntity
  8
Livello 1
 62
    18
420
        0
440
 33554687
100
AcDbHatch
 10
0.0
 20
0.0
 30
0.0
210
0.0
220
0.0
230
1.0
  2
SOLID
 70
     1
 71
     1
 91
        1
 92
        1
 93
        1
 72
     4
 94
        3
 73
     0
 74
     0
 95
       41
 96
       37
 40
0.0
 40
0.0
 40
0.0
 40
0.0
 40
1.0
 40
1.0
 40
1.0
 40
2.0
 40
2.0
 40
2.0
 40
3.0
 40
3.0
 40
3.0
 40
4.0
 40
4.0
 40
4.0
 40
5.0
 40
5.0
 40
5.0
 40
6.0
 40
6.0
 40
6.0
 40
7.0
 40
7.0
 40
7.0
 40
8.0
 40
8.0
 40
8.0
 40
9.0
 40
9.0
 40
9.0
 40
10.0
 40
10.0
 40
10.0
 40
11.0
 40
11.0
 40
11.0
 40
12.0
 40
12.0
 40
12.0
 40
12.0
 10
14.0914051614077
 20
-16.38222140432458
 10
14.0914051614077
 20
-16.38222140432458
 10
13.97974961673075
 20
-16.38222140432458
 10
13.97974961673075
 20
-16.38222140432458
 10
13.98095540015059
 20
-16.33181965737537
 10
14.03256293051964
 20
-16.31948621553818
 10
14.06136392877632
 20
-16.29065076632664
 10
14.07059678467679
 20
-16.28121120469706
 10
14.07541991835614
 20
-16.27225395643541
 10
14.07541991835614
 20
-16.25868028022352
 10
14.07541991835614
 20
-16.23663166911792
 10
14.05798773520078
 20
-16.22402261964191
 10
14.03738606419898
 20
-16.22402261964191
 10
14.00954969267816
 20
-16.22402261964191
 10
13.99862873998992
 20
-16.24631238743148
 10
13.99911105335785
 20
-16.27125487874468
 10
13.99911105335785
 20
-16.27125487874468
 10
13.9838492803582
 20
-16.27125487874468
 10
13.9838492803582
 20
-16.27125487874468
 10
13.9831258103063
 20
-16.23639051243396
 10
14.00131591446842
 20
-16.21120686443678
 10
14.03810953425089
 20
-16.21120686443678
 10
14.06766845351433
 20
-16.21120686443678
 10
14.0906816913558
 20
-16.22743326417231
 10
14.0906816913558
 20
-16.25892143690749
 10
14.0906816913558
 20
-16.28727457275109
 10
14.07011447130886
 20
-16.30494791259043
 10
14.04806586020326
 20
-16.31924505885421
 10
14.03159830378377
 20
-16.33037271727157
 10
14.00131591446842
 20
-16.34539333358726
 10
13.99718179988612
 20
-16.36816541474476
 10
13.99718179988612
 20
-16.36816541474476
 10
14.0914051614077
 20
-16.36816541474476
 10
14.0914051614077
 20
-16.36816541474476
 10
14.0914051614077
 20
-16.36816541474476
 10
14.0914051614077
 20
-16.38222140432458
 10
14.0914051614077
 20
-16.38222140432458
 97
        0
 97
        1
330
C6
 75
     2
 76
     1
 98
        1
 10
0.0
 20
0.0
450
        0
451
        0
460
0.0
461
0.0
452
        0
462
0.0
453
        0
470

  0
ENDBLK
  5
C2
330
BF
100
AcDbEntity
  8
0
100
AcDbBlockEnd
  0
BLOCK
  5
CA
330
C8
100
AcDbEntity
  8
0
100
AcDbBlockBegin
  2
Block_10
 70
     0
 10
0.0
 20
0.0
 30
0.0
  3
Block_10
  1

  0
LINE
  5
CC
330
C8
100
AcDbEntity
  8
Livello 1
 62
    18
420
        0
370
     9
100
AcDbLine
 10
13.9659501884487
 20
-16.0697188747876
 30
0.0
 11
13.9659501884487
 21
-16.01701210300291
 31
0.0
  0
LWPOLYLINE
  5
CD
330
C8
100
AcDbEntity
  8
Livello 1
100
AcDbPolyline
 90
        3
 70
     1
 43
0.0
 10
13.96507310537722
 20
-15.7602993303197
 10
14.05005046193985
 20
-16.01519628306681
 10
13.88184991495728
 20
-16.01519628306681
  0
HATCH
  5
CE
330
C8
100
AcDbEntity
  8
Livello 1
 62
    18
420
        0
440
 33554687
100
AcDbHatch
 10
0.0
 20
0.0
 30
0.0
210
0.0
220
0.0
230
1.0
  2
SOLID
 70
     1
 71
     1
 91
        1
 92
        1
 93
        3
 72
     1
 10
13.96507310537722
 20
-15.7602993303197
 11
14.05005046193985
 21
-16.01519628306681
 72
     1
 10
14.05005046193985
 20
-16.01519628306681
 11
13.88184991495728
 21
-16.01519628306681
 72
     1
 10
13.88184991495728
 20
-16.01519628306681
 11
13.96507310537722
 21
-15.7602993303197
 97
        1
330
CD
 75
     0
 76
     1
 98
        1
 10
0.0
 20
0.0
450
        0
451
        0
460
0.0
461
0.0
452
        0
462
0.0
453
        0
470

  0
ENDBLK
  5
CB
330
C8
100
AcDbEntity
  8
0
100
AcDbBlockEnd
  0
BLOCK
  5
D1
330
CF
100
AcDbEntity
  8
0
100
AcDbBlockBegin
  2
Block_11
 70
     0
 10
0.0
 20
0.0
 30
0.0
  3
Block_11
  1

  0
LINE
  5
D3
330
CF
100
AcDbEntity
  8
Livello 1
 62
    18
420
        0
370
     9
100
AcDbLine
 10
13.9659501884487
 20
-16.46221807816116
 30
0.0
 11
13.9659501884487
 21
-16.50580564786444
 31
0.0
  0
LWPOLYLINE
  5
D4
330
CF
100
AcDbEntity
  8
Livello 1
100
AcDbPolyline
 90
        3
 70
     1
 43
0.0
 10
13.96682727152017
 20
-16.76251842054783
 10
13.88184991495728
 20
-16.5076214678006
 10
14.05005046193985
 20
-16.5076214678006
  0
HATCH
  5
D5
330
CF
100
AcDbEntity
  8
Livello 1
 62
    18
420
        0
440
 33554687
100
AcDbHatch
 10
0.0
 20
0.0
 30
0.0
210
0.0
220
0.0
230
1.0
  2
SOLID
 70
     1
 71
     1
 91
        1
 92
        1
 93
        3
 72
     1
 10
13.96682727152017
 20
-16.76251842054783
 11
13.88184991495728
 21
-16.5076214678006
 72
     1
 10
13.88184991495728
 20
-16.5076214678006
 11
14.05005046193985
 21
-16.5076214678006
 72
     1
 10
14.05005046193985
 20
-16.5076214678006
 11
13.96682727152017
 21
-16.76251842054783
 97
        1
330
D4
 75
     0
 76
     1
 98
        1
 10
0.0
 20
0.0
450
        0
451
        0
460
0.0
461
0.0
452
        0
462
0.0
453
        0
470

  0
ENDBLK
  5
D2
330
CF
100
AcDbEntity
  8
0
100
AcDbBlockEnd
  0
BLOCK
  5
D8
330
D6
100
AcDbEntity
  8
0
100
AcDbBlockBegin
  2
Block_12
 70
     0
 10
0.0
 20
0.0
 30
0.0
  3
Block_12
  1

  0
INSERT
  5
DB
330
D6
100
AcDbEntity
  8
Livello 1
100
AcDbBlockReference
  2
Block_13
 10
0.0
 20
0.0
 30
0.0
  0
ENDBLK
  5
D9
330
D6
100
AcDbEntity
  8
0
100
AcDbBlockEnd
  0
BLOCK
  5
DC
330
DA
100
AcDbEntity
  8
0
100
AcDbBlockBegin
  2
Block_13
 70
     0
 10
0.0
 20
0.0
 30
0.0
  3
Block_13
  1

  0
SPLINE
  5
DE
330
DA
100
AcDbEntity
  8
Livello 1
100
AcDbSpline
210
0.0
220
0.0
230
1.0
 70
     9
 71
     3
 72
    17
 73
    13
 74
     0
 42
0.000000001
 43
0.0000000001
 40
0.0
 40
0.0
 40
0.0
 40
0.0
 40
1.0
 40
1.0
 40
1.0
 40
2.0
 40
2.0
 40
2.0
 40
3.0
 40
3.0
 40
3.0
 40
4.0
 40
4.0
 40
4.0
 40
4.0
 10
28.13609482803542
 20
-20.73785562632595
 30
0.0
 10
28.14288166614136
 20
-20.74633056121967
 30
0.0
 10
28.15332030546167
 20
-20.75215277258974
 30
0.0
 10
28.1668595307187
 20
-20.75215277258974
 30
0.0
 10
28.19617729329818
 20
-20.75215277258974
 30
0.0
 10
28.21071559624593
 20
-20.7254877335339
 30
0.0
 10
28.21071559624593
 20
-20.69885714543293
 30
0.0
 10
28.21071559624593
 20
-20.68721272269278
 30
0.0
 10
28.20806287272229
 20
-20.67584390759146
 30
0.0
 10
28.20224066135222
 20
-20.66640434596187
 30
0.0
 10
28.20224066135222
 20
-20.66640434596187
 30
0.0
 10
28.13609482803542
 20
-20.73785562632595
 30
0.0
 10
28.13609482803542
 20
-20.73785562632595
 30
0.0
  0
SPLINE
  5
DF
330
DA
100
AcDbEntity
  8
Livello 1
100
AcDbSpline
210
0.0
220
0.0
230
1.0
 70
     9
 71
     3
 72
    17
 73
    13
 74
     0
 42
0.000000001
 43
0.0000000001
 40
0.0
 40
0.0
 40
0.0
 40
0.0
 40
1.0
 40
1.0
 40
1.0
 40
2.0
 40
2.0
 40
2.0
 40
3.0
 40
3.0
 40
3.0
 40
4.0
 40
4.0
 40
4.0
 40
4.0
 10
28.19786539008595
 20
-20.66009982122386
 30
0.0
 10
28.1908718462509
 20
-20.65138372964618
 30
0.0
 10
28.18043320693059
 20
-20.64556151827611
 30
0.0
 10
28.1668595307187
 20
-20.64556151827611
 30
0.0
 10
28.13757621909408
 20
-20.64556151827611
 30
0.0
 10
28.12303791614633
 20
-20.67219210637709
 30
0.0
 10
28.12303791614633
 20
-20.69885714543293
 30
0.0
 10
28.12303791614633
 20
-20.71046711721821
 30
0.0
 10
28.12569063966997
 20
-20.72187038327439
 30
0.0
 10
28.13175400772401
 20
-20.73155110158794
 30
0.0
 10
28.13175400772401
 20
-20.73155110158794
 30
0.0
 10
28.19786539008595
 20
-20.66009982122386
 30
0.0
 10
28.19786539008595
 20
-20.66009982122386
 30
0.0
  0
SPLINE
  5
E0
330
DA
100
AcDbEntity
  8
Livello 1
100
AcDbSpline
210
0.0
220
0.0
230
1.0
 70
    11
 71
     3
 72
    41
 73
    37
 74
     0
 42
0.000000001
 43
0.0000000001
 40
0.0
 40
0.0
 40
0.0
 40
0.0
 40
1.0
 40
1.0
 40
1.0
 40
2.0
 40
2.0
 40
2.0
 40
3.0
 40
3.0
 40
3.0
 40
4.0
 40
4.0
 40
4.0
 40
5.0
 40
5.0
 40
5.0
 40
6.0
 40
6.0
 40
6.0
 40
7.0
 40
7.0
 40
7.0
 40
8.0
 40
8.0
 40
8.0
 40
9.0
 40
9.0
 40
9.0
 40
10.0
 40
10.0
 40
10.0
 40
11.0
 40
11.0
 40
11.0
 40
12.0
 40
12.0
 40
12.0
 40
12.0
 10
28.22597736924559
 20
-20.64046277695794
 30
0.0
 10
28.22597736924559
 20
-20.64046277695794
 30
0.0
 10
28.21288600640164
 20
-20.65475992322173
 30
0.0
 10
28.21288600640164
 20
-20.65475992322173
 30
0.0
 10
28.22163654893417
 20
-20.6668866593298
 30
0.0
 10
28.22597736924559
 20
-20.68238958901343
 30
0.0
 10
28.22597736924559
 20
-20.69885714543293
 30
0.0
 10
28.22597736924559
 20
-20.73468613847952
 30
0.0
 10
28.20513454155983
 20
-20.76496852779487
 30
0.0
 10
28.1668595307187
 20
-20.76496852779487
 30
0.0
 10
28.1496685042473
 20
-20.76496852779487
 30
0.0
 10
28.13585367135145
 20
-20.75890515974083
 30
0.0
 10
28.1261729530379
 20
-20.74850097137538
 30
0.0
 10
28.1261729530379
 20
-20.74850097137538
 30
0.0
 10
28.11187580677411
 20
-20.764003901059
 30
0.0
 10
28.11187580677411
 20
-20.764003901059
 30
0.0
 10
28.11187580677411
 20
-20.764003901059
 30
0.0
 10
28.10657035972683
 20
-20.7591463164248
 30
0.0
 10
28.10657035972683
 20
-20.7591463164248
 30
0.0
 10
28.10657035972683
 20
-20.7591463164248
 30
0.0
 10
28.12134981935855
 20
-20.74291991668927
 30
0.0
 10
28.12134981935855
 20
-20.74291991668927
 30
0.0
 10
28.11235812014205
 20
-20.73130994490398
 30
0.0
 10
28.10777614314666
 20
-20.71556585853638
 30
0.0
 10
28.10777614314666
 20
-20.69885714543293
 30
0.0
 10
28.10777614314666
 20
-20.66299370143147
 30
0.0
 10
28.12861897083243
 20
-20.63271131211612
 30
0.0
 10
28.1668595307187
 20
-20.63271131211612
 30
0.0
 10
28.18432616482892
 20
-20.63271131211612
 30
0.0
 10
28.19838215440874
 20
-20.63901583685414
 30
0.0
 10
28.20806287272229
 20
-20.64917886853562
 30
0.0
 10
28.20806287272229
 20
-20.64917886853562
 30
0.0
 10
28.22063747124345
 20
-20.63563964327859
 30
0.0
 10
28.22063747124345
 20
-20.63563964327859
 30
0.0
 10
28.22063747124345
 20
-20.63563964327859
 30
0.0
 10
28.22597736924559
 20
-20.64046277695794
 30
0.0
 10
28.22597736924559
 20
-20.64046277695794
 30
0.0
  0
HATCH
  5
E1
330
DA
100
AcDbEntity
  8
Livello 1
 62
    18
420
        0
440
 33554687
100
AcDbHatch
 10
0.0
 20
0.0
 30
0.0
210
0.0
220
0.0
230
1.0
  2
SOLID
 70
     1
 71
     1
 91
        3
 92
        1
 93
        1
 72
     4
 94
        3
 73
     0
 74
     0
 95
       17
 96
       13
 40
0.0
 40
0.0
 40
0.0
 40
0.0
 40
1.0
 40
1.0
 40
1.0
 40
2.0
 40
2.0
 40
2.0
 40
3.0
 40
3.0
 40
3.0
 40
4.0
 40
4.0
 40
4.0
 40
4.0
 10
28.13609482803542
 20
-20.73785562632595
 10
28.14288166614136
 20
-20.74633056121967
 10
28.15332030546167
 20
-20.75215277258974
 10
28.1668595307187
 20
-20.75215277258974
 10
28.19617729329818
 20
-20.75215277258974
 10
28.21071559624593
 20
-20.7254877335339
 10
28.21071559624593
 20
-20.69885714543293
 10
28.21071559624593
 20
-20.68721272269278
 10
28.20806287272229
 20
-20.67584390759146
 10
28.20224066135222
 20
-20.66640434596187
 10
28.20224066135222
 20
-20.66640434596187
 10
28.13609482803542
 20
-20.73785562632595
 10
28.13609482803542
 20
-20.73785562632595
 97
        0
 97
        1
330
DE
 92
        1
 93
        1
 72
     4
 94
        3
 73
     0
 74
     0
 95
       17
 96
       13
 40
0.0
 40
0.0
 40
0.0
 40
0.0
 40
1.0
 40
1.0
 40
1.0
 40
2.0
 40
2.0
 40
2.0
 40
3.0
 40
3.0
 40
3.0
 40
4.0
 40
4.0
 40
4.0
 40
4.0
 10
28.19786539008595
 20
-20.66009982122386
 10
28.1908718462509
 20
-20.65138372964618
 10
28.18043320693059
 20
-20.64556151827611
 10
28.1668595307187
 20
-20.64556151827611
 10
28.13757621909408
 20
-20.64556151827611
 10
28.12303791614633
 20
-20.67219210637709
 10
28.12303791614633
 20
-20.69885714543293
 10
28.12303791614633
 20
-20.71046711721821
 10
28.12569063966997
 20
-20.72187038327439
 10
28.13175400772401
 20
-20.73155110158794
 10
28.13175400772401
 20
-20.73155110158794
 10
28.19786539008595
 20
-20.66009982122386
 10
28.19786539008595
 20
-20.66009982122386
 97
        0
 97
        1
330
DF
 92
        1
 93
        1
 72
     4
 94
        3
 73
     0
 74
     0
 95
       41
 96
       37
 40
0.0
 40
0.0
 40
0.0
 40
0.0
 40
1.0
 40
1.0
 40
1.0
 40
2.0
 40
2.0
 40
2.0
 40
3.0
 40
3.0
 40
3.0
 40
4.0
 40
4.0
 40
4.0
 40
5.0
 40
5.0
 40
5.0
 40
6.0
 40
6.0
 40
6.0
 40
7.0
 40
7.0
 40
7.0
 40
8.0
 40
8.0
 40
8.0
 40
9.0
 40
9.0
 40
9.0
 40
10.0
 40
10.0
 40
10.0
 40
11.0
 40
11.0
 40
11.0
 40
12.0
 40
12.0
 40
12.0
 40
12.0
 10
28.22597736924559
 20
-20.64046277695794
 10
28.22597736924559
 20
-20.64046277695794
 10
28.21288600640164
 20
-20.65475992322173
 10
28.21288600640164
 20
-20.65475992322173
 10
28.22163654893417
 20
-20.6668866593298
 10
28.22597736924559
 20
-20.68238958901343
 10
28.22597736924559
 20
-20.69885714543293
 10
28.22597736924559
 20
-20.73468613847952
 10
28.20513454155983
 20
-20.76496852779487
 10
28.1668595307187
 20
-20.76496852779487
 10
28.1496685042473
 20
-20.76496852779487
 10
28.13585367135145
 20
-20.75890515974083
 10
28.1261729530379
 20
-20.74850097137538
 10
28.1261729530379
 20
-20.74850097137538
 10
28.11187580677411
 20
-20.764003901059
 10
28.11187580677411
 20
-20.764003901059
 10
28.11187580677411
 20
-20.764003901059
 10
28.10657035972683
 20
-20.7591463164248
 10
28.10657035972683
 20
-20.7591463164248
 10
28.10657035972683
 20
-20.7591463164248
 10
28.12134981935855
 20
-20.74291991668927
 10
28.12134981935855
 20
-20.74291991668927
 10
28.11235812014205
 20
-20.73130994490398
 10
28.10777614314666
 20
-20.71556585853638
 10
28.10777614314666
 20
-20.69885714543293
 10
28.10777614314666
 20
-20.66299370143147
 10
28.12861897083243
 20
-20.63271131211612
 10
28.1668595307187
 20
-20.63271131211612
 10
28.18432616482892
 20
-20.63271131211612
 10
28.19838215440874
 20
-20.63901583685414
 10
28.20806287272229
 20
-20.64917886853562
 10
28.20806287272229
 20
-20.64917886853562
 10
28.22063747124345
 20
-20.63563964327859
 10
28.22063747124345
 20
-20.63563964327859
 10
28.22063747124345
 20
-20.63563964327859
 10
28.22597736924559
 20
-20.64046277695794
 10
28.22597736924559
 20
-20.64046277695794
 97
        0
 97
        1
330
E0
 75
     2
 76
     1
 98
        1
 10
0.0
 20
0.0
450
        0
451
        0
460
0.0
461
0.0
452
        0
462
0.0
453
        0
470

  0
SPLINE
  5
E2
330
DA
100
AcDbEntity
  8
Livello 1
100
AcDbSpline
210
0.0
220
0.0
230
1.0
 70
    11
 71
     3
 72
    17
 73
    13
 74
     0
 42
0.000000001
 43
0.0000000001
 40
0.0
 40
0.0
 40
0.0
 40
0.0
 40
1.0
 40
1.0
 40
1.0
 40
2.0
 40
2.0
 40
2.0
 40
3.0
 40
3.0
 40
3.0
 40
4.0
 40
4.0
 40
4.0
 40
4.0
 10
28.38686332840675
 20
-20.70636745359077
 30
0.0
 10
28.38686332840675
 20
-20.70636745359077
 30
0.0
 10
28.38686332840675
 20
-20.61407334554092
 30
0.0
 10
28.38686332840675
 20
-20.61407334554092
 30
0.0
 10
28.38686332840675
 20
-20.61407334554092
 30
0.0
 10
28.38638101503882
 20
-20.61407334554092
 30
0.0
 10
28.38638101503882
 20
-20.61407334554092
 30
0.0
 10
28.38638101503882
 20
-20.61407334554092
 30
0.0
 10
28.32240559187773
 20
-20.70636745359077
 30
0.0
 10
28.32240559187773
 20
-20.70636745359077
 30
0.0
 10
28.32240559187773
 20
-20.70636745359077
 30
0.0
 10
28.38686332840675
 20
-20.70636745359077
 30
0.0
 10
28.38686332840675
 20
-20.70636745359077
 30
0.0
  0
SPLINE
  5
E3
330
DA
100
AcDbEntity
  8
Livello 1
100
AcDbSpline
210
0.0
220
0.0
230
1.0
 70
    11
 71
     3
 72
    38
 73
    34
 74
     0
 42
0.000000001
 43
0.0000000001
 40
0.0
 40
0.0
 40
0.0
 40
0.0
 40
1.0
 40
1.0
 40
1.0
 40
2.0
 40
2.0
 40
2.0
 40
3.0
 40
3.0
 40
3.0
 40
4.0
 40
4.0
 40
4.0
 40
5.0
 40
5.0
 40
5.0
 40
6.0
 40
6.0
 40
6.0
 40
7.0
 40
7.0
 40
7.0
 40
8.0
 40
8.0
 40
8.0
 40
9.0
 40
9.0
 40
9.0
 40
10.0
 40
10.0
 40
10.0
 40
11.0
 40
11.0
 40
11.0
 40
11.0
 10
28.30862520993673
 20
-20.70440374916417
 30
0.0
 10
28.30862520993673
 20
-20.70440374916417
 30
0.0
 10
28.38710448509072
 20
-20.59178357775136
 30
0.0
 10
28.38710448509072
 20
-20.59178357775136
 30
0.0
 10
28.38710448509072
 20
-20.59178357775136
 30
0.0
 10
28.40091931798657
 20
-20.59178357775136
 30
0.0
 10
28.40091931798657
 20
-20.59178357775136
 30
0.0
 10
28.40091931798657
 20
-20.59178357775136
 30
0.0
 10
28.40091931798657
 20
-20.70636745359077
 30
0.0
 10
28.40091931798657
 20
-20.70636745359077
 30
0.0
 10
28.40091931798657
 20
-20.70636745359077
 30
0.0
 10
28.42634412266772
 20
-20.70636745359077
 30
0.0
 10
28.42634412266772
 20
-20.70636745359077
 30
0.0
 10
28.42634412266772
 20
-20.70636745359077
 30
0.0
 10
28.42634412266772
 20
-20.7191832087959
 30
0.0
 10
28.42634412266772
 20
-20.7191832087959
 30
0.0
 10
28.42634412266772
 20
-20.7191832087959
 30
0.0
 10
28.40091931798657
 20
-20.7191832087959
 30
0.0
 10
28.40091931798657
 20
-20.7191832087959
 30
0.0
 10
28.40091931798657
 20
-20.7191832087959
 30
0.0
 10
28.40091931798657
 20
-20.76135117753536
 30
0.0
 10
28.40091931798657
 20
-20.76135117753536
 30
0.0
 10
28.40091931798657
 20
-20.76135117753536
 30
0.0
 10
28.38686332840675
 20
-20.76135117753536
 30
0.0
 10
28.38686332840675
 20
-20.76135117753536
 30
0.0
 10
28.38686332840675
 20
-20.76135117753536
 30
0.0
 10
28.38686332840675
 20
-20.7191832087959
 30
0.0
 10
28.38686332840675
 20
-20.7191832087959
 30
0.0
 10
28.38686332840675
 20
-20.7191832087959
 30
0.0
 10
28.30862520993673
 20
-20.7191832087959
 30
0.0
 10
28.30862520993673
 20
-20.7191832087959
 30
0.0
 10
28.30862520993673
 20
-20.7191832087959
 30
0.0
 10
28.30862520993673
 20
-20.70440374916417
 30
0.0
 10
28.30862520993673
 20
-20.70440374916417
 30
0.0
  0
HATCH
  5
E4
330
DA
100
AcDbEntity
  8
Livello 1
 62
    18
420
        0
440
 33554687
100
AcDbHatch
 10
0.0
 20
0.0
 30
0.0
210
0.0
220
0.0
230
1.0
  2
SOLID
 70
     1
 71
     1
 91
        2
 92
        1
 93
        1
 72
     4
 94
        3
 73
     0
 74
     0
 95
       17
 96
       13
 40
0.0
 40
0.0
 40
0.0
 40
0.0
 40
1.0
 40
1.0
 40
1.0
 40
2.0
 40
2.0
 40
2.0
 40
3.0
 40
3.0
 40
3.0
 40
4.0
 40
4.0
 40
4.0
 40
4.0
 10
28.38686332840675
 20
-20.70636745359077
 10
28.38686332840675
 20
-20.70636745359077
 10
28.38686332840675
 20
-20.61407334554092
 10
28.38686332840675
 20
-20.61407334554092
 10
28.38686332840675
 20
-20.61407334554092
 10
28.38638101503882
 20
-20.61407334554092
 10
28.38638101503882
 20
-20.61407334554092
 10
28.38638101503882
 20
-20.61407334554092
 10
28.32240559187773
 20
-20.70636745359077
 10
28.32240559187773
 20
-20.70636745359077
 10
28.32240559187773
 20
-20.70636745359077
 10
28.38686332840675
 20
-20.70636745359077
 10
28.38686332840675
 20
-20.70636745359077
 97
        0
 97
        1
330
E2
 92
        1
 93
        1
 72
     4
 94
        3
 73
     0
 74
     0
 95
       38
 96
       34
 40
0.0
 40
0.0
 40
0.0
 40
0.0
 40
1.0
 40
1.0
 40
1.0
 40
2.0
 40
2.0
 40
2.0
 40
3.0
 40
3.0
 40
3.0
 40
4.0
 40
4.0
 40
4.0
 40
5.0
 40
5.0
 40
5.0
 40
6.0
 40
6.0
 40
6.0
 40
7.0
 40
7.0
 40
7.0
 40
8.0
 40
8.0
 40
8.0
 40
9.0
 40
9.0
 40
9.0
 40
10.0
 40
10.0
 40
10.0
 40
11.0
 40
11.0
 40
11.0
 40
11.0
 10
28.30862520993673
 20
-20.70440374916417
 10
28.30862520993673
 20
-20.70440374916417
 10
28.38710448509072
 20
-20.59178357775136
 10
28.38710448509072
 20
-20.59178357775136
 10
28.38710448509072
 20
-20.59178357775136
 10
28.40091931798657
 20
-20.59178357775136
 10
28.40091931798657
 20
-20.59178357775136
 10
28.40091931798657
 20
-20.59178357775136
 10
28.40091931798657
 20
-20.70636745359077
 10
28.40091931798657
 20
-20.70636745359077
 10
28.40091931798657
 20
-20.70636745359077
 10
28.42634412266772
 20
-20.70636745359077
 10
28.42634412266772
 20
-20.70636745359077
 10
28.42634412266772
 20
-20.70636745359077
 10
28.42634412266772
 20
-20.7191832087959
 10
28.42634412266772
 20
-20.7191832087959
 10
28.42634412266772
 20
-20.7191832087959
 10
28.40091931798657
 20
-20.7191832087959
 10
28.40091931798657
 20
-20.7191832087959
 10
28.40091931798657
 20
-20.7191832087959
 10
28.40091931798657
 20
-20.76135117753536
 10
28.40091931798657
 20
-20.76135117753536
 10
28.40091931798657
 20
-20.76135117753536
 10
28.38686332840675
 20
-20.76135117753536
 10
28.38686332840675
 20
-20.76135117753536
 10
28.38686332840675
 20
-20.76135117753536
 10
28.38686332840675
 20
-20.7191832087959
 10
28.38686332840675
 20
-20.7191832087959
 10
28.38686332840675
 20
-20.7191832087959
 10
28.30862520993673
 20
-20.7191832087959
 10
28.30862520993673
 20
-20.7191832087959
 10
28.30862520993673
 20
-20.7191832087959
 10
28.30862520993673
 20
-20.70440374916417
 10
28.30862520993673
 20
-20.70440374916417
 97
        0
 97
        1
330
E3
 75
     2
 76
     1
 98
        1
 10
0.0
 20
0.0
450
        0
451
        0
460
0.0
461
0.0
452
        0
462
0.0
453
        0
470

  0
SPLINE
  5
E5
330
DA
100
AcDbEntity
  8
Livello 1
100
AcDbSpline
210
0.0
220
0.0
230
1.0
 70
     9
 71
     3
 72
    53
 73
    49
 74
     0
 42
0.000000001
 43
0.0000000001
 40
0.0
 40
0.0
 40
0.0
 40
0.0
 40
1.0
 40
1.0
 40
1.0
 40
2.0
 40
2.0
 40
2.0
 40
3.0
 40
3.0
 40
3.0
 40
4.0
 40
4.0
 40
4.0
 40
5.0
 40
5.0
 40
5.0
 40
6.0
 40
6.0
 40
6.0
 40
7.0
 40
7.0
 40
7.0
 40
8.0
 40
8.0
 40
8.0
 40
9.0
 40
9.0
 40
9.0
 40
10.0
 40
10.0
 40
10.0
 40
11.0
 40
11.0
 40
11.0
 40
12.0
 40
12.0
 40
12.0
 40
13.0
 40
13.0
 40
13.0
 40
14.0
 40
14.0
 40
14.0
 40
15.0
 40
15.0
 40
15.0
 40
16.0
 40
16.0
 40
16.0
 40
16.0
 10
28.4598649017392
 20
-20.71291313501274
 30
0.0
 10
28.4605883717911
 20
-20.73640868622215
 30
0.0
 10
28.47829616258529
 20
-20.75215277258974
 30
0.0
 10
28.50155055711072
 20
-20.75215277258974
 30
0.0
 10
28.52769883184377
 20
-20.75215277258974
 30
0.0
 10
28.5439252315793
 20
-20.73058647485208
 30
0.0
 10
28.5439252315793
 20
-20.70588514022283
 30
0.0
 10
28.5439252315793
 20
-20.68090819795477
 30
0.0
 10
28.52576957837203
 20
-20.66178791801164
 30
0.0
 10
28.50058593037485
 20
-20.66178791801164
 30
0.0
 10
28.48556531405916
 20
-20.66178791801164
 30
0.0
 10
28.47102701111142
 20
-20.66905706948551
 30
0.0
 10
28.46279323290166
 20
-20.68190727564549
 30
0.0
 10
28.46279323290166
 20
-20.68190727564549
 30
0.0
 10
28.44970187005771
 20
-20.68190727564549
 30
0.0
 10
28.44970187005771
 20
-20.68190727564549
 30
0.0
 10
28.44970187005771
 20
-20.68190727564549
 30
0.0
 10
28.46616942647721
 20
-20.59395398790707
 30
0.0
 10
28.46616942647721
 20
-20.59395398790707
 30
0.0
 10
28.46616942647721
 20
-20.59395398790707
 30
0.0
 10
28.5509532263692
 20
-20.59395398790707
 30
0.0
 10
28.5509532263692
 20
-20.59395398790707
 30
0.0
 10
28.5509532263692
 20
-20.59395398790707
 30
0.0
 10
28.5509532263692
 20
-20.60800997748688
 30
0.0
 10
28.5509532263692
 20
-20.60800997748688
 30
0.0
 10
28.5509532263692
 20
-20.60800997748688
 30
0.0
 10
28.47684922248148
 20
-20.60800997748688
 30
0.0
 10
28.47684922248148
 20
-20.60800997748688
 30
0.0
 10
28.47684922248148
 20
-20.60800997748688
 30
0.0
 10
28.46592826979324
 20
-20.66419948485131
 30
0.0
 10
28.46592826979324
 20
-20.66419948485131
 30
0.0
 10
28.46592826979324
 20
-20.66419948485131
 30
0.0
 10
28.46641058316118
 20
-20.66468179821924
 30
0.0
 10
28.46641058316118
 20
-20.66468179821924
 30
0.0
 10
28.47488551805489
 20
-20.65475992322173
 30
0.0
 10
28.48918266431868
 20
-20.64893771185165
 30
0.0
 10
28.50227402716262
 20
-20.64893771185165
 30
0.0
 10
28.53713839347335
 20
-20.64893771185165
 30
0.0
 10
28.55918700457895
 20
-20.67339788979693
 30
0.0
 10
28.55918700457895
 20
-20.70757323701061
 30
0.0
 10
28.55918700457895
 20
-20.74074950653356
 30
0.0
 10
28.53279757316194
 20
-20.76496852779487
 30
0.0
 10
28.50034477369089
 20
-20.76496852779487
 30
0.0
 10
28.4688566009557
 20
-20.76496852779487
 30
0.0
 10
28.44532659879144
 20
-20.74512477779983
 30
0.0
 10
28.44460312873954
 20
-20.71291313501274
 30
0.0
 10
28.44460312873954
 20
-20.71291313501274
 30
0.0
 10
28.4598649017392
 20
-20.71291313501274
 30
0.0
 10
28.4598649017392
 20
-20.71291313501274
 30
0.0
  0
HATCH
  5
E6
330
DA
100
AcDbEntity
  8
Livello 1
 62
    18
420
        0
440
 33554687
100
AcDbHatch
 10
0.0
 20
0.0
 30
0.0
210
0.0
220
0.0
230
1.0
  2
SOLID
 70
     1
 71
     1
 91
        1
 92
        1
 93
        1
 72
     4
 94
        3
 73
     0
 74
     0
 95
       53
 96
       49
 40
0.0
 40
0.0
 40
0.0
 40
0.0
 40
1.0
 40
1.0
 40
1.0
 40
2.0
 40
2.0
 40
2.0
 40
3.0
 40
3.0
 40
3.0
 40
4.0
 40
4.0
 40
4.0
 40
5.0
 40
5.0
 40
5.0
 40
6.0
 40
6.0
 40
6.0
 40
7.0
 40
7.0
 40
7.0
 40
8.0
 40
8.0
 40
8.0
 40
9.0
 40
9.0
 40
9.0
 40
10.0
 40
10.0
 40
10.0
 40
11.0
 40
11.0
 40
11.0
 40
12.0
 40
12.0
 40
12.0
 40
13.0
 40
13.0
 40
13.0
 40
14.0
 40
14.0
 40
14.0
 40
15.0
 40
15.0
 40
15.0
 40
16.0
 40
16.0
 40
16.0
 40
16.0
 10
28.4598649017392
 20
-20.71291313501274
 10
28.4605883717911
 20
-20.73640868622215
 10
28.47829616258529
 20
-20.75215277258974
 10
28.50155055711072
 20
-20.75215277258974
 10
28.52769883184377
 20
-20.75215277258974
 10
28.5439252315793
 20
-20.73058647485208
 10
28.5439252315793
 20
-20.70588514022283
 10
28.5439252315793
 20
-20.68090819795477
 10
28.52576957837203
 20
-20.66178791801164
 10
28.50058593037485
 20
-20.66178791801164
 10
28.48556531405916
 20
-20.66178791801164
 10
28.47102701111142
 20
-20.66905706948551
 10
28.46279323290166
 20
-20.68190727564549
 10
28.46279323290166
 20
-20.68190727564549
 10
28.44970187005771
 20
-20.68190727564549
 10
28.44970187005771
 20
-20.68190727564549
 10
28.44970187005771
 20
-20.68190727564549
 10
28.46616942647721
 20
-20.59395398790707
 10
28.46616942647721
 20
-20.59395398790707
 10
28.46616942647721
 20
-20.59395398790707
 10
28.5509532263692
 20
-20.59395398790707
 10
28.5509532263692
 20
-20.59395398790707
 10
28.5509532263692
 20
-20.59395398790707
 10
28.5509532263692
 20
-20.60800997748688
 10
28.5509532263692
 20
-20.60800997748688
 10
28.5509532263692
 20
-20.60800997748688
 10
28.47684922248148
 20
-20.60800997748688
 10
28.47684922248148
 20
-20.60800997748688
 10
28.47684922248148
 20
-20.60800997748688
 10
28.46592826979324
 20
-20.66419948485131
 10
28.46592826979324
 20
-20.66419948485131
 10
28.46592826979324
 20
-20.66419948485131
 10
28.46641058316118
 20
-20.66468179821924
 10
28.46641058316118
 20
-20.66468179821924
 10
28.47488551805489
 20
-20.65475992322173
 10
28.48918266431868
 20
-20.64893771185165
 10
28.50227402716262
 20
-20.64893771185165
 10
28.53713839347335
 20
-20.64893771185165
 10
28.55918700457895
 20
-20.67339788979693
 10
28.55918700457895
 20
-20.70757323701061
 10
28.55918700457895
 20
-20.74074950653356
 10
28.53279757316194
 20
-20.76496852779487
 10
28.50034477369089
 20
-20.76496852779487
 10
28.4688566009557
 20
-20.76496852779487
 10
28.44532659879144
 20
-20.74512477779983
 10
28.44460312873954
 20
-20.71291313501274
 10
28.44460312873954
 20
-20.71291313501274
 10
28.4598649017392
 20
-20.71291313501274
 10
28.4598649017392
 20
-20.71291313501274
 97
        0
 97
        1
330
E5
 75
     2
 76
     1
 98
        1
 10
0.0
 20
0.0
450
        0
451
        0
460
0.0
461
0.0
452
        0
462
0.0
453
        0
470

  0
SPLINE
  5
E7
330
DA
100
AcDbEntity
  8
Livello 1
100
AcDbSpline
210
0.0
220
0.0
230
1.0
 70
     9
 71
     3
 72
    17
 73
    13
 74
     0
 42
0.000000001
 43
0.0000000001
 40
0.0
 40
0.0
 40
0.0
 40
0.0
 40
1.0
 40
1.0
 40
1.0
 40
2.0
 40
2.0
 40
2.0
 40
3.0
 40
3.0
 40
3.0
 40
4.0
 40
4.0
 40
4.0
 40
4.0
 10
28.59391356707027
 20
-20.67753200437923
 30
0.0
 10
28.59391356707027
 20
-20.70709092364267
 30
0.0
 10
28.59901230838844
 20
-20.75215277258974
 30
0.0
 10
28.6377696325975
 20
-20.75215277258974
 30
0.0
 10
28.67652695680656
 20
-20.75215277258974
 30
0.0
 10
28.68162569812473
 20
-20.70709092364267
 30
0.0
 10
28.68162569812473
 20
-20.67753200437923
 30
0.0
 10
28.68162569812473
 20
-20.64821424179975
 30
0.0
 10
28.67652695680656
 20
-20.60315239285268
 30
0.0
 10
28.6377696325975
 20
-20.60315239285268
 30
0.0
 10
28.59901230838844
 20
-20.60315239285268
 30
0.0
 10
28.59391356707027
 20
-20.64821424179975
 30
0.0
 10
28.59391356707027
 20
-20.67753200437923
 30
0.0
  0
SPLINE
  5
E8
330
DA
100
AcDbEntity
  8
Livello 1
100
AcDbSpline
210
0.0
220
0.0
230
1.0
 70
     9
 71
     3
 72
    17
 73
    13
 74
     0
 42
0.000000001
 43
0.0000000001
 40
0.0
 40
0.0
 40
0.0
 40
0.0
 40
1.0
 40
1.0
 40
1.0
 40
2.0
 40
2.0
 40
2.0
 40
3.0
 40
3.0
 40
3.0
 40
4.0
 40
4.0
 40
4.0
 40
4.0
 10
28.69688747112439
 20
-20.67753200437923
 30
0.0
 10
28.69688747112439
 20
-20.71725395532416
 30
0.0
 10
28.68717230185599
 20
-20.76496852779487
 30
0.0
 10
28.6377696325975
 20
-20.76496852779487
 30
0.0
 10
28.58836696333902
 20
-20.76496852779487
 30
0.0
 10
28.57865179407061
 20
-20.71725395532416
 30
0.0
 10
28.57865179407061
 20
-20.67777316106319
 30
0.0
 10
28.57865179407061
 20
-20.63805121011826
 30
0.0
 10
28.58836696333902
 20
-20.59033663764755
 30
0.0
 10
28.6377696325975
 20
-20.59033663764755
 30
0.0
 10
28.68717230185599
 20
-20.59033663764755
 30
0.0
 10
28.69688747112439
 20
-20.63805121011826
 30
0.0
 10
28.69688747112439
 20
-20.67753200437923
 30
0.0
  0
HATCH
  5
E9
330
DA
100
AcDbEntity
  8
Livello 1
 62
    18
420
        0
440
 33554687
100
AcDbHatch
 10
0.0
 20
0.0
 30
0.0
210
0.0
220
0.0
230
1.0
  2
SOLID
 70
     1
 71
     1
 91
        2
 92
        1
 93
        1
 72
     4
 94
        3
 73
     0
 74
     0
 95
       17
 96
       13
 40
0.0
 40
0.0
 40
0.0
 40
0.0
 40
1.0
 40
1.0
 40
1.0
 40
2.0
 40
2.0
 40
2.0
 40
3.0
 40
3.0
 40
3.0
 40
4.0
 40
4.0
 40
4.0
 40
4.0
 10
28.59391356707027
 20
-20.67753200437923
 10
28.59391356707027
 20
-20.70709092364267
 10
28.59901230838844
 20
-20.75215277258974
 10
28.6377696325975
 20
-20.75215277258974
 10
28.67652695680656
 20
-20.75215277258974
 10
28.68162569812473
 20
-20.70709092364267
 10
28.68162569812473
 20
-20.67753200437923
 10
28.68162569812473
 20
-20.64821424179975
 10
28.67652695680656
 20
-20.60315239285268
 10
28.6377696325975
 20
-20.60315239285268
 10
28.59901230838844
 20
-20.60315239285268
 10
28.59391356707027
 20
-20.64821424179975
 10
28.59391356707027
 20
-20.67753200437923
 97
        0
 97
        1
330
E7
 92
        1
 93
        1
 72
     4
 94
        3
 73
     0
 74
     0
 95
       17
 96
       13
 40
0.0
 40
0.0
 40
0.0
 40
0.0
 40
1.0
 40
1.0
 40
1.0
 40
2.0
 40
2.0
 40
2.0
 40
3.0
 40
3.0
 40
3.0
 40
4.0
 40
4.0
 40
4.0
 40
4.0
 10
28.69688747112439
 20
-20.67753200437923
 10
28.69688747112439
 20
-20.71725395532416
 10
28.68717230185599
 20
-20.76496852779487
 10
28.6377696325975
 20
-20.76496852779487
 10
28.58836696333902
 20
-20.76496852779487
 10
28.57865179407061
 20
-20.71725395532416
 10
28.57865179407061
 20
-20.67777316106319
 10
28.57865179407061
 20
-20.63805121011826
 10
28.58836696333902
 20
-20.59033663764755
 10
28.6377696325975
 20
-20.59033663764755
 10
28.68717230185599
 20
-20.59033663764755
 10
28.69688747112439
 20
-20.63805121011826
 10
28.69688747112439
 20
-20.67753200437923
 97
        0
 97
        1
330
E8
 75
     2
 76
     1
 98
        1
 10
0.0
 20
0.0
450
        0
451
        0
460
0.0
461
0.0
452
        0
462
0.0
453
        0
470

  0
ENDBLK
  5
DD
330
DA
100
AcDbEntity
  8
0
100
AcDbBlockEnd
  0
BLOCK
  5
EC
330
EA
100
AcDbEntity
  8
0
100
AcDbBlockBegin
  2
Block_14
 70
     0
 10
0.0
 20
0.0
 30
0.0
  3
Block_14
  1

  0
LINE
  5
EE
330
EA
100
AcDbEntity
  8
Livello 1
 62
    18
420
        0
370
     9
100
AcDbLine
 10
28.09757493398003
 20
-20.68002152860751
 30
0.0
 11
24.89732619404437
 21
-20.68002152860751
 31
0.0
  0
LWPOLYLINE
  5
EF
330
EA
100
AcDbEntity
  8
Livello 1
100
AcDbPolyline
 90
        3
 70
     1
 43
0.0
 10
24.64061342136117
 20
-20.68089861167905
 10
24.89551037410834
 20
-20.59592125511622
 10
24.89551037410834
 20
-20.7641218020988
  0
HATCH
  5
F0
330
EA
100
AcDbEntity
  8
Livello 1
 62
    18
420
        0
440
 33554687
100
AcDbHatch
 10
0.0
 20
0.0
 30
0.0
210
0.0
220
0.0
230
1.0
  2
SOLID
 70
     1
 71
     1
 91
        1
 92
        1
 93
        3
 72
     1
 10
24.64061342136117
 20
-20.68089861167905
 11
24.89551037410834
 21
-20.59592125511622
 72
     1
 10
24.89551037410834
 20
-20.59592125511622
 11
24.89551037410834
 21
-20.7641218020988
 72
     1
 10
24.89551037410834
 20
-20.7641218020988
 11
24.64061342136117
 21
-20.68089861167905
 97
        1
330
EF
 75
     0
 76
     1
 98
        1
 10
0.0
 20
0.0
450
        0
451
        0
460
0.0
461
0.0
452
        0
462
0.0
453
        0
470

  0
ENDBLK
  5
ED
330
EA
100
AcDbEntity
  8
0
100
AcDbBlockEnd
  0
BLOCK
  5
F3
330
F1
100
AcDbEntity
  8
0
100
AcDbBlockBegin
  2
Block_15
 70
     0
 10
0.0
 20
0.0
 30
0.0
  3
Block_15
  1

  0
LINE
  5
F5
330
F1
100
AcDbEntity
  8
Livello 1
 62
    18
420
        0
370
     9
100
AcDbLine
 10
28.7416474245724
 20
-20.68002152860751
 30
0.0
 11
32.04323913856954
 21
-20.68002152860751
 31
0.0
  0
LWPOLYLINE
  5
F6
330
F1
100
AcDbEntity
  8
Livello 1
100
AcDbPolyline
 90
        3
 70
     1
 43
0.0
 10
32.29995191125289
 20
-20.67914444553604
 10
32.04505495850564
 20
-20.7641218020988
 10
32.04505495850564
 20
-20.59592125511622
  0
HATCH
  5
F7
330
F1
100
AcDbEntity
  8
Livello 1
 62
    18
420
        0
440
 33554687
100
AcDbHatch
 10
0.0
 20
0.0
 30
0.0
210
0.0
220
0.0
230
1.0
  2
SOLID
 70
     1
 71
     1
 91
        1
 92
        1
 93
        3
 72
     1
 10
32.29995191125289
 20
-20.67914444553604
 11
32.04505495850564
 21
-20.7641218020988
 72
     1
 10
32.04505495850564
 20
-20.7641218020988
 11
32.04505495850564
 21
-20.59592125511622
 72
     1
 10
32.04505495850564
 20
-20.59592125511622
 11
32.29995191125289
 21
-20.67914444553604
 97
        1
330
F6
 75
     0
 76
     1
 98
        1
 10
0.0
 20
0.0
450
        0
451
        0
460
0.0
461
0.0
452
        0
462
0.0
453
        0
470

  0
ENDBLK
  5
F4
330
F1
100
AcDbEntity
  8
0
100
AcDbBlockEnd
  0
BLOCK
  5
FA
330
F8
100
AcDbEntity
  8
0
100
AcDbBlockBegin
  2
Block_16
 70
     0
 10
0.0
 20
0.0
 30
0.0
  3
Block_16
  1

  0
INSERT
  5
FD
330
F8
100
AcDbEntity
  8
Livello 1
100
AcDbBlockReference
  2
Block_17
 10
0.0
 20
0.0
 30
0.0
  0
INSERT
  5
10A
330
F8
100
AcDbEntity
  8
Livello 1
100
AcDbBlockReference
  2
Block_19
 10
0.0
 20
0.0
 30
0.0
  0
INSERT
  5
111
330
F8
100
AcDbEntity
  8
Livello 1
100
AcDbBlockReference
  2
Block_20
 10
0.0
 20
0.0
 30
0.0
  0
ENDBLK
  5
FB
330
F8
100
AcDbEntity
  8
0
100
AcDbBlockEnd
  0
BLOCK
  5
FE
330
FC
100
AcDbEntity
  8
0
100
AcDbBlockBegin
  2
Block_17
 70
     0
 10
0.0
 20
0.0
 30
0.0
  3
Block_17
  1

  0
INSERT
  5
101
330
FC
100
AcDbEntity
  8
Livello 1
100
AcDbBlockReference
  2
Block_18
 10
0.0
 20
0.0
 30
0.0
  0
ENDBLK
  5
FF
330
FC
100
AcDbEntity
  8
0
100
AcDbBlockEnd
  0
BLOCK
  5
102
330
100
100
AcDbEntity
  8
0
100
AcDbBlockBegin
  2
Block_18
 70
     0
 10
0.0
 20
0.0
 30
0.0
  3
Block_18
  1

  0
SPLINE
  5
104
330
100
100
AcDbEntity
  8
Livello 1
100
AcDbSpline
210
0.0
220
0.0
230
1.0
 70
     9
 71
     3
 72
    26
 73
    22
 74
     0
 42
0.000000001
 43
0.0000000001
 40
0.0
 40
0.0
 40
0.0
 40
0.0
 40
1.0
 40
1.0
 40
1.0
 40
2.0
 40
2.0
 40
2.0
 40
3.0
 40
3.0
 40
3.0
 40
4.0
 40
4.0
 40
4.0
 40
5.0
 40
5.0
 40
5.0
 40
6.0
 40
6.0
 40
6.0
 40
7.0
 40
7.0
 40
7.0
 40
7.0
 10
23.96067355086747
 20
-19.98096814821655
 30
0.0
 10
23.98733858992331
 20
-19.97996907052584
 30
0.0
 10
24.0038061463428
 20
-19.9794867571579
 30
0.0
 10
24.00838812333818
 20
-19.94823974110669
 30
0.0
 10
24.00838812333818
 20
-19.94823974110669
 30
0.0
 10
24.02075601613022
 20
-19.94823974110669
 30
0.0
 10
24.02075601613022
 20
-19.94823974110669
 30
0.0
 10
24.02075601613022
 20
-19.94823974110669
 30
0.0
 10
24.02075601613022
 20
-20.11780734089068
 30
0.0
 10
24.02075601613022
 20
-20.11780734089068
 30
0.0
 10
24.02075601613022
 20
-20.11780734089068
 30
0.0
 10
24.00549424313057
 20
-20.11780734089068
 30
0.0
 10
24.00549424313057
 20
-20.11780734089068
 30
0.0
 10
24.00549424313057
 20
-20.11780734089068
 30
0.0
 10
24.00549424313057
 20
-19.99185464994995
 30
0.0
 10
24.00549424313057
 20
-19.99185464994995
 30
0.0
 10
24.00549424313057
 20
-19.99185464994995
 30
0.0
 10
23.96067355086747
 20
-19.99185464994995
 30
0.0
 10
23.96067355086747
 20
-19.99185464994995
 30
0.0
 10
23.96067355086747
 20
-19.99185464994995
 30
0.0
 10
23.96067355086747
 20
-19.98096814821655
 30
0.0
 10
23.96067355086747
 20
-19.98096814821655
 30
0.0
  0
HATCH
  5
105
330
100
100
AcDbEntity
  8
Livello 1
 62
    18
420
        0
440
 33554687
100
AcDbHatch
 10
0.0
 20
0.0
 30
0.0
210
0.0
220
0.0
230
1.0
  2
SOLID
 70
     1
 71
     1
 91
        1
 92
        1
 93
        1
 72
     4
 94
        3
 73
     0
 74
     0
 95
       26
 96
       22
 40
0.0
 40
0.0
 40
0.0
 40
0.0
 40
1.0
 40
1.0
 40
1.0
 40
2.0
 40
2.0
 40
2.0
 40
3.0
 40
3.0
 40
3.0
 40
4.0
 40
4.0
 40
4.0
 40
5.0
 40
5.0
 40
5.0
 40
6.0
 40
6.0
 40
6.0
 40
7.0
 40
7.0
 40
7.0
 40
7.0
 10
23.96067355086747
 20
-19.98096814821655
 10
23.98733858992331
 20
-19.97996907052584
 10
24.0038061463428
 20
-19.9794867571579
 10
24.00838812333818
 20
-19.94823974110669
 10
24.00838812333818
 20
-19.94823974110669
 10
24.02075601613022
 20
-19.94823974110669
 10
24.02075601613022
 20
-19.94823974110669
 10
24.02075601613022
 20
-19.94823974110669
 10
24.02075601613022
 20
-20.11780734089068
 10
24.02075601613022
 20
-20.11780734089068
 10
24.02075601613022
 20
-20.11780734089068
 10
24.00549424313057
 20
-20.11780734089068
 10
24.00549424313057
 20
-20.11780734089068
 10
24.00549424313057
 20
-20.11780734089068
 10
24.00549424313057
 20
-19.99185464994995
 10
24.00549424313057
 20
-19.99185464994995
 10
24.00549424313057
 20
-19.99185464994995
 10
23.96067355086747
 20
-19.99185464994995
 10
23.96067355086747
 20
-19.99185464994995
 10
23.96067355086747
 20
-19.99185464994995
 10
23.96067355086747
 20
-19.98096814821655
 10
23.96067355086747
 20
-19.98096814821655
 97
        0
 97
        1
330
104
 75
     2
 76
     1
 98
        1
 10
0.0
 20
0.0
450
        0
451
        0
460
0.0
461
0.0
452
        0
462
0.0
453
        0
470

  0
SPLINE
  5
106
330
100
100
AcDbEntity
  8
Livello 1
100
AcDbSpline
210
0.0
220
0.0
230
1.0
 70
    11
 71
     3
 72
    17
 73
    13
 74
     0
 42
0.000000001
 43
0.0000000001
 40
0.0
 40
0.0
 40
0.0
 40
0.0
 40
1.0
 40
1.0
 40
1.0
 40
2.0
 40
2.0
 40
2.0
 40
3.0
 40
3.0
 40
3.0
 40
4.0
 40
4.0
 40
4.0
 40
4.0
 10
24.15725069925583
 20
-20.0628236169461
 30
0.0
 10
24.15725069925583
 20
-20.0628236169461
 30
0.0
 10
24.15725069925583
 20
-19.97052950889625
 30
0.0
 10
24.15725069925583
 20
-19.97052950889625
 30
0.0
 10
24.15725069925583
 20
-19.97052950889625
 30
0.0
 10
24.15676838588789
 20
-19.97052950889625
 30
0.0
 10
24.15676838588789
 20
-19.97052950889625
 30
0.0
 10
24.15676838588789
 20
-19.97052950889625
 30
0.0
 10
24.09279296272681
 20
-20.0628236169461
 30
0.0
 10
24.09279296272681
 20
-20.0628236169461
 30
0.0
 10
24.09279296272681
 20
-20.0628236169461
 30
0.0
 10
24.15725069925583
 20
-20.0628236169461
 30
0.0
 10
24.15725069925583
 20
-20.0628236169461
 30
0.0
  0
SPLINE
  5
107
330
100
100
AcDbEntity
  8
Livello 1
100
AcDbSpline
210
0.0
220
0.0
230
1.0
 70
    11
 71
     3
 72
    38
 73
    34
 74
     0
 42
0.000000001
 43
0.0000000001
 40
0.0
 40
0.0
 40
0.0
 40
0.0
 40
1.0
 40
1.0
 40
1.0
 40
2.0
 40
2.0
 40
2.0
 40
3.0
 40
3.0
 40
3.0
 40
4.0
 40
4.0
 40
4.0
 40
5.0
 40
5.0
 40
5.0
 40
6.0
 40
6.0
 40
6.0
 40
7.0
 40
7.0
 40
7.0
 40
8.0
 40
8.0
 40
8.0
 40
9.0
 40
9.0
 40
9.0
 40
10.0
 40
10.0
 40
10.0
 40
11.0
 40
11.0
 40
11.0
 40
11.0
 10
24.0790125807858
 20
-20.06089436347436
 30
0.0
 10
24.0790125807858
 20
-20.06089436347436
 30
0.0
 10
24.15749185593979
 20
-19.94823974110669
 30
0.0
 10
24.15749185593979
 20
-19.94823974110669
 30
0.0
 10
24.15749185593979
 20
-19.94823974110669
 30
0.0
 10
24.17130668883564
 20
-19.94823974110669
 30
0.0
 10
24.17130668883564
 20
-19.94823974110669
 30
0.0
 10
24.17130668883564
 20
-19.94823974110669
 30
0.0
 10
24.17130668883564
 20
-20.0628236169461
 30
0.0
 10
24.17130668883564
 20
-20.0628236169461
 30
0.0
 10
24.17130668883564
 20
-20.0628236169461
 30
0.0
 10
24.19673149351679
 20
-20.0628236169461
 30
0.0
 10
24.19673149351679
 20
-20.0628236169461
 30
0.0
 10
24.19673149351679
 20
-20.0628236169461
 30
0.0
 10
24.19673149351679
 20
-20.07567382310608
 30
0.0
 10
24.19673149351679
 20
-20.07567382310608
 30
0.0
 10
24.19673149351679
 20
-20.07567382310608
 30
0.0
 10
24.17130668883564
 20
-20.07567382310608
 30
0.0
 10
24.17130668883564
 20
-20.07567382310608
 30
0.0
 10
24.17130668883564
 20
-20.07567382310608
 30
0.0
 10
24.17130668883564
 20
-20.11780734089068
 30
0.0
 10
24.17130668883564
 20
-20.11780734089068
 30
0.0
 10
24.17130668883564
 20
-20.11780734089068
 30
0.0
 10
24.15725069925583
 20
-20.11780734089068
 30
0.0
 10
24.15725069925583
 20
-20.11780734089068
 30
0.0
 10
24.15725069925583
 20
-20.11780734089068
 30
0.0
 10
24.15725069925583
 20
-20.07567382310608
 30
0.0
 10
24.15725069925583
 20
-20.07567382310608
 30
0.0
 10
24.15725069925583
 20
-20.07567382310608
 30
0.0
 10
24.0790125807858
 20
-20.07567382310608
 30
0.0
 10
24.0790125807858
 20
-20.07567382310608
 30
0.0
 10
24.0790125807858
 20
-20.07567382310608
 30
0.0
 10
24.0790125807858
 20
-20.06089436347436
 30
0.0
 10
24.0790125807858
 20
-20.06089436347436
 30
0.0
  0
HATCH
  5
108
330
100
100
AcDbEntity
  8
Livello 1
 62
    18
420
        0
440
 33554687
100
AcDbHatch
 10
0.0
 20
0.0
 30
0.0
210
0.0
220
0.0
230
1.0
  2
SOLID
 70
     1
 71
     1
 91
        2
 92
        1
 93
        1
 72
     4
 94
        3
 73
     0
 74
     0
 95
       17
 96
       13
 40
0.0
 40
0.0
 40
0.0
 40
0.0
 40
1.0
 40
1.0
 40
1.0
 40
2.0
 40
2.0
 40
2.0
 40
3.0
 40
3.0
 40
3.0
 40
4.0
 40
4.0
 40
4.0
 40
4.0
 10
24.15725069925583
 20
-20.0628236169461
 10
24.15725069925583
 20
-20.0628236169461
 10
24.15725069925583
 20
-19.97052950889625
 10
24.15725069925583
 20
-19.97052950889625
 10
24.15725069925583
 20
-19.97052950889625
 10
24.15676838588789
 20
-19.97052950889625
 10
24.15676838588789
 20
-19.97052950889625
 10
24.15676838588789
 20
-19.97052950889625
 10
24.09279296272681
 20
-20.0628236169461
 10
24.09279296272681
 20
-20.0628236169461
 10
24.09279296272681
 20
-20.0628236169461
 10
24.15725069925583
 20
-20.0628236169461
 10
24.15725069925583
 20
-20.0628236169461
 97
        0
 97
        1
330
106
 92
        1
 93
        1
 72
     4
 94
        3
 73
     0
 74
     0
 95
       38
 96
       34
 40
0.0
 40
0.0
 40
0.0
 40
0.0
 40
1.0
 40
1.0
 40
1.0
 40
2.0
 40
2.0
 40
2.0
 40
3.0
 40
3.0
 40
3.0
 40
4.0
 40
4.0
 40
4.0
 40
5.0
 40
5.0
 40
5.0
 40
6.0
 40
6.0
 40
6.0
 40
7.0
 40
7.0
 40
7.0
 40
8.0
 40
8.0
 40
8.0
 40
9.0
 40
9.0
 40
9.0
 40
10.0
 40
10.0
 40
10.0
 40
11.0
 40
11.0
 40
11.0
 40
11.0
 10
24.0790125807858
 20
-20.06089436347436
 10
24.0790125807858
 20
-20.06089436347436
 10
24.15749185593979
 20
-19.94823974110669
 10
24.15749185593979
 20
-19.94823974110669
 10
24.15749185593979
 20
-19.94823974110669
 10
24.17130668883564
 20
-19.94823974110669
 10
24.17130668883564
 20
-19.94823974110669
 10
24.17130668883564
 20
-19.94823974110669
 10
24.17130668883564
 20
-20.0628236169461
 10
24.17130668883564
 20
-20.0628236169461
 10
24.17130668883564
 20
-20.0628236169461
 10
24.19673149351679
 20
-20.0628236169461
 10
24.19673149351679
 20
-20.0628236169461
 10
24.19673149351679
 20
-20.0628236169461
 10
24.19673149351679
 20
-20.07567382310608
 10
24.19673149351679
 20
-20.07567382310608
 10
24.19673149351679
 20
-20.07567382310608
 10
24.17130668883564
 20
-20.07567382310608
 10
24.17130668883564
 20
-20.07567382310608
 10
24.17130668883564
 20
-20.07567382310608
 10
24.17130668883564
 20
-20.11780734089068
 10
24.17130668883564
 20
-20.11780734089068
 10
24.17130668883564
 20
-20.11780734089068
 10
24.15725069925583
 20
-20.11780734089068
 10
24.15725069925583
 20
-20.11780734089068
 10
24.15725069925583
 20
-20.11780734089068
 10
24.15725069925583
 20
-20.07567382310608
 10
24.15725069925583
 20
-20.07567382310608
 10
24.15725069925583
 20
-20.07567382310608
 10
24.0790125807858
 20
-20.07567382310608
 10
24.0790125807858
 20
-20.07567382310608
 10
24.0790125807858
 20
-20.07567382310608
 10
24.0790125807858
 20
-20.06089436347436
 10
24.0790125807858
 20
-20.06089436347436
 97
        0
 97
        1
330
107
 75
     2
 76
     1
 98
        1
 10
0.0
 20
0.0
450
        0
451
        0
460
0.0
461
0.0
452
        0
462
0.0
453
        0
470

  0
ENDBLK
  5
103
330
100
100
AcDbEntity
  8
0
100
AcDbBlockEnd
  0
BLOCK
  5
10B
330
109
100
AcDbEntity
  8
0
100
AcDbBlockBegin
  2
Block_19
 70
     0
 10
0.0
 20
0.0
 30
0.0
  3
Block_19
  1

  0
LINE
  5
10D
330
109
100
AcDbEntity
  8
Livello 1
 62
    18
420
        0
370
     9
100
AcDbLine
 10
24.06666282881309
 20
-19.9111531766631
 30
0.0
 11
24.06666282881309
 21
-19.85844640487847
 31
0.0
  0
LWPOLYLINE
  5
10E
330
109
100
AcDbEntity
  8
Livello 1
100
AcDbPolyline
 90
        3
 70
     1
 43
0.0
 10
24.06578574574161
 20
-19.6017336321952
 10
24.15076310230438
 20
-19.85663058494243
 10
23.9825625553218
 20
-19.85663058494243
  0
HATCH
  5
10F
330
109
100
AcDbEntity
  8
Livello 1
 62
    18
420
        0
440
 33554687
100
AcDbHatch
 10
0.0
 20
0.0
 30
0.0
210
0.0
220
0.0
230
1.0
  2
SOLID
 70
     1
 71
     1
 91
        1
 92
        1
 93
        3
 72
     1
 10
24.06578574574161
 20
-19.6017336321952
 11
24.15076310230438
 21
-19.85663058494243
 72
     1
 10
24.15076310230438
 20
-19.85663058494243
 11
23.9825625553218
 21
-19.85663058494243
 72
     1
 10
23.9825625553218
 20
-19.85663058494243
 11
24.06578574574161
 21
-19.6017336321952
 97
        1
330
10E
 75
     0
 76
     1
 98
        1
 10
0.0
 20
0.0
450
        0
451
        0
460
0.0
461
0.0
452
        0
462
0.0
453
        0
470

  0
ENDBLK
  5
10C
330
109
100
AcDbEntity
  8
0
100
AcDbBlockEnd
  0
BLOCK
  5
112
330
110
100
AcDbEntity
  8
0
100
AcDbBlockBegin
  2
Block_20
 70
     0
 10
0.0
 20
0.0
 30
0.0
  3
Block_20
  1

  0
LINE
  5
114
330
110
100
AcDbEntity
  8
Livello 1
 62
    18
420
        0
370
     9
100
AcDbLine
 10
24.06666282881309
 20
-20.19781904672985
 30
0.0
 11
24.06666282881309
 21
-20.24140661643319
 31
0.0
  0
LWPOLYLINE
  5
115
330
110
100
AcDbEntity
  8
Livello 1
100
AcDbPolyline
 90
        3
 70
     1
 43
0.0
 10
24.06753991188469
 20
-20.49811938911652
 10
23.9825625553218
 20
-20.24322243636935
 10
24.15076310230438
 20
-20.24322243636935
  0
HATCH
  5
116
330
110
100
AcDbEntity
  8
Livello 1
 62
    18
420
        0
440
 33554687
100
AcDbHatch
 10
0.0
 20
0.0
 30
0.0
210
0.0
220
0.0
230
1.0
  2
SOLID
 70
     1
 71
     1
 91
        1
 92
        1
 93
        3
 72
     1
 10
24.06753991188469
 20
-20.49811938911652
 11
23.9825625553218
 21
-20.24322243636935
 72
     1
 10
23.9825625553218
 20
-20.24322243636935
 11
24.15076310230438
 21
-20.24322243636935
 72
     1
 10
24.15076310230438
 20
-20.24322243636935
 11
24.06753991188469
 21
-20.49811938911652
 97
        1
330
115
 75
     0
 76
     1
 98
        1
 10
0.0
 20
0.0
450
        0
451
        0
460
0.0
461
0.0
452
        0
462
0.0
453
        0
470

  0
ENDBLK
  5
113
330
110
100
AcDbEntity
  8
0
100
AcDbBlockEnd
  0
BLOCK
  5
119
330
117
100
AcDbEntity
  8
0
100
AcDbBlockBegin
  2
Block_21
 70
     0
 10
0.0
 20
0.0
 30
0.0
  3
Block_21
  1

  0
INSERT
  5
11C
330
117
100
AcDbEntity
  8
Livello 1
100
AcDbBlockReference
  2
Block_22
 10
0.0
 20
0.0
 30
0.0
  0
INSERT
  5
129
330
117
100
AcDbEntity
  8
Livello 1
100
AcDbBlockReference
  2
Block_24
 10
0.0
 20
0.0
 30
0.0
  0
INSERT
  5
130
330
117
100
AcDbEntity
  8
Livello 1
100
AcDbBlockReference
  2
Block_25
 10
0.0
 20
0.0
 30
0.0
  0
ENDBLK
  5
11A
330
117
100
AcDbEntity
  8
0
100
AcDbBlockEnd
  0
BLOCK
  5
11D
330
11B
100
AcDbEntity
  8
0
100
AcDbBlockBegin
  2
Block_22
 70
     0
 10
0.0
 20
0.0
 30
0.0
  3
Block_22
  1

  0
INSERT
  5
120
330
11B
100
AcDbEntity
  8
Livello 1
100
AcDbBlockReference
  2
Block_23
 10
0.0
 20
0.0
 30
0.0
  0
ENDBLK
  5
11E
330
11B
100
AcDbEntity
  8
0
100
AcDbBlockEnd
  0
BLOCK
  5
121
330
11F
100
AcDbEntity
  8
0
100
AcDbBlockBegin
  2
Block_23
 70
     0
 10
0.0
 20
0.0
 30
0.0
  3
Block_23
  1

  0
SPLINE
  5
123
330
11F
100
AcDbEntity
  8
Livello 1
100
AcDbSpline
210
0.0
220
0.0
230
1.0
 70
    11
 71
     3
 72
    17
 73
    13
 74
     0
 42
0.000000001
 43
0.0000000001
 40
0.0
 40
0.0
 40
0.0
 40
0.0
 40
1.0
 40
1.0
 40
1.0
 40
2.0
 40
2.0
 40
2.0
 40
3.0
 40
3.0
 40
3.0
 40
4.0
 40
4.0
 40
4.0
 40
4.0
 10
32.59174017197359
 20
-19.82748914434868
 30
0.0
 10
32.59174017197359
 20
-19.82748914434868
 30
0.0
 10
32.59174017197359
 20
-19.73519503629884
 30
0.0
 10
32.59174017197359
 20
-19.73519503629884
 30
0.0
 10
32.59174017197359
 20
-19.73519503629884
 30
0.0
 10
32.59125785860566
 20
-19.73519503629884
 30
0.0
 10
32.59125785860566
 20
-19.73519503629884
 30
0.0
 10
32.59125785860566
 20
-19.73519503629884
 30
0.0
 10
32.52731688639942
 20
-19.82748914434868
 30
0.0
 10
32.52731688639942
 20
-19.82748914434868
 30
0.0
 10
32.52731688639942
 20
-19.82748914434868
 30
0.0
 10
32.59174017197359
 20
-19.82748914434868
 30
0.0
 10
32.59174017197359
 20
-19.82748914434868
 30
0.0
  0
SPLINE
  5
124
330
11F
100
AcDbEntity
  8
Livello 1
100
AcDbSpline
210
0.0
220
0.0
230
1.0
 70
    11
 71
     3
 72
    38
 73
    34
 74
     0
 42
0.000000001
 43
0.0000000001
 40
0.0
 40
0.0
 40
0.0
 40
0.0
 40
1.0
 40
1.0
 40
1.0
 40
2.0
 40
2.0
 40
2.0
 40
3.0
 40
3.0
 40
3.0
 40
4.0
 40
4.0
 40
4.0
 40
5.0
 40
5.0
 40
5.0
 40
6.0
 40
6.0
 40
6.0
 40
7.0
 40
7.0
 40
7.0
 40
8.0
 40
8.0
 40
8.0
 40
9.0
 40
9.0
 40
9.0
 40
10.0
 40
10.0
 40
10.0
 40
11.0
 40
11.0
 40
11.0
 40
11.0
 10
32.51350205350358
 20
-19.82552543992209
 30
0.0
 10
32.51350205350358
 20
-19.82552543992209
 30
0.0
 10
32.59198132865756
 20
-19.71290526850927
 30
0.0
 10
32.59198132865756
 20
-19.71290526850927
 30
0.0
 10
32.59198132865756
 20
-19.71290526850927
 30
0.0
 10
32.60579616155342
 20
-19.71290526850927
 30
0.0
 10
32.60579616155342
 20
-19.71290526850927
 30
0.0
 10
32.60579616155342
 20
-19.71290526850927
 30
0.0
 10
32.60579616155342
 20
-19.82748914434868
 30
0.0
 10
32.60579616155342
 20
-19.82748914434868
 30
0.0
 10
32.60579616155342
 20
-19.82748914434868
 30
0.0
 10
32.63122096623455
 20
-19.82748914434868
 30
0.0
 10
32.63122096623455
 20
-19.82748914434868
 30
0.0
 10
32.63122096623455
 20
-19.82748914434868
 30
0.0
 10
32.63122096623455
 20
-19.84030489955381
 30
0.0
 10
32.63122096623455
 20
-19.84030489955381
 30
0.0
 10
32.63122096623455
 20
-19.84030489955381
 30
0.0
 10
32.60579616155342
 20
-19.84030489955381
 30
0.0
 10
32.60579616155342
 20
-19.84030489955381
 30
0.0
 10
32.60579616155342
 20
-19.84030489955381
 30
0.0
 10
32.60579616155342
 20
-19.88247286829327
 30
0.0
 10
32.60579616155342
 20
-19.88247286829327
 30
0.0
 10
32.60579616155342
 20
-19.88247286829327
 30
0.0
 10
32.59174017197359
 20
-19.88247286829327
 30
0.0
 10
32.59174017197359
 20
-19.88247286829327
 30
0.0
 10
32.59174017197359
 20
-19.88247286829327
 30
0.0
 10
32.59174017197359
 20
-19.84030489955381
 30
0.0
 10
32.59174017197359
 20
-19.84030489955381
 30
0.0
 10
32.59174017197359
 20
-19.84030489955381
 30
0.0
 10
32.51350205350358
 20
-19.84030489955381
 30
0.0
 10
32.51350205350358
 20
-19.84030489955381
 30
0.0
 10
32.51350205350358
 20
-19.84030489955381
 30
0.0
 10
32.51350205350358
 20
-19.82552543992209
 30
0.0
 10
32.51350205350358
 20
-19.82552543992209
 30
0.0
  0
HATCH
  5
125
330
11F
100
AcDbEntity
  8
Livello 1
 62
    18
420
        0
440
 33554687
100
AcDbHatch
 10
0.0
 20
0.0
 30
0.0
210
0.0
220
0.0
230
1.0
  2
SOLID
 70
     1
 71
     1
 91
        2
 92
        1
 93
        1
 72
     4
 94
        3
 73
     0
 74
     0
 95
       17
 96
       13
 40
0.0
 40
0.0
 40
0.0
 40
0.0
 40
1.0
 40
1.0
 40
1.0
 40
2.0
 40
2.0
 40
2.0
 40
3.0
 40
3.0
 40
3.0
 40
4.0
 40
4.0
 40
4.0
 40
4.0
 10
32.59174017197359
 20
-19.82748914434868
 10
32.59174017197359
 20
-19.82748914434868
 10
32.59174017197359
 20
-19.73519503629884
 10
32.59174017197359
 20
-19.73519503629884
 10
32.59174017197359
 20
-19.73519503629884
 10
32.59125785860566
 20
-19.73519503629884
 10
32.59125785860566
 20
-19.73519503629884
 10
32.59125785860566
 20
-19.73519503629884
 10
32.52731688639942
 20
-19.82748914434868
 10
32.52731688639942
 20
-19.82748914434868
 10
32.52731688639942
 20
-19.82748914434868
 10
32.59174017197359
 20
-19.82748914434868
 10
32.59174017197359
 20
-19.82748914434868
 97
        0
 97
        1
330
123
 92
        1
 93
        1
 72
     4
 94
        3
 73
     0
 74
     0
 95
       38
 96
       34
 40
0.0
 40
0.0
 40
0.0
 40
0.0
 40
1.0
 40
1.0
 40
1.0
 40
2.0
 40
2.0
 40
2.0
 40
3.0
 40
3.0
 40
3.0
 40
4.0
 40
4.0
 40
4.0
 40
5.0
 40
5.0
 40
5.0
 40
6.0
 40
6.0
 40
6.0
 40
7.0
 40
7.0
 40
7.0
 40
8.0
 40
8.0
 40
8.0
 40
9.0
 40
9.0
 40
9.0
 40
10.0
 40
10.0
 40
10.0
 40
11.0
 40
11.0
 40
11.0
 40
11.0
 10
32.51350205350358
 20
-19.82552543992209
 10
32.51350205350358
 20
-19.82552543992209
 10
32.59198132865756
 20
-19.71290526850927
 10
32.59198132865756
 20
-19.71290526850927
 10
32.59198132865756
 20
-19.71290526850927
 10
32.60579616155342
 20
-19.71290526850927
 10
32.60579616155342
 20
-19.71290526850927
 10
32.60579616155342
 20
-19.71290526850927
 10
32.60579616155342
 20
-19.82748914434868
 10
32.60579616155342
 20
-19.82748914434868
 10
32.60579616155342
 20
-19.82748914434868
 10
32.63122096623455
 20
-19.82748914434868
 10
32.63122096623455
 20
-19.82748914434868
 10
32.63122096623455
 20
-19.82748914434868
 10
32.63122096623455
 20
-19.84030489955381
 10
32.63122096623455
 20
-19.84030489955381
 10
32.63122096623455
 20
-19.84030489955381
 10
32.60579616155342
 20
-19.84030489955381
 10
32.60579616155342
 20
-19.84030489955381
 10
32.60579616155342
 20
-19.84030489955381
 10
32.60579616155342
 20
-19.88247286829327
 10
32.60579616155342
 20
-19.88247286829327
 10
32.60579616155342
 20
-19.88247286829327
 10
32.59174017197359
 20
-19.88247286829327
 10
32.59174017197359
 20
-19.88247286829327
 10
32.59174017197359
 20
-19.88247286829327
 10
32.59174017197359
 20
-19.84030489955381
 10
32.59174017197359
 20
-19.84030489955381
 10
32.59174017197359
 20
-19.84030489955381
 10
32.51350205350358
 20
-19.84030489955381
 10
32.51350205350358
 20
-19.84030489955381
 10
32.51350205350358
 20
-19.84030489955381
 10
32.51350205350358
 20
-19.82552543992209
 10
32.51350205350358
 20
-19.82552543992209
 97
        0
 97
        1
330
124
 75
     2
 76
     1
 98
        1
 10
0.0
 20
0.0
450
        0
451
        0
460
0.0
461
0.0
452
        0
462
0.0
453
        0
470

  0
SPLINE
  5
126
330
11F
100
AcDbEntity
  8
Livello 1
100
AcDbSpline
210
0.0
220
0.0
230
1.0
 70
    11
 71
     3
 72
    41
 73
    37
 74
     0
 42
0.000000001
 43
0.0000000001
 40
0.0
 40
0.0
 40
0.0
 40
0.0
 40
1.0
 40
1.0
 40
1.0
 40
2.0
 40
2.0
 40
2.0
 40
3.0
 40
3.0
 40
3.0
 40
4.0
 40
4.0
 40
4.0
 40
5.0
 40
5.0
 40
5.0
 40
6.0
 40
6.0
 40
6.0
 40
7.0
 40
7.0
 40
7.0
 40
8.0
 40
8.0
 40
8.0
 40
9.0
 40
9.0
 40
9.0
 40
10.0
 40
10.0
 40
10.0
 40
11.0
 40
11.0
 40
11.0
 40
12.0
 40
12.0
 40
12.0
 40
12.0
 10
32.76116996793818
 20
-19.88247286829327
 30
0.0
 10
32.76116996793818
 20
-19.88247286829327
 30
0.0
 10
32.64951442326123
 20
-19.88247286829327
 30
0.0
 10
32.64951442326123
 20
-19.88247286829327
 30
0.0
 10
32.65072020668107
 20
-19.83207112134406
 30
0.0
 10
32.70232773705011
 20
-19.81973767950687
 30
0.0
 10
32.7311287353068
 20
-19.79090223029533
 30
0.0
 10
32.74036159120727
 20
-19.78146266866574
 30
0.0
 10
32.74518472488662
 20
-19.77250542040409
 30
0.0
 10
32.74518472488662
 20
-19.75893174419221
 30
0.0
 10
32.74518472488662
 20
-19.73688313308661
 30
0.0
 10
32.72775254173126
 20
-19.72427408361059
 30
0.0
 10
32.70715087072947
 20
-19.72427408361059
 30
0.0
 10
32.67931449920864
 20
-19.72427408361059
 30
0.0
 10
32.6683935465204
 20
-19.74656385140016
 30
0.0
 10
32.66887585988833
 20
-19.77150634271337
 30
0.0
 10
32.66887585988833
 20
-19.77150634271337
 30
0.0
 10
32.65361408688868
 20
-19.77150634271337
 30
0.0
 10
32.65361408688868
 20
-19.77150634271337
 30
0.0
 10
32.65289061683678
 20
-19.73664197640264
 30
0.0
 10
32.67108072099889
 20
-19.71145832840546
 30
0.0
 10
32.70787434078136
 20
-19.71145832840546
 30
0.0
 10
32.7374332600448
 20
-19.71145832840546
 30
0.0
 10
32.76044649788628
 20
-19.72768472814099
 30
0.0
 10
32.76044649788628
 20
-19.75917290087618
 30
0.0
 10
32.76044649788628
 20
-19.78752603671978
 30
0.0
 10
32.73987927783934
 20
-19.80519937655911
 30
0.0
 10
32.71783066673374
 20
-19.8194965228229
 30
0.0
 10
32.70136311031424
 20
-19.83062418124026
 30
0.0
 10
32.67108072099889
 20
-19.84564479755595
 30
0.0
 10
32.6669466064166
 20
-19.86841687871345
 30
0.0
 10
32.6669466064166
 20
-19.86841687871345
 30
0.0
 10
32.76116996793818
 20
-19.86841687871345
 30
0.0
 10
32.76116996793818
 20
-19.86841687871345
 30
0.0
 10
32.76116996793818
 20
-19.86841687871345
 30
0.0
 10
32.76116996793818
 20
-19.88247286829327
 30
0.0
 10
32.76116996793818
 20
-19.88247286829327
 30
0.0
  0
HATCH
  5
127
330
11F
100
AcDbEntity
  8
Livello 1
 62
    18
420
        0
440
 33554687
100
AcDbHatch
 10
0.0
 20
0.0
 30
0.0
210
0.0
220
0.0
230
1.0
  2
SOLID
 70
     1
 71
     1
 91
        1
 92
        1
 93
        1
 72
     4
 94
        3
 73
     0
 74
     0
 95
       41
 96
       37
 40
0.0
 40
0.0
 40
0.0
 40
0.0
 40
1.0
 40
1.0
 40
1.0
 40
2.0
 40
2.0
 40
2.0
 40
3.0
 40
3.0
 40
3.0
 40
4.0
 40
4.0
 40
4.0
 40
5.0
 40
5.0
 40
5.0
 40
6.0
 40
6.0
 40
6.0
 40
7.0
 40
7.0
 40
7.0
 40
8.0
 40
8.0
 40
8.0
 40
9.0
 40
9.0
 40
9.0
 40
10.0
 40
10.0
 40
10.0
 40
11.0
 40
11.0
 40
11.0
 40
12.0
 40
12.0
 40
12.0
 40
12.0
 10
32.76116996793818
 20
-19.88247286829327
 10
32.76116996793818
 20
-19.88247286829327
 10
32.64951442326123
 20
-19.88247286829327
 10
32.64951442326123
 20
-19.88247286829327
 10
32.65072020668107
 20
-19.83207112134406
 10
32.70232773705011
 20
-19.81973767950687
 10
32.7311287353068
 20
-19.79090223029533
 10
32.74036159120727
 20
-19.78146266866574
 10
32.74518472488662
 20
-19.77250542040409
 10
32.74518472488662
 20
-19.75893174419221
 10
32.74518472488662
 20
-19.73688313308661
 10
32.72775254173126
 20
-19.72427408361059
 10
32.70715087072947
 20
-19.72427408361059
 10
32.67931449920864
 20
-19.72427408361059
 10
32.6683935465204
 20
-19.74656385140016
 10
32.66887585988833
 20
-19.77150634271337
 10
32.66887585988833
 20
-19.77150634271337
 10
32.65361408688868
 20
-19.77150634271337
 10
32.65361408688868
 20
-19.77150634271337
 10
32.65289061683678
 20
-19.73664197640264
 10
32.67108072099889
 20
-19.71145832840546
 10
32.70787434078136
 20
-19.71145832840546
 10
32.7374332600448
 20
-19.71145832840546
 10
32.76044649788628
 20
-19.72768472814099
 10
32.76044649788628
 20
-19.75917290087618
 10
32.76044649788628
 20
-19.78752603671978
 10
32.73987927783934
 20
-19.80519937655911
 10
32.71783066673374
 20
-19.8194965228229
 10
32.70136311031424
 20
-19.83062418124026
 10
32.67108072099889
 20
-19.84564479755595
 10
32.6669466064166
 20
-19.86841687871345
 10
32.6669466064166
 20
-19.86841687871345
 10
32.76116996793818
 20
-19.86841687871345
 10
32.76116996793818
 20
-19.86841687871345
 10
32.76116996793818
 20
-19.86841687871345
 10
32.76116996793818
 20
-19.88247286829327
 10
32.76116996793818
 20
-19.88247286829327
 97
        0
 97
        1
330
126
 75
     2
 76
     1
 98
        1
 10
0.0
 20
0.0
450
        0
451
        0
460
0.0
461
0.0
452
        0
462
0.0
453
        0
470

  0
ENDBLK
  5
122
330
11F
100
AcDbEntity
  8
0
100
AcDbBlockEnd
  0
BLOCK
  5
12A
330
128
100
AcDbEntity
  8
0
100
AcDbBlockBegin
  2
Block_24
 70
     0
 10
0.0
 20
0.0
 30
0.0
  3
Block_24
  1

  0
LINE
  5
12C
330
128
100
AcDbEntity
  8
Livello 1
 62
    18
420
        0
370
     9
100
AcDbLine
 10
32.63571520615354
 20
-19.56995672983831
 30
0.0
 11
32.63571520615354
 21
-19.51724995805368
 31
0.0
  0
LWPOLYLINE
  5
12D
330
128
100
AcDbEntity
  8
Livello 1
100
AcDbPolyline
 90
        3
 70
     1
 43
0.0
 10
32.63483812308206
 20
-19.26053718537041
 10
32.71981547964482
 20
-19.51543413811758
 10
32.55161493266225
 20
-19.51543413811758
  0
HATCH
  5
12E
330
128
100
AcDbEntity
  8
Livello 1
 62
    18
420
        0
440
 33554687
100
AcDbHatch
 10
0.0
 20
0.0
 30
0.0
210
0.0
220
0.0
230
1.0
  2
SOLID
 70
     1
 71
     1
 91
        1
 92
        1
 93
        3
 72
     1
 10
32.63483812308206
 20
-19.26053718537041
 11
32.71981547964482
 21
-19.51543413811758
 72
     1
 10
32.71981547964482
 20
-19.51543413811758
 11
32.55161493266225
 21
-19.51543413811758
 72
     1
 10
32.55161493266225
 20
-19.51543413811758
 11
32.63483812308206
 21
-19.26053718537041
 97
        1
330
12D
 75
     0
 76
     1
 98
        1
 10
0.0
 20
0.0
450
        0
451
        0
460
0.0
461
0.0
452
        0
462
0.0
453
        0
470

  0
ENDBLK
  5
12B
330
128
100
AcDbEntity
  8
0
100
AcDbBlockEnd
  0
BLOCK
  5
131
330
12F
100
AcDbEntity
  8
0
100
AcDbBlockBegin
  2
Block_25
 70
     0
 10
0.0
 20
0.0
 30
0.0
  3
Block_25
  1

  0
LINE
  5
133
330
12F
100
AcDbEntity
  8
Livello 1
 62
    18
420
        0
370
     9
100
AcDbLine
 10
32.63571520615354
 20
-19.96245593321193
 30
0.0
 11
32.63571520615354
 21
-20.00604350291527
 31
0.0
  0
LWPOLYLINE
  5
134
330
12F
100
AcDbEntity
  8
Livello 1
100
AcDbPolyline
 90
        3
 70
     1
 43
0.0
 10
32.63659228922501
 20
-20.26275627559861
 10
32.55161493266225
 20
-20.00785932285137
 10
32.71981547964482
 20
-20.00785932285137
  0
HATCH
  5
135
330
12F
100
AcDbEntity
  8
Livello 1
 62
    18
420
        0
440
 33554687
100
AcDbHatch
 10
0.0
 20
0.0
 30
0.0
210
0.0
220
0.0
230
1.0
  2
SOLID
 70
     1
 71
     1
 91
        1
 92
        1
 93
        3
 72
     1
 10
32.63659228922501
 20
-20.26275627559861
 11
32.55161493266225
 21
-20.00785932285137
 72
     1
 10
32.55161493266225
 20
-20.00785932285137
 11
32.71981547964482
 21
-20.00785932285137
 72
     1
 10
32.71981547964482
 20
-20.00785932285137
 11
32.63659228922501
 21
-20.26275627559861
 97
        1
330
134
 75
     0
 76
     1
 98
        1
 10
0.0
 20
0.0
450
        0
451
        0
460
0.0
461
0.0
452
        0
462
0.0
453
        0
470

  0
ENDBLK
  5
132
330
12F
100
AcDbEntity
  8
0
100
AcDbBlockEnd
  0
ENDSEC
  0
SECTION
  2
ENTITIES
  0
LINE
  5
7B
330
70
100
AcDbEntity
  8
Livello 1
370
     9
100
AcDbLine
 10
8.838470411842793
 20
-15.9060555942949
 30
0.0
 11
10.11834612378644
 21
-10.17597364324229
 31
0.0
  0
LINE
  5
7C
330
70
100
AcDbEntity
  8
Livello 1
370
     9
100
AcDbLine
 10
9.970593219090023
 20
-15.9060555942949
 30
0.0
 11
10.41907912743406
 21
-10.17597364324229
 31
0.0
  0
LINE
  5
7D
330
70
100
AcDbEntity
  8
Livello 1
370
     9
100
AcDbLine
 10
12.0256590794937
 20
-15.9060555942949
 30
0.0
 11
10.74578336755002
 21
-10.17597364324229
 31
0.0
  0
LINE
  5
1A0
330
70
100
AcDbEntity
  8
Livello 1
370
     9
100
AcDbLine
 10
7.967341978864825
 20
-16.34216268841996
 30
0.0
 11
7.928951371354996
 21
-16.48154124614803
 31
0.0
  0
LINE
  5
1A1
330
70
100
AcDbEntity
  8
Livello 1
370
     9
100
AcDbLine
 10
12.95801837913314
 20
-16.34216268841996
 30
0.0
 11
7.967341978864825
 21
-16.34216268841996
 31
0.0
  0
LINE
  5
1A2
330
70
100
AcDbEntity
  8
Livello 1
370
     9
100
AcDbLine
 10
12.95801837913314
 20
-16.34216268841996
 30
0.0
 11
12.99622380997348
 21
-16.48154124614803
 31
0.0
  0
LINE
  5
1A3
330
70
100
AcDbEntity
  8
Livello 1
370
     9
100
AcDbLine
 10
12.2711311269277
 20
-16.47426535191735
 30
0.0
 11
12.2711311269277
 21
-16.47699497676958
 31
0.0
  0
LINE
  5
1A4
330
70
100
AcDbEntity
  8
Livello 1
370
     9
100
AcDbLine
 10
12.27368374532573
 20
-16.47243939126537
 30
0.0
 11
12.28987517151466
 21
-16.47243939126537
 31
0.0
  0
SPLINE
  5
1A5
330
70
100
AcDbEntity
  8
Livello 1
370
     9
100
AcDbSpline
210
0.0
220
0.0
230
1.0
 70
     8
 71
     3
 72
     8
 73
     4
 74
     0
 42
0.000000001
 43
0.0000000001
 40
0.0
 40
0.0
 40
0.0
 40
0.0
 40
1.0
 40
1.0
 40
1.0
 40
1.0
 10
12.2711311269277
 20
-16.47426535191735
 30
0.0
 10
12.2711311269277
 20
-16.47362253923883
 30
0.0
 10
12.27149445582382
 20
-16.47308220394383
 30
0.0
 10
12.27259501420855
 20
-16.47243939126537
 30
0.0
  0
LINE
  5
1A6
330
70
100
AcDbEntity
  8
Livello 1
370
     9
100
AcDbLine
 10
12.37467054618168
 20
-16.47243939126537
 30
0.0
 11
12.39267987545546
 21
-16.47243939126537
 31
0.0
  0
SPLINE
  5
1A7
330
70
100
AcDbEntity
  8
Livello 1
370
     9
100
AcDbSpline
210
0.0
220
0.0
230
1.0
 70
     8
 71
     3
 72
     8
 73
     4
 74
     0
 42
0.000000001
 43
0.0000000001
 40
0.0
 40
0.0
 40
0.0
 40
0.0
 40
1.0
 40
1.0
 40
1.0
 40
1.0
 10
12.39267987545546
 20
-16.47243939126537
 30
0.0
 10
12.39376860353907
 20
-16.47308220394383
 30
0.0
 10
12.39413193243519
 20
-16.47353869410682
 30
0.0
 10
12.39413193243519
 20
-16.47426535191735
 30
0.0
  0
SPLINE
  5
1A8
330
70
100
AcDbEntity
  8
Livello 1
370
     9
100
AcDbSpline
210
0.0
220
0.0
230
1.0
 70
     8
 71
     3
 72
     8
 73
     4
 74
     0
 42
0.000000001
 43
0.0000000001
 40
0.0
 40
0.0
 40
0.0
 40
0.0
 40
1.0
 40
1.0
 40
1.0
 40
1.0
 10
12.37266757919055
 20
-16.47171273345484
 30
0.0
 10
12.37357124336788
 20
-16.47171273345484
 30
0.0
 10
12.37412089477478
 20
-16.47207606236007
 30
0.0
 10
12.37467054618168
 20
-16.47243939126537
 30
0.0
  0
LINE
  5
1A9
330
70
100
AcDbEntity
  8
Livello 1
370
     9
100
AcDbLine
 10
10.46249851455093
 20
-16.47707882190158
 30
0.0
 11
7.597240259528838
 21
-16.47707882190158
 31
0.0
  0
SPLINE
  5
1AA
330
70
100
AcDbEntity
  8
Livello 1
370
     9
100
AcDbSpline
210
0.0
220
0.0
230
1.0
 70
    24
 71
     3
 72
    26
 73
    22
 74
     0
 42
0.000000001
 43
0.0000000001
 40
0.0
 40
0.0
 40
0.0
 40
0.0
 40
1.0
 40
1.0
 40
1.0
 40
2.0
 40
2.0
 40
2.0
 40
3.0
 40
3.0
 40
3.0
 40
4.0
 40
4.0
 40
4.0
 40
5.0
 40
5.0
 40
5.0
 40
6.0
 40
6.0
 40
6.0
 40
7.0
 40
7.0
 40
7.0
 40
7.0
 10
13.32793377595838
 20
-16.47707882190158
 30
0.0
 10
13.32902376264648
 20
-16.47707882190158
 30
0.0
 10
13.32684378927014
 20
-16.47707882190158
 30
0.0
 10
13.32648046037402
 20
-16.47707882190158
 30
0.0
 10
13.32228820388098
 20
-16.47707882190158
 30
0.0
 10
13.31792825712817
 20
-16.47707882190158
 30
0.0
 10
13.31392232314578
 20
-16.47707882190158
 30
0.0
 10
13.29336291543646
 20
-16.47707882190158
 30
0.0
 10
13.27261462250051
 20
-16.47707882190158
 30
0.0
 10
13.25205393343333
 20
-16.47707882190158
 30
0.0
 10
13.1583523427499
 20
-16.47707882190158
 30
0.0
 10
13.06482775845169
 20
-16.47707882190158
 30
0.0
 10
12.97111812485984
 20
-16.47707882190158
 30
0.0
 10
12.85175865122148
 20
-16.47707882190158
 30
0.0
 10
12.73239113467468
 20
-16.47707882190158
 30
0.0
 10
12.61303293425358
 20
-16.47707882190158
 30
0.0
 10
12.37412089477478
 20
-16.47707882190158
 30
0.0
 10
12.13520885529611
 20
-16.47707882190158
 30
0.0
 10
11.89630613194287
 20
-16.47707882190158
 30
0.0
 10
11.41849260310554
 20
-16.47707882190158
 30
0.0
 10
10.94049028376815
 20
-16.47707882190158
 30
0.0
 10
10.46249851455093
 20
-16.47707882190158
 30
0.0
  0
LINE
  5
1AB
330
70
100
AcDbEntity
  8
Livello 1
370
     9
100
AcDbLine
 10
13.1687211904761
 20
-16.47426535191735
 30
0.0
 11
13.1687211904761
 21
-16.47699497676958
 31
0.0
  0
LINE
  5
1AC
330
70
100
AcDbEntity
  8
Livello 1
370
     9
100
AcDbLine
 10
13.04553406245783
 20
-16.47426535191735
 30
0.0
 11
13.04553406245783
 21
-16.47699497676958
 31
0.0
  0
SPLINE
  5
1AD
330
70
100
AcDbEntity
  8
Livello 1
370
     9
100
AcDbSpline
210
0.0
220
0.0
230
1.0
 70
     8
 71
     3
 72
     8
 73
     4
 74
     0
 42
0.000000001
 43
0.0000000001
 40
0.0
 40
0.0
 40
0.0
 40
0.0
 40
1.0
 40
1.0
 40
1.0
 40
1.0
 10
13.06427938261543
 20
-16.47243939126537
 30
0.0
 10
13.06500476483691
 20
-16.47199221722806
 30
0.0
 10
13.06573142262902
 20
-16.47171273345484
 30
0.0
 10
13.06682140931726
 20
-16.47171273345484
 30
0.0
  0
LINE
  5
1AE
330
70
100
AcDbEntity
  8
Livello 1
370
     9
100
AcDbLine
 10
10.51908466108218
 20
-16.47171273345484
 30
0.0
 11
10.50452355686285
 21
-16.47171273345484
 31
0.0
  0
LINE
  5
1AF
330
70
100
AcDbEntity
  8
Livello 1
370
     9
100
AcDbLine
 10
10.5027069123825
 20
-16.47171273345484
 30
0.0
 11
10.42246712310464
 21
-16.47171273345484
 31
0.0
  0
LINE
  5
1B0
330
70
100
AcDbEntity
  8
Livello 1
370
     9
100
AcDbLine
 10
10.42010082721746
 20
-16.47171273345484
 30
0.0
 11
10.40990898587644
 21
-16.47171273345484
 31
0.0
  0
SPLINE
  5
1B1
330
70
100
AcDbEntity
  8
Livello 1
370
     9
100
AcDbSpline
210
0.0
220
0.0
230
1.0
 70
     8
 71
     3
 72
     8
 73
     4
 74
     0
 42
0.000000001
 43
0.0000000001
 40
0.0
 40
0.0
 40
0.0
 40
0.0
 40
1.0
 40
1.0
 40
1.0
 40
1.0
 10
10.40244676931873
 20
-16.47243939126537
 30
0.0
 10
10.40154431344558
 20
-16.47308220394383
 30
0.0
 10
10.40117977624528
 20
-16.47353869410682
 30
0.0
 10
10.40117977624528
 20
-16.47426535191735
 30
0.0
  0
SPLINE
  5
1B2
330
70
100
AcDbEntity
  8
Livello 1
370
     9
100
AcDbSpline
210
0.0
220
0.0
230
1.0
 70
    24
 71
     3
 72
    17
 73
    13
 74
     0
 42
0.000000001
 43
0.0000000001
 40
0.0
 40
0.0
 40
0.0
 40
0.0
 40
1.0
 40
1.0
 40
1.0
 40
2.0
 40
2.0
 40
2.0
 40
3.0
 40
3.0
 40
3.0
 40
4.0
 40
4.0
 40
4.0
 40
4.0
 10
13.04717370055296
 20
-16.47243939126537
 30
0.0
 10
13.04553406245783
 20
-16.47243939126537
 30
0.0
 10
13.04862829131254
 20
-16.47243939126537
 30
0.0
 10
13.04935367392931
 20
-16.47243939126537
 30
0.0
 10
13.04990332533621
 20
-16.47243939126537
 30
0.0
 10
13.05062998312832
 20
-16.47243939126537
 30
0.0
 10
13.05135664092057
 20
-16.47243939126537
 30
0.0
 10
13.05299627901557
 20
-16.47243939126537
 30
0.0
 10
13.0544495945998
 20
-16.47243939126537
 30
0.0
 10
13.05572590379882
 20
-16.47243939126537
 30
0.0
 10
13.05864185109296
 20
-16.47243939126537
 30
0.0
 10
13.06154848226155
 20
-16.47243939126537
 30
0.0
 10
13.06427938261543
 20
-16.47243939126537
 30
0.0
  0
SPLINE
  5
1B3
330
70
100
AcDbEntity
  8
Livello 1
370
     9
100
AcDbSpline
210
0.0
220
0.0
230
1.0
 70
     8
 71
     3
 72
     8
 73
     4
 74
     0
 42
0.000000001
 43
0.0000000001
 40
0.0
 40
0.0
 40
0.0
 40
0.0
 40
1.0
 40
1.0
 40
1.0
 40
1.0
 10
10.52418058175268
 20
-16.47426535191735
 30
0.0
 10
10.52418058175268
 20
-16.47243939126537
 30
0.0
 10
10.52254094365761
 20
-16.47171273345484
 30
0.0
 10
10.51908466108218
 20
-16.47171273345484
 30
0.0
  0
LINE
  5
1B4
330
70
100
AcDbEntity
  8
Livello 1
370
     9
100
AcDbLine
 10
10.52418058175268
 20
-16.47426535191735
 30
0.0
 11
10.52418058175268
 21
-16.47699497676958
 31
0.0
  0
LINE
  5
1B5
330
70
100
AcDbEntity
  8
Livello 1
370
     9
100
AcDbLine
 10
10.40099345373447
 20
-16.47707882190158
 30
0.0
 11
10.40099345373447
 21
-16.47426535191735
 31
0.0
  0
LINE
  5
1B6
330
70
100
AcDbEntity
  8
Livello 1
370
     9
100
AcDbLine
 10
8.632569239189246
 20
-16.47171273345484
 30
0.0
 11
8.55250645629666
 21
-16.47171273345484
 31
0.0
  0
LINE
  5
1B7
330
70
100
AcDbEntity
  8
Livello 1
370
     9
100
AcDbLine
 10
8.550866818201621
 20
-16.47171273345484
 30
0.0
 11
8.537228010410718
 21
-16.47171273345484
 31
0.0
  0
SPLINE
  5
1B8
330
70
100
AcDbEntity
  8
Livello 1
370
     9
100
AcDbSpline
210
0.0
220
0.0
230
1.0
 70
     8
 71
     3
 72
     8
 73
     4
 74
     0
 42
0.000000001
 43
0.0000000001
 40
0.0
 40
0.0
 40
0.0
 40
0.0
 40
1.0
 40
1.0
 40
1.0
 40
1.0
 10
13.04553406245783
 20
-16.47426535191735
 30
0.0
 10
13.04553406245783
 20
-16.47362253923883
 30
0.0
 10
13.04608371386473
 20
-16.47308220394383
 30
0.0
 10
13.04717370055296
 20
-16.47243939126537
 30
0.0
  0
LINE
  5
1B9
330
70
100
AcDbEntity
  8
Livello 1
370
     9
100
AcDbLine
 10
13.14997714588914
 20
-16.47243939126537
 30
0.0
 11
13.16726787489187
 21
-16.47243939126537
 31
0.0
  0
SPLINE
  5
1BA
330
70
100
AcDbEntity
  8
Livello 1
370
     9
100
AcDbSpline
210
0.0
220
0.0
230
1.0
 70
    24
 71
     3
 72
    20
 73
    16
 74
     0
 42
0.000000001
 43
0.0000000001
 40
0.0
 40
0.0
 40
0.0
 40
0.0
 40
1.0
 40
1.0
 40
1.0
 40
2.0
 40
2.0
 40
2.0
 40
3.0
 40
3.0
 40
3.0
 40
4.0
 40
4.0
 40
4.0
 40
5.0
 40
5.0
 40
5.0
 40
5.0
 10
8.648034007586
 20
-16.47171273345484
 30
0.0
 10
8.648397336482057
 20
-16.47171273345484
 30
0.0
 10
8.648760665378146
 20
-16.47171273345484
 30
0.0
 10
8.649123994274201
 20
-16.47171273345484
 30
0.0
 10
8.64985065206635
 20
-16.47171273345484
 30
0.0
 10
8.648583658992869
 20
-16.47171273345484
 30
0.0
 10
8.648220330096812
 20
-16.47171273345484
 30
0.0
 10
8.647484356179164
 20
-16.47171273345484
 30
0.0
 10
8.646580692001737
 20
-16.47171273345484
 30
0.0
 10
8.64603104059484
 20
-16.47171273345484
 30
0.0
 10
8.644577725010577
 20
-16.47171273345484
 30
0.0
 10
8.64293925079361
 20
-16.47171273345484
 30
0.0
 10
8.641298448820437
 20
-16.47171273345484
 30
0.0
 10
8.638391817651882
 20
-16.47171273345484
 30
0.0
 10
8.635475870357829
 20
-16.47171273345484
 30
0.0
 10
8.632569239189246
 20
-16.47171273345484
 30
0.0
  0
SPLINE
  5
1BB
330
70
100
AcDbEntity
  8
Livello 1
370
     9
100
AcDbSpline
210
0.0
220
0.0
230
1.0
 70
     8
 71
     3
 72
     8
 73
     4
 74
     0
 42
0.000000001
 43
0.0000000001
 40
0.0
 40
0.0
 40
0.0
 40
0.0
 40
1.0
 40
1.0
 40
1.0
 40
1.0
 10
13.1472475211059
 20
-16.47171273345484
 30
0.0
 10
13.14833750779413
 20
-16.47171273345484
 30
0.0
 10
13.14871015281569
 20
-16.47207606236007
 30
0.0
 10
13.1494368106078
 20
-16.47243939126537
 30
0.0
  0
SPLINE
  5
1BC
330
70
100
AcDbEntity
  8
Livello 1
370
     9
100
AcDbSpline
210
0.0
220
0.0
230
1.0
 70
     8
 71
     3
 72
     8
 73
     4
 74
     0
 42
0.000000001
 43
0.0000000001
 40
0.0
 40
0.0
 40
0.0
 40
0.0
 40
1.0
 40
1.0
 40
1.0
 40
1.0
 10
13.16726787489187
 20
-16.47243939126537
 30
0.0
 10
13.16835786157998
 20
-16.47308220394383
 30
0.0
 10
13.1687211904761
 20
-16.47353869410682
 30
0.0
 10
13.1687211904761
 20
-16.47426535191735
 30
0.0
  0
LINE
  5
1BD
330
70
100
AcDbEntity
  8
Livello 1
370
     9
100
AcDbLine
 10
7.818134912212856
 20
-16.47171273345484
 30
0.0
 11
7.762452429858968
 21
-16.47171273345484
 31
0.0
  0
LINE
  5
1BE
330
70
100
AcDbEntity
  8
Livello 1
370
     9
100
AcDbLine
 10
7.75645284501108
 20
-16.47426535191735
 30
0.0
 11
7.75645284501108
 21
-16.47699497676958
 31
0.0
  0
LINE
  5
1BF
330
70
100
AcDbEntity
  8
Livello 1
370
     9
100
AcDbLine
 10
7.879453650518509
 20
-16.47426535191735
 30
0.0
 11
7.879453650518509
 21
-16.47699497676958
 31
0.0
  0
SPLINE
  5
1C0
330
70
100
AcDbEntity
  8
Livello 1
370
     9
100
AcDbSpline
210
0.0
220
0.0
230
1.0
 70
    24
 71
     3
 72
    20
 73
    16
 74
     0
 42
0.000000001
 43
0.0000000001
 40
0.0
 40
0.0
 40
0.0
 40
0.0
 40
1.0
 40
1.0
 40
1.0
 40
2.0
 40
2.0
 40
2.0
 40
3.0
 40
3.0
 40
3.0
 40
4.0
 40
4.0
 40
4.0
 40
5.0
 40
5.0
 40
5.0
 40
5.0
 10
7.873631072055871
 20
-16.47171273345484
 30
0.0
 10
7.873817394566682
 20
-16.47171273345484
 30
0.0
 10
7.874358874310138
 20
-16.47171273345484
 30
0.0
 10
7.873994400951929
 20
-16.47171273345484
 30
0.0
 10
7.872354762856858
 20
-16.47171273345484
 30
0.0
 10
7.870174789480451
 20
-16.47171273345484
 30
0.0
 10
7.868358145000101
 20
-16.47171273345484
 30
0.0
 10
7.865991849112884
 20
-16.47171273345484
 30
0.0
 10
7.863439230714887
 20
-16.47171273345484
 30
0.0
 10
7.86125925733848
 20
-16.47171273345484
 30
0.0
 10
7.856349659178767
 20
-16.47171273345484
 30
0.0
 10
7.851617067404362
 20
-16.47171273345484
 30
0.0
 10
7.846698153119117
 20
-16.47171273345484
 30
0.0
 10
7.837242285695812
 20
-16.47171273345484
 30
0.0
 10
7.827600095761694
 20
-16.47171273345484
 30
0.0
 10
7.818134912212856
 20
-16.47171273345484
 30
0.0
  0
LINE
  5
1C1
330
70
100
AcDbEntity
  8
Livello 1
370
     9
100
AcDbLine
 10
7.86070960593158
 20
-16.47243939126537
 30
0.0
 11
7.878178485878223
 21
-16.47243939126537
 31
0.0
  0
SPLINE
  5
1C2
330
70
100
AcDbEntity
  8
Livello 1
370
     9
100
AcDbSpline
210
0.0
220
0.0
230
1.0
 70
     8
 71
     3
 72
     8
 73
     4
 74
     0
 42
0.000000001
 43
0.0000000001
 40
0.0
 40
0.0
 40
0.0
 40
0.0
 40
1.0
 40
1.0
 40
1.0
 40
1.0
 10
7.857979981148305
 20
-16.47171273345484
 30
0.0
 10
7.859080428038338
 20
-16.47171273345484
 30
0.0
 10
7.85944261285813
 20
-16.47207606236007
 30
0.0
 10
7.860169270650277
 20
-16.47243939126537
 30
0.0
  0
SPLINE
  5
1C3
330
70
100
AcDbEntity
  8
Livello 1
370
     9
100
AcDbSpline
210
0.0
220
0.0
230
1.0
 70
    24
 71
     3
 72
    20
 73
    16
 74
     0
 42
0.000000001
 43
0.0000000001
 40
0.0
 40
0.0
 40
0.0
 40
0.0
 40
1.0
 40
1.0
 40
1.0
 40
2.0
 40
2.0
 40
2.0
 40
3.0
 40
3.0
 40
3.0
 40
4.0
 40
4.0
 40
4.0
 40
5.0
 40
5.0
 40
5.0
 40
5.0
 10
13.1628986120135
 20
-16.47171273345484
 30
0.0
 10
13.16307561839871
 20
-16.47171273345484
 30
0.0
 10
13.1634482634204
 20
-16.47171273345484
 30
0.0
 10
13.16326194090949
 20
-16.47171273345484
 30
0.0
 10
13.1614465744544
 20
-16.47171273345484
 30
0.0
 10
13.15944232943801
 20
-16.47171273345484
 30
0.0
 10
13.15762696288654
 20
-16.47171273345484
 30
0.0
 10
13.15507306655963
 20
-16.47171273345484
 30
0.0
 10
13.15270677067251
 20
-16.47171273345484
 30
0.0
 10
13.15034047478526
 20
-16.47171273345484
 30
0.0
 10
13.14560916063599
 20
-16.47171273345484
 30
0.0
 10
13.14069828485117
 20
-16.47171273345484
 30
0.0
 10
13.13596569307668
 20
-16.47171273345484
 30
0.0
 10
13.12632478028051
 20
-16.47171273345484
 30
0.0
 10
13.11686763571929
 20
-16.47171273345484
 30
0.0
 10
13.10721612965964
 20
-16.47171273345484
 30
0.0
  0
SPLINE
  5
1C4
330
70
100
AcDbEntity
  8
Livello 1
370
     9
100
AcDbSpline
210
0.0
220
0.0
230
1.0
 70
     8
 71
     3
 72
     8
 73
     4
 74
     0
 42
0.000000001
 43
0.0000000001
 40
0.0
 40
0.0
 40
0.0
 40
0.0
 40
1.0
 40
1.0
 40
1.0
 40
1.0
 10
7.878178485878223
 20
-16.47243939126537
 30
0.0
 10
7.879090321622419
 20
-16.47308220394383
 30
0.0
 10
7.879453650518509
 20
-16.47353869410682
 30
0.0
 10
7.879453650518509
 20
-16.47426535191735
 30
0.0
  0
SPLINE
  5
1C5
330
70
100
AcDbEntity
  8
Livello 1
370
     9
100
AcDbSpline
210
0.0
220
0.0
230
1.0
 70
     8
 71
     3
 72
     8
 73
     4
 74
     0
 42
0.000000001
 43
0.0000000001
 40
0.0
 40
0.0
 40
0.0
 40
0.0
 40
1.0
 40
1.0
 40
1.0
 40
1.0
 10
7.775196889597981
 20
-16.47243939126537
 30
0.0
 10
7.775737224879313
 20
-16.47199221722806
 30
0.0
 10
7.77646388267146
 20
-16.47171273345484
 30
0.0
 10
7.777740191870508
 20
-16.47171273345484
 30
0.0
  0
LINE
  5
1C6
330
70
100
AcDbEntity
  8
Livello 1
370
     9
100
AcDbLine
 10
13.10721612965964
 20
-16.47171273345484
 30
0.0
 11
13.05154296343135
 21
-16.47171273345484
 31
0.0
  0
SPLINE
  5
1C7
330
70
100
AcDbEntity
  8
Livello 1
370
     9
100
AcDbSpline
210
0.0
220
0.0
230
1.0
 70
    24
 71
     3
 72
    17
 73
    13
 74
     0
 42
0.000000001
 43
0.0000000001
 40
0.0
 40
0.0
 40
0.0
 40
0.0
 40
1.0
 40
1.0
 40
1.0
 40
2.0
 40
2.0
 40
2.0
 40
3.0
 40
3.0
 40
3.0
 40
4.0
 40
4.0
 40
4.0
 40
4.0
 10
7.758093624631215
 20
-16.47243939126537
 30
0.0
 10
7.75645284501108
 20
-16.47243939126537
 30
0.0
 10
7.759359476179634
 20
-16.47243939126537
 30
0.0
 10
7.760095450097312
 20
-16.47243939126537
 30
0.0
 10
7.760822107889428
 20
-16.47243939126537
 30
0.0
 10
7.761362443170763
 20
-16.47243939126537
 30
0.0
 10
7.762275423473718
 20
-16.47243939126537
 30
0.0
 10
7.763728739057982
 20
-16.47243939126537
 30
0.0
 10
7.765182054642272
 20
-16.47243939126537
 30
0.0
 10
7.766644686352067
 20
-16.47243939126537
 30
0.0
 10
7.769374311135339
 20
-16.47243939126537
 30
0.0
 10
7.772280942303892
 20
-16.47243939126537
 30
0.0
 10
7.775196889597981
 20
-16.47243939126537
 30
0.0
  0
SPLINE
  5
1C8
330
70
100
AcDbEntity
  8
Livello 1
370
     9
100
AcDbSpline
210
0.0
220
0.0
230
1.0
 70
     8
 71
     3
 72
     8
 73
     4
 74
     0
 42
0.000000001
 43
0.0000000001
 40
0.0
 40
0.0
 40
0.0
 40
0.0
 40
1.0
 40
1.0
 40
1.0
 40
1.0
 10
7.75645284501108
 20
-16.47426535191735
 30
0.0
 10
7.75645284501108
 20
-16.47362253923883
 30
0.0
 10
7.75700249641795
 20
-16.47308220394383
 30
0.0
 10
7.757907302115657
 20
-16.47243939126537
 30
0.0
  0
SPLINE
  5
1C9
330
70
100
AcDbEntity
  8
Livello 1
370
     9
100
AcDbSpline
210
0.0
220
0.0
230
1.0
 70
    24
 71
     3
 72
    20
 73
    16
 74
     0
 42
0.000000001
 43
0.0000000001
 40
0.0
 40
0.0
 40
0.0
 40
0.0
 40
1.0
 40
1.0
 40
1.0
 40
2.0
 40
2.0
 40
2.0
 40
3.0
 40
3.0
 40
3.0
 40
4.0
 40
4.0
 40
4.0
 40
5.0
 40
5.0
 40
5.0
 40
5.0
 10
12.38794602507647
 20
-16.47171273345484
 30
0.0
 10
12.38849567648337
 20
-16.47171273345484
 30
0.0
 10
12.38886026388747
 20
-16.47171273345484
 30
0.0
 10
12.38922233427548
 20
-16.47171273345484
 30
0.0
 10
12.38977198568238
 20
-16.47171273345484
 30
0.0
 10
12.38867394137195
 20
-16.47171273345484
 30
0.0
 10
12.38849567648337
 20
-16.47171273345484
 30
0.0
 10
12.38776901869125
 20
-16.47171273345484
 30
0.0
 10
12.38704236089901
 20
-16.47171273345484
 30
0.0
 10
12.38649270949224
 20
-16.47171273345484
 30
0.0
 10
12.38504065231961
 20
-16.47171273345484
 30
0.0
 10
12.38376308470887
 20
-16.47171273345484
 30
0.0
 10
12.38248677550985
 20
-16.47171273345484
 30
0.0
 10
12.37975715072661
 20
-16.47171273345484
 30
0.0
 10
12.37702878415245
 20
-16.47171273345484
 30
0.0
 10
12.3744842236709
 20
-16.47171273345484
 30
0.0
  0
LINE
  5
1CA
330
70
100
AcDbEntity
  8
Livello 1
370
     9
100
AcDbLine
 10
12.37266757919055
 20
-16.47171273345484
 30
0.0
 11
12.29260479629791
 21
-16.47171273345484
 31
0.0
  0
LINE
  5
1CB
330
70
100
AcDbEntity
  8
Livello 1
370
     9
100
AcDbLine
 10
8.531032786926488
 20
-16.47426535191735
 30
0.0
 11
8.531032786926488
 21
-16.47699497676958
 31
0.0
  0
LINE
  5
1CC
330
70
100
AcDbEntity
  8
Livello 1
370
     9
100
AcDbLine
 10
8.65404290855945
 20
-16.47426535191735
 30
0.0
 11
8.65404290855945
 21
-16.47699497676958
 31
0.0
  0
LINE
  5
1CD
330
70
100
AcDbEntity
  8
Livello 1
370
     9
100
AcDbLine
 10
12.29006149402544
 20
-16.47171273345484
 30
0.0
 11
12.27714002790121
 21
-16.47171273345484
 31
0.0
  0
SPLINE
  5
1CE
330
70
100
AcDbEntity
  8
Livello 1
370
     9
100
AcDbSpline
210
0.0
220
0.0
230
1.0
 70
     8
 71
     3
 72
     8
 73
     4
 74
     0
 42
0.000000001
 43
0.0000000001
 40
0.0
 40
0.0
 40
0.0
 40
0.0
 40
1.0
 40
1.0
 40
1.0
 40
1.0
 10
8.652766599360436
 20
-16.47243939126537
 30
0.0
 10
8.653679579663361
 20
-16.47308220394383
 30
0.0
 10
8.65404290855945
 20
-16.47353869410682
 30
0.0
 10
8.65404290855945
 20
-16.47426535191735
 30
0.0
  0
LINE
  5
1CF
330
70
100
AcDbEntity
  8
Livello 1
370
     9
100
AcDbLine
 10
8.635300027657793
 20
-16.47243939126537
 30
0.0
 11
8.651313283776142
 21
-16.47243939126537
 31
0.0
  0
SPLINE
  5
1D0
330
70
100
AcDbEntity
  8
Livello 1
370
     9
100
AcDbSpline
210
0.0
220
0.0
230
1.0
 70
     8
 71
     3
 72
     8
 73
     4
 74
     0
 42
0.000000001
 43
0.0000000001
 40
0.0
 40
0.0
 40
0.0
 40
0.0
 40
1.0
 40
1.0
 40
1.0
 40
1.0
 10
7.596513601736758
 20
-16.47707882190158
 30
0.0
 10
7.593057319161304
 20
-16.47707882190158
 30
0.0
 10
7.591417681066232
 20
-16.47781479583781
 30
0.0
 10
7.591417681066232
 20
-16.47972460162186
 30
0.0
  0
SPLINE
  5
1D1
330
70
100
AcDbEntity
  8
Livello 1
370
     9
100
AcDbSpline
210
0.0
220
0.0
230
1.0
 70
     8
 71
     3
 72
     8
 73
     4
 74
     0
 42
0.000000001
 43
0.0000000001
 40
0.0
 40
0.0
 40
0.0
 40
0.0
 40
1.0
 40
1.0
 40
1.0
 40
1.0
 10
13.32866043375049
 20
-16.47707882190158
 30
0.0
 10
13.33211799866268
 20
-16.47707882190158
 30
0.0
 10
13.3335700319102
 20
-16.47781479583781
 30
0.0
 10
13.3335700319102
 20
-16.47972460162186
 30
0.0
  0
LINE
  5
1D2
330
70
100
AcDbEntity
  8
Livello 1
370
     9
100
AcDbLine
 10
10.40244676931873
 20
-16.47243939126537
 30
0.0
 11
10.41973749832137
 21
-16.47243939126537
 31
0.0
  0
SPLINE
  5
1D3
330
70
100
AcDbEntity
  8
Livello 1
370
     9
100
AcDbSpline
210
0.0
220
0.0
230
1.0
 70
     8
 71
     3
 72
     8
 73
     4
 74
     0
 42
0.000000001
 43
0.0000000001
 40
0.0
 40
0.0
 40
0.0
 40
0.0
 40
1.0
 40
1.0
 40
1.0
 40
1.0
 10
10.5027069123825
 20
-16.47171273345484
 30
0.0
 10
10.50361989268543
 20
-16.47171273345484
 30
0.0
 10
10.50398322158155
 20
-16.47207606236007
 30
0.0
 10
10.50470987937367
 20
-16.47243939126537
 30
0.0
  0
LINE
  5
1D4
330
70
100
AcDbEntity
  8
Livello 1
370
     9
100
AcDbLine
 10
10.50488688575891
 20
-16.47243939126537
 30
0.0
 11
10.52254094365761
 21
-16.47243939126537
 31
0.0
  0
SPLINE
  5
1D5
330
70
100
AcDbEntity
  8
Livello 1
370
     9
100
AcDbSpline
210
0.0
220
0.0
230
1.0
 70
     8
 71
     3
 72
     8
 73
     4
 74
     0
 42
0.000000001
 43
0.0000000001
 40
0.0
 40
0.0
 40
0.0
 40
0.0
 40
1.0
 40
1.0
 40
1.0
 40
1.0
 10
10.41973749832137
 20
-16.47243939126537
 30
0.0
 10
10.42046415611352
 20
-16.47199221722806
 30
0.0
 10
10.42101501631655
 20
-16.47171273345484
 30
0.0
 10
10.42228080059387
 20
-16.47171273345484
 30
0.0
  0
SPLINE
  5
1D6
330
70
100
AcDbEntity
  8
Livello 1
370
     9
100
AcDbSpline
210
0.0
220
0.0
230
1.0
 70
     8
 71
     3
 72
     8
 73
     4
 74
     0
 42
0.000000001
 43
0.0000000001
 40
0.0
 40
0.0
 40
0.0
 40
0.0
 40
1.0
 40
1.0
 40
1.0
 40
1.0
 10
8.531032786926488
 20
-16.47426535191735
 30
0.0
 10
8.531032786926488
 20
-16.47362253923883
 30
0.0
 10
8.531405431948078
 20
-16.47308220394383
 30
0.0
 10
8.532309096125471
 20
-16.47243939126537
 30
0.0
  0
SPLINE
  5
1D7
330
70
100
AcDbEntity
  8
Livello 1
370
     9
100
AcDbSpline
210
0.0
220
0.0
230
1.0
 70
    24
 71
     3
 72
    17
 73
    13
 74
     0
 42
0.000000001
 43
0.0000000001
 40
0.0
 40
0.0
 40
0.0
 40
0.0
 40
1.0
 40
1.0
 40
1.0
 40
2.0
 40
2.0
 40
2.0
 40
3.0
 40
3.0
 40
3.0
 40
4.0
 40
4.0
 40
4.0
 40
4.0
 10
8.532309096125471
 20
-16.47243939126537
 30
0.0
 10
8.531032786926488
 20
-16.47243939126537
 30
0.0
 10
8.533948734220574
 20
-16.47243939126537
 30
0.0
 10
8.534675392012687
 20
-16.47243939126537
 30
0.0
 10
8.535402049804835
 20
-16.47243939126537
 30
0.0
 10
8.536128707596981
 20
-16.47243939126537
 30
0.0
 10
8.536678359003849
 20
-16.47243939126537
 30
0.0
 10
8.538319158334122
 20
-16.47243939126537
 30
0.0
 10
8.539771312683182
 20
-16.47243939126537
 30
0.0
 10
8.541224628267473
 20
-16.47243939126537
 30
0.0
 10
8.544140575561558
 20
-16.47243939126537
 30
0.0
 10
8.546870200344866
 20
-16.47243939126537
 30
0.0
 10
8.549777993038027
 20
-16.47243939126537
 30
0.0
  0
SPLINE
  5
1D8
330
70
100
AcDbEntity
  8
Livello 1
370
     9
100
AcDbSpline
210
0.0
220
0.0
230
1.0
 70
     8
 71
     3
 72
     8
 73
     4
 74
     0
 42
0.000000001
 43
0.0000000001
 40
0.0
 40
0.0
 40
0.0
 40
0.0
 40
1.0
 40
1.0
 40
1.0
 40
1.0
 10
8.549964315553587
 20
-16.47226238487559
 30
0.0
 10
8.550689811816312
 20
-16.47199221722806
 30
0.0
 10
8.551230147097616
 20
-16.47162888832283
 30
0.0
 10
8.552329449911415
 20
-16.47162888832283
 30
0.0
  0
LINE
  5
1D9
330
70
100
AcDbEntity
  8
Livello 1
370
     9
100
AcDbLine
 10
12.39413193243519
 20
-16.47426535191735
 30
0.0
 11
12.39413193243519
 21
-16.47699497676958
 31
0.0
  0
LINE
  5
1DA
330
70
100
AcDbEntity
  8
Livello 1
370
     9
100
AcDbLine
 10
12.28914851372255
 20
-16.47426535191735
 30
0.0
 11
12.27240869169302
 21
-16.47426535191735
 31
0.0
  0
SPLINE
  5
1DB
330
70
100
AcDbEntity
  8
Livello 1
370
     9
100
AcDbSpline
210
0.0
220
0.0
230
1.0
 70
    24
 71
     3
 72
    23
 73
    19
 74
     0
 42
0.000000001
 43
0.0000000001
 40
0.0
 40
0.0
 40
0.0
 40
0.0
 40
1.0
 40
1.0
 40
1.0
 40
2.0
 40
2.0
 40
2.0
 40
3.0
 40
3.0
 40
3.0
 40
4.0
 40
4.0
 40
4.0
 40
5.0
 40
5.0
 40
5.0
 40
6.0
 40
6.0
 40
6.0
 40
6.0
 10
12.39286619797099
 20
-16.47426535191735
 30
0.0
 10
12.39322826825774
 20
-16.47426535191735
 30
0.0
 10
12.39504491273809
 20
-16.47426535191735
 30
0.0
 10
12.39413193243519
 20
-16.47426535191735
 30
0.0
 10
12.39359159715386
 20
-16.47426535191735
 30
0.0
 10
12.39304194574696
 20
-16.47426535191735
 30
0.0
 10
12.39250161046562
 20
-16.47426535191735
 30
0.0
 10
12.38922233427548
 20
-16.47426535191735
 30
0.0
 10
12.38557972918922
 20
-16.47426535191735
 30
0.0
 10
12.38212344661386
 20
-16.47426535191735
 30
0.0
 10
12.37776349986105
 20
-16.47426535191735
 30
0.0
 10
12.37339549510011
 20
-16.47426535191735
 30
0.0
 10
12.36884796771908
 20
-16.47426535191735
 30
0.0
 10
12.36010944196232
 20
-16.47426535191735
 30
0.0
 10
12.35101690343501
 20
-16.47426535191735
 30
0.0
 10
12.34227963500974
 20
-16.47426535191735
 30
0.0
 10
12.32462431977965
 20
-16.47426535191735
 30
0.0
 10
12.30679325549571
 20
-16.47426535191735
 30
0.0
 10
12.28914851372255
 20
-16.47426535191735
 30
0.0
  0
SPLINE
  5
1DC
330
70
100
AcDbEntity
  8
Livello 1
370
     9
100
AcDbSpline
210
0.0
220
0.0
230
1.0
 70
     8
 71
     3
 72
     8
 73
     4
 74
     0
 42
0.000000001
 43
0.0000000001
 40
0.0
 40
0.0
 40
0.0
 40
0.0
 40
1.0
 40
1.0
 40
1.0
 40
1.0
 10
12.29260479629791
 20
-16.47171273345484
 30
0.0
 10
12.28968884900389
 20
-16.47207606236007
 30
0.0
 10
12.28878518482643
 20
-16.47280272017052
 30
0.0
 10
12.28914851372255
 20
-16.47426535191735
 30
0.0
  0
LINE
  5
1DD
330
70
100
AcDbEntity
  8
Livello 1
370
     9
100
AcDbLine
 10
13.10721612965964
 20
-16.47707882190158
 30
0.0
 11
13.10721612965964
 21
-16.47426535191735
 31
0.0
  0
LINE
  5
1DE
330
70
100
AcDbEntity
  8
Livello 1
370
     9
100
AcDbLine
 10
13.10721612965964
 20
-16.47426535191735
 30
0.0
 11
13.04662404914607
 21
-16.47426535191735
 31
0.0
  0
LINE
  5
1E0
330
70
100
AcDbEntity
  8
Livello 1
370
     9
100
AcDbLine
 10
13.10721612965964
 20
-16.47171273345484
 30
0.0
 11
13.10721612965964
 21
-16.47426535191735
 31
0.0
  0
LINE
  5
1E1
330
70
100
AcDbEntity
  8
Livello 1
370
     9
100
AcDbLine
 10
7.818134912212856
 20
-16.47426535191735
 30
0.0
 11
7.818134912212856
 21
-16.47699497676958
 31
0.0
  0
SPLINE
  5
1E2
330
70
100
AcDbEntity
  8
Livello 1
370
     9
100
AcDbSpline
210
0.0
220
0.0
230
1.0
 70
    24
 71
     3
 72
    20
 73
    16
 74
     0
 42
0.000000001
 43
0.0000000001
 40
0.0
 40
0.0
 40
0.0
 40
0.0
 40
1.0
 40
1.0
 40
1.0
 40
2.0
 40
2.0
 40
2.0
 40
3.0
 40
3.0
 40
3.0
 40
4.0
 40
4.0
 40
4.0
 40
5.0
 40
5.0
 40
5.0
 40
5.0
 10
7.878540670215585
 20
-16.47426535191735
 30
0.0
 10
7.878540670215585
 20
-16.47426535191735
 30
0.0
 10
7.879276644133232
 20
-16.47426535191735
 30
0.0
 10
7.878903999111642
 20
-16.47426535191735
 30
0.0
 10
7.876910348246012
 20
-16.47426535191735
 30
0.0
 10
7.874907381254886
 20
-16.47426535191735
 30
0.0
 10
7.872718091752914
 20
-16.47426535191735
 30
0.0
 10
7.870174789480451
 20
-16.47426535191735
 30
0.0
 10
7.867445164697175
 20
-16.47426535191735
 30
0.0
 10
7.864901862424678
 20
-16.47426535191735
 30
0.0
 10
7.859805941754187
 20
-16.47426535191735
 30
0.0
 10
7.854523698572918
 20
-16.47426535191735
 30
0.0
 10
7.849250771517146
 20
-16.47426535191735
 30
0.0
 10
7.838881923790882
 20
-16.47426535191735
 30
0.0
 10
7.828503759939087
 20
-16.47426535191735
 30
0.0
 10
7.817948589702012
 20
-16.47426535191735
 30
0.0
  0
LINE
  5
1E3
330
70
100
AcDbEntity
  8
Livello 1
370
     9
100
AcDbLine
 10
7.818134912212856
 20
-16.47426535191735
 30
0.0
 11
7.818134912212856
 21
-16.47171273345484
 31
0.0
  0
LINE
  5
1E4
330
70
100
AcDbEntity
  8
Livello 1
370
     9
100
AcDbLine
 10
7.818134912212856
 20
-16.47426535191735
 30
0.0
 11
7.757365825314008
 21
-16.47426535191735
 31
0.0
  0
LINE
  5
1E5
330
70
100
AcDbEntity
  8
Livello 1
370
     9
100
AcDbLine
 10
8.636025521764668
 20
-16.47426535191735
 30
0.0
 11
8.636025521764668
 21
-16.47699497676958
 31
0.0
  0
SPLINE
  5
1E6
330
70
100
AcDbEntity
  8
Livello 1
370
     9
100
AcDbSpline
210
0.0
220
0.0
230
1.0
 70
    24
 71
     3
 72
    20
 73
    16
 74
     0
 42
0.000000001
 43
0.0000000001
 40
0.0
 40
0.0
 40
0.0
 40
0.0
 40
1.0
 40
1.0
 40
1.0
 40
2.0
 40
2.0
 40
2.0
 40
3.0
 40
3.0
 40
3.0
 40
4.0
 40
4.0
 40
4.0
 40
5.0
 40
5.0
 40
5.0
 40
5.0
 10
8.652943605745681
 20
-16.47426535191735
 30
0.0
 10
8.65330693464177
 20
-16.47426535191735
 30
0.0
 10
8.653679579663361
 20
-16.47426535191735
 30
0.0
 10
8.654219914944697
 20
-16.47426535191735
 30
0.0
 10
8.654770730528602
 20
-16.47426535191735
 30
0.0
 10
8.65330693464177
 20
-16.47426535191735
 30
0.0
 10
8.653129928256491
 20
-16.47426535191735
 30
0.0
 10
8.65203994156829
 20
-16.47426535191735
 30
0.0
 10
8.651313283776142
 20
-16.47426535191735
 30
0.0
 10
8.650578473929591
 20
-16.47426535191735
 30
0.0
 10
8.648946987888926
 20
-16.47426535191735
 30
0.0
 10
8.647307349793852
 20
-16.47426535191735
 30
0.0
 10
8.645854034209591
 20
-16.47426535191735
 30
0.0
 10
8.642574758019451
 20
-16.47426535191735
 30
0.0
 10
8.639305961741245
 20
-16.47426535191735
 30
0.0
 10
8.636025521764668
 20
-16.47426535191735
 30
0.0
  0
SPLINE
  5
1E7
330
70
100
AcDbEntity
  8
Livello 1
370
     9
100
AcDbSpline
210
0.0
220
0.0
230
1.0
 70
     8
 71
     3
 72
     8
 73
     4
 74
     0
 42
0.000000001
 43
0.0000000001
 40
0.0
 40
0.0
 40
0.0
 40
0.0
 40
1.0
 40
1.0
 40
1.0
 40
1.0
 10
8.636025521764668
 20
-16.47426535191735
 30
0.0
 10
8.636575173171534
 20
-16.47280272017052
 30
0.0
 10
8.635475870357829
 20
-16.47207606236007
 30
0.0
 10
8.632569239189246
 20
-16.47171273345484
 30
0.0
  0
LINE
  5
1E8
330
70
100
AcDbEntity
  8
Livello 1
370
     9
100
AcDbLine
 10
8.636025521764668
 20
-16.47426535191735
 30
0.0
 11
8.532309096125471
 21
-16.47426535191735
 31
0.0
  0
LINE
  5
1E9
330
70
100
AcDbEntity
  8
Livello 1
370
     9
100
AcDbLine
 10
10.52418058175268
 20
-16.47426535191735
 30
0.0
 11
10.40099345373447
 21
-16.47426535191735
 31
0.0
  0
LINE
  5
1EA
330
70
100
AcDbEntity
  8
Livello 1
370
     9
100
AcDbLine
 10
10.46249851455093
 20
-16.47972460162186
 30
0.0
 11
10.46249851455093
 21
-16.47707882190158
 31
0.0
  0
LINE
  5
1EB
330
70
100
AcDbEntity
  8
Livello 1
370
     9
100
AcDbLine
 10
10.46249851455093
 20
-16.47972460162186
 30
0.0
 11
7.592330661369159
 21
-16.47972460162186
 31
0.0
  0
SPLINE
  5
1EC
330
70
100
AcDbEntity
  8
Livello 1
370
     9
100
AcDbSpline
210
0.0
220
0.0
230
1.0
 70
    24
 71
     3
 72
    26
 73
    22
 74
     0
 42
0.000000001
 43
0.0000000001
 40
0.0
 40
0.0
 40
0.0
 40
0.0
 40
1.0
 40
1.0
 40
1.0
 40
2.0
 40
2.0
 40
2.0
 40
3.0
 40
3.0
 40
3.0
 40
4.0
 40
4.0
 40
4.0
 40
5.0
 40
5.0
 40
5.0
 40
6.0
 40
6.0
 40
6.0
 40
7.0
 40
7.0
 40
7.0
 40
7.0
 10
13.33284337411796
 20
-16.47972460162186
 30
0.0
 10
13.3339333608062
 20
-16.47972460162186
 30
0.0
 10
13.33193167614716
 20
-16.47972460162186
 30
0.0
 10
13.33156706491895
 20
-16.47972460162186
 30
0.0
 10
13.32720711816613
 20
-16.47972460162186
 30
0.0
 10
13.32283785528788
 20
-16.47972460162186
 30
0.0
 10
13.31865491492028
 20
-16.47972460162186
 30
0.0
 10
13.29809422585297
 20
-16.47972460162186
 30
0.0
 10
13.27753353678579
 20
-16.47972460162186
 30
0.0
 10
13.25697284771848
 20
-16.47972460162186
 30
0.0
 10
13.16307561839871
 20
-16.47972460162186
 30
0.0
 10
13.06937402771529
 20
-16.47972460162186
 30
0.0
 10
12.97548611452108
 20
-16.47972460162186
 30
0.0
 10
12.85594159158907
 20
-16.47972460162186
 30
0.0
 10
12.73621074614616
 20
-16.47972460162186
 30
0.0
 10
12.61666622321415
 20
-16.47972460162186
 30
0.0
 10
12.3772151066681
 20
-16.47972460162186
 30
0.0
 10
12.13812480259013
 20
-16.47972460162186
 30
0.0
 10
11.89867242783012
 20
-16.47972460162186
 30
0.0
 10
11.4199446846952
 20
-16.47972460162186
 30
0.0
 10
10.94140326407105
 20
-16.47972460162186
 30
0.0
 10
10.46267552093621
 20
-16.47972460162186
 30
0.0
  0
SPLINE
  5
1ED
330
70
100
AcDbEntity
  8
Livello 1
370
     9
100
AcDbSpline
210
0.0
220
0.0
230
1.0
 70
    24
 71
     3
 72
    26
 73
    22
 74
     0
 42
0.000000001
 43
0.0000000001
 40
0.0
 40
0.0
 40
0.0
 40
0.0
 40
1.0
 40
1.0
 40
1.0
 40
2.0
 40
2.0
 40
2.0
 40
3.0
 40
3.0
 40
3.0
 40
4.0
 40
4.0
 40
4.0
 40
5.0
 40
5.0
 40
5.0
 40
6.0
 40
6.0
 40
6.0
 40
7.0
 40
7.0
 40
7.0
 40
7.0
 10
7.597240259528838
 20
-16.64657641426203
 30
0.0
 10
7.596150272840637
 20
-16.64657641426203
 30
0.0
 10
7.598330246217075
 20
-16.64657641426203
 30
0.0
 10
7.598694712611502
 20
-16.64657641426203
 30
0.0
 10
7.603062837991477
 20
-16.64657641426203
 30
0.0
 10
7.607245778359046
 20
-16.64657641426203
 30
0.0
 10
7.611438034852144
 20
-16.64657641426203
 30
0.0
 10
7.631998723919394
 20
-16.64657641426203
 30
0.0
 10
7.652559412986642
 20
-16.64657641426203
 30
0.0
 10
7.672933779543076
 20
-16.64657641426203
 30
0.0
 10
7.766644686352067
 20
-16.64657641426203
 30
0.0
 10
7.860346277035522
 20
-16.64657641426203
 30
0.0
 10
7.954057183844512
 20
-16.64657641426203
 30
0.0
 10
8.07360170677652
 20
-16.64657641426203
 30
0.0
 10
8.192784053318829
 20
-16.64657641426203
 30
0.0
 10
8.312141101233665
 20
-16.64657641426203
 30
0.0
 10
8.551053140712401
 20
-16.64657641426203
 30
0.0
 10
8.789955864065605
 20
-16.64657641426203
 30
0.0
 10
9.028867903544339
 20
-16.64657641426203
 30
0.0
 10
9.506868988887056
 20
-16.64657641426203
 30
0.0
 10
9.984497429208252
 20
-16.64657641426203
 30
0.0
 10
10.46249851455093
 20
-16.64657641426203
 30
0.0
  0
LINE
  5
1EE
330
70
100
AcDbEntity
  8
Livello 1
370
     9
100
AcDbLine
 10
10.46249851455093
 20
-16.64657641426203
 30
0.0
 11
13.32793377595838
 21
-16.64657641426203
 31
0.0
  0
SPLINE
  5
1EF
330
70
100
AcDbEntity
  8
Livello 1
370
     9
100
AcDbSpline
210
0.0
220
0.0
230
1.0
 70
     8
 71
     3
 72
     8
 73
     4
 74
     0
 42
0.000000001
 43
0.0000000001
 40
0.0
 40
0.0
 40
0.0
 40
0.0
 40
1.0
 40
1.0
 40
1.0
 40
1.0
 10
7.591417681066232
 20
-16.64548642754633
 30
0.0
 10
7.591417681066232
 20
-16.64630624661457
 30
0.0
 10
7.593057319161304
 20
-16.64657641426203
 30
0.0
 10
7.596513601736758
 20
-16.64657641426203
 30
0.0
  0
SPLINE
  5
1F0
330
70
100
AcDbEntity
  8
Livello 1
370
     9
100
AcDbSpline
210
0.0
220
0.0
230
1.0
 70
     8
 71
     3
 72
     8
 73
     4
 74
     0
 42
0.000000001
 43
0.0000000001
 40
0.0
 40
0.0
 40
0.0
 40
0.0
 40
1.0
 40
1.0
 40
1.0
 40
1.0
 10
13.3335700319102
 20
-16.64548642754633
 30
0.0
 10
13.3335700319102
 20
-16.64630624661457
 30
0.0
 10
13.33211799866268
 20
-16.64657641426203
 30
0.0
 10
13.32866043375049
 20
-16.64657641426203
 30
0.0
  0
LINE
  5
1F1
330
70
100
AcDbEntity
  8
Livello 1
370
     9
100
AcDbLine
 10
13.3335700319102
 20
-16.47972460162186
 30
0.0
 11
13.3335700319102
 21
-16.64548642754633
 31
0.0
  0
LINE
  5
1F2
330
70
100
AcDbEntity
  8
Livello 1
370
     9
100
AcDbLine
 10
7.591417681066232
 20
-16.47972460162186
 30
0.0
 11
7.591417681066232
 21
-16.64548642754633
 31
0.0
  0
SPLINE
  5
1F3
330
70
100
AcDbEntity
  8
Livello 1
370
     9
100
AcDbSpline
210
0.0
220
0.0
230
1.0
 70
    24
 71
     3
 72
    26
 73
    22
 74
     0
 42
0.000000001
 43
0.0000000001
 40
0.0
 40
0.0
 40
0.0
 40
0.0
 40
1.0
 40
1.0
 40
1.0
 40
2.0
 40
2.0
 40
2.0
 40
3.0
 40
3.0
 40
3.0
 40
4.0
 40
4.0
 40
4.0
 40
5.0
 40
5.0
 40
5.0
 40
6.0
 40
6.0
 40
6.0
 40
7.0
 40
7.0
 40
7.0
 40
7.0
 10
13.33284337411796
 20
-16.64548642754633
 30
0.0
 10
13.3339333608062
 20
-16.64548642754633
 30
0.0
 10
13.33193167614716
 20
-16.64548642754633
 30
0.0
 10
13.33156706491895
 20
-16.64548642754633
 30
0.0
 10
13.32720711816613
 20
-16.64548642754633
 30
0.0
 10
13.32283785528788
 20
-16.64548642754633
 30
0.0
 10
13.31865491492028
 20
-16.64548642754633
 30
0.0
 10
13.29809422585297
 20
-16.64548642754633
 30
0.0
 10
13.27753353678579
 20
-16.64548642754633
 30
0.0
 10
13.25697284771848
 20
-16.64548642754633
 30
0.0
 10
13.16307561839871
 20
-16.64548642754633
 30
0.0
 10
13.06937402771529
 20
-16.64548642754633
 30
0.0
 10
12.97548611452108
 20
-16.64548642754633
 30
0.0
 10
12.85594159158907
 20
-16.64548642754633
 30
0.0
 10
12.73621074614616
 20
-16.64548642754633
 30
0.0
 10
12.61666622321415
 20
-16.64548642754633
 30
0.0
 10
12.3772151066681
 20
-16.64548642754633
 30
0.0
 10
12.13812480259013
 20
-16.64548642754633
 30
0.0
 10
11.89867242783012
 20
-16.64548642754633
 30
0.0
 10
11.4199446846952
 20
-16.64548642754633
 30
0.0
 10
10.94140326407105
 20
-16.64548642754633
 30
0.0
 10
10.46267552093621
 20
-16.64548642754633
 30
0.0
  0
LINE
  5
1F4
330
70
100
AcDbEntity
  8
Livello 1
370
     9
100
AcDbLine
 10
10.46249851455093
 20
-16.64548642754633
 30
0.0
 11
7.592330661369159
 21
-16.64548642754633
 31
0.0
  0
LINE
  5
1F5
330
70
100
AcDbEntity
  8
Livello 1
370
     9
100
AcDbLine
 10
10.46249851455093
 20
-16.64657641426203
 30
0.0
 11
10.46249851455093
 21
-16.64548642754633
 31
0.0
  0
LINE
  5
1F6
330
70
100
AcDbEntity
  8
Livello 1
370
     9
100
AcDbLine
 10
12.28914851372255
 20
-16.47707882190158
 30
0.0
 11
12.28914851372255
 21
-16.47426535191735
 31
0.0
  0
LINE
  5
1F7
330
70
100
AcDbEntity
  8
Livello 1
370
     9
100
AcDbLine
 10
12.38521640029322
 20
-15.94332071171676
 30
0.0
 11
12.389046586403
 21
-16.34206952716219
 31
0.0
  0
LINE
  5
1F8
330
70
100
AcDbEntity
  8
Livello 1
370
     9
100
AcDbLine
 10
8.536315030107791
 20
-16.34216268841996
 30
0.0
 11
8.539948319068459
 21
-15.94340455684877
 31
0.0
  0
SPLINE
  5
1F9
330
70
100
AcDbEntity
  8
Livello 1
370
     9
100
AcDbSpline
210
0.0
220
0.0
230
1.0
 70
    24
 71
     3
 72
    23
 73
    19
 74
     0
 42
0.000000001
 43
0.0000000001
 40
0.0
 40
0.0
 40
0.0
 40
0.0
 40
1.0
 40
1.0
 40
1.0
 40
2.0
 40
2.0
 40
2.0
 40
3.0
 40
3.0
 40
3.0
 40
4.0
 40
4.0
 40
4.0
 40
5.0
 40
5.0
 40
5.0
 40
6.0
 40
6.0
 40
6.0
 40
6.0
 10
12.3753972039738
 20
-15.93358536028126
 30
0.0
 10
12.38122104075149
 20
-15.93358536028126
 30
0.0
 10
12.36957588353212
 20
-15.93358536028126
 30
0.0
 10
12.36684500072795
 20
-15.93358536028126
 30
0.0
 10
12.35592650159472
 20
-15.93358536028126
 30
0.0
 10
12.3451943249724
 20
-15.93358536028126
 30
0.0
 10
12.3342758258393
 20
-15.93358536028126
 30
0.0
 10
12.28769519813819
 20
-15.93358536028126
 30
0.0
 10
12.24111457043721
 20
-15.93358536028126
 30
0.0
 10
12.1945339427361
 20
-15.93358536028126
 30
0.0
 10
12.13411886860787
 20
-15.93358536028126
 30
0.0
 10
12.07389011699042
 20
-15.93358536028126
 30
0.0
 10
12.01330735260242
 20
-15.93358536028126
 30
0.0
 10
11.8924865204714
 20
-15.93358536028126
 30
0.0
 10
11.77148060874134
 20
-15.93358536028126
 30
0.0
 10
11.65084485620935
 20
-15.93358536028126
 30
0.0
 10
11.4090261855621
 20
-15.93358536028126
 30
0.0
 10
11.1670305085295
 20
-15.93358536028126
 30
0.0
 10
10.9253900658051
 20
-15.93358536028126
 30
0.0
  0
LINE
  5
1FA
330
70
100
AcDbEntity
  8
Livello 1
370
     9
100
AcDbLine
 10
10.9253900658051
 20
-15.93358536028126
 30
0.0
 11
8.549777993038027
 21
-15.93358536028126
 31
0.0
  0
LINE
  5
1FB
330
70
100
AcDbEntity
  8
Livello 1
370
     9
100
AcDbLine
 10
10.90082222121789
 20
-16.34216268841996
 30
0.0
 11
10.89554929416218
 21
-16.34216268841996
 31
0.0
  0
LINE
  5
1FC
330
70
100
AcDbEntity
  8
Livello 1
370
     9
100
AcDbLine
 10
10.82476537230762
 20
-16.34216268841996
 30
0.0
 11
10.81767580077157
 21
-16.34216268841996
 31
0.0
  0
LINE
  5
1FD
330
70
100
AcDbEntity
  8
Livello 1
370
     9
100
AcDbLine
 10
10.80057139427974
 20
-16.34216268841996
 30
0.0
 11
10.78801325705151
 21
-16.34216268841996
 31
0.0
  0
LINE
  5
1FE
330
70
100
AcDbEntity
  8
Livello 1
370
     9
100
AcDbLine
 10
10.65136432762767
 20
-16.34216268841996
 30
0.0
 11
10.6209751261155
 21
-16.34216268841996
 31
0.0
  0
SPLINE
  5
1FF
330
70
100
AcDbEntity
  8
Livello 1
370
     9
100
AcDbSpline
210
0.0
220
0.0
230
1.0
 70
     8
 71
     3
 72
     8
 73
     4
 74
     0
 42
0.000000001
 43
0.0000000001
 40
0.0
 40
0.0
 40
0.0
 40
0.0
 40
1.0
 40
1.0
 40
1.0
 40
1.0
 10
12.37576053286992
 20
-15.93358536028126
 30
0.0
 10
12.37903049293449
 20
-15.93513183716015
 30
0.0
 10
12.38176011771774
 20
-15.93712548807602
 30
0.0
 10
12.38412641360499
 20
-15.93985511292831
 30
0.0
  0
SPLINE
  5
200
330
70
100
AcDbEntity
  8
Livello 1
370
     9
100
AcDbSpline
210
0.0
220
0.0
230
1.0
 70
     8
 71
     3
 72
     8
 73
     4
 74
     0
 42
0.000000001
 43
0.0000000001
 40
0.0
 40
0.0
 40
0.0
 40
0.0
 40
1.0
 40
1.0
 40
1.0
 40
1.0
 10
8.539771312683182
 20
-15.94332071171676
 30
0.0
 10
8.541587957163532
 20
-15.93840179730725
 30
0.0
 10
8.544503904457616
 20
-15.93549516606532
 30
0.0
 10
8.549599825128105
 20
-15.93358536028126
 30
0.0
  0
LINE
  5
201
330
70
100
AcDbEntity
  8
Livello 1
370
     9
100
AcDbLine
 10
12.3488276139331
 20
-15.92238737709913
 30
0.0
 11
12.34901393644388
 21
-15.93358536028126
 31
0.0
  0
LINE
  5
202
330
70
100
AcDbEntity
  8
Livello 1
370
     9
100
AcDbLine
 10
8.576346421554081
 20
-15.93358536028126
 30
0.0
 11
8.57652342793933
 21
-15.92238737709913
 31
0.0
  0
LINE
  5
203
330
70
100
AcDbEntity
  8
Livello 1
370
     9
100
AcDbLine
 10
10.9277551401547
 20
-15.94332071171676
 30
0.0
 11
8.539948319068459
 21
-15.94332071171676
 31
0.0
  0
SPLINE
  5
204
330
70
100
AcDbEntity
  8
Livello 1
370
     9
100
AcDbSpline
210
0.0
220
0.0
230
1.0
 70
     8
 71
     3
 72
     8
 73
     4
 74
     0
 42
0.000000001
 43
0.0000000001
 40
0.0
 40
0.0
 40
0.0
 40
0.0
 40
1.0
 40
1.0
 40
1.0
 40
1.0
 10
10.9253900658051
 20
-15.93358536028126
 30
0.0
 10
10.92794146266548
 20
-15.93667831403885
 30
0.0
 10
10.92848179794682
 20
-15.93958494528077
 30
0.0
 10
10.92794146266548
 20
-15.94332071171676
 30
0.0
  0
SPLINE
  5
205
330
70
100
AcDbEntity
  8
Livello 1
370
     9
100
AcDbSpline
210
0.0
220
0.0
230
1.0
 70
    24
 71
     3
 72
    23
 73
    19
 74
     0
 42
0.000000001
 43
0.0000000001
 40
0.0
 40
0.0
 40
0.0
 40
0.0
 40
1.0
 40
1.0
 40
1.0
 40
2.0
 40
2.0
 40
2.0
 40
3.0
 40
3.0
 40
3.0
 40
4.0
 40
4.0
 40
4.0
 40
5.0
 40
5.0
 40
5.0
 40
6.0
 40
6.0
 40
6.0
 40
6.0
 10
12.38521640029322
 20
-15.94332071171676
 30
0.0
 10
12.39103897875583
 20
-15.94332071171676
 30
0.0
 10
12.3795801443414
 20
-15.94332071171676
 30
0.0
 10
12.37666419704725
 20
-15.94332071171676
 30
0.0
 10
12.36575627196414
 20
-15.94332071171676
 30
0.0
 10
12.35483651490661
 20
-15.94332071171676
 30
0.0
 10
12.34409502215873
 20
-15.94332071171676
 30
0.0
 10
12.2971510655615
 20
-15.94332071171676
 30
0.0
 10
12.25039343147518
 20
-15.94332071171676
 30
0.0
 10
12.20344947487807
 20
-15.94332071171676
 30
0.0
 10
12.1428573943645
 20
-15.94332071171676
 30
0.0
 10
12.08208024209847
 20
-15.94332071171676
 30
0.0
 10
12.02130990444137
 20
-15.94332071171676
 30
0.0
 10
11.89994998318634
 20
-15.94332071171676
 30
0.0
 10
11.7782149245951
 20
-15.94332071171676
 30
0.0
 10
11.65685375718274
 20
-15.94332071171676
 30
0.0
 10
11.41375877733647
 20
-15.94332071171676
 30
0.0
 10
11.17085012000098
 20
-15.94332071171676
 30
0.0
 10
10.9277551401547
 20
-15.94332071171676
 30
0.0
  0
LINE
  5
249
330
70
100
AcDbEntity
  8
Livello 1
370
     9
100
AcDbLine
 10
9.880838672915386
 20
-9.780436177229946
 30
0.0
 11
10.9571941493599
 21
-9.780436177229946
 31
0.0
  0
LINE
  5
24A
330
70
100
AcDbEntity
  8
Livello 1
370
     9
100
AcDbLine
 10
10.9571941493599
 20
-9.780436177229946
 30
0.0
 11
10.9571941493599
 21
-10.17597364324229
 31
0.0
  0
LINE
  5
24B
330
70
100
AcDbEntity
  8
Livello 1
370
     9
100
AcDbLine
 10
10.9571941493599
 20
-10.17597364324229
 30
0.0
 11
9.880838672915386
 21
-10.17597364324229
 31
0.0
  0
LINE
  5
24C
330
70
100
AcDbEntity
  8
Livello 1
370
     9
100
AcDbLine
 10
9.880838672915386
 20
-10.17597364324229
 30
0.0
 11
9.880838672915386
 21
-9.780436177229946
 31
0.0
  0
SPLINE
  5
262
330
70
100
AcDbEntity
  8
Livello 1
370
     9
100
AcDbSpline
210
0.0
220
0.0
230
1.0
 70
    24
 71
     3
 72
     8
 73
     4
 74
     0
 42
0.000000001
 43
0.0000000001
 40
0.0
 40
0.0
 40
0.0
 40
0.0
 40
1.0
 40
1.0
 40
1.0
 40
1.0
 10
13.16763120378787
 20
-16.47426535191735
 30
0.0
 10
13.16835786157998
 20
-16.47426535191735
 30
0.0
 10
13.1687211904761
 20
-16.47426535191735
 30
0.0
 10
13.1687211904761
 20
-16.47426535191735
 30
0.0
  0
SPLINE
  5
263
330
70
100
AcDbEntity
  8
Livello 1
370
     9
100
AcDbSpline
210
0.0
220
0.0
230
1.0
 70
    24
 71
     3
 72
     8
 73
     4
 74
     0
 42
0.000000001
 43
0.0000000001
 40
1.0
 40
1.0
 40
1.0
 40
1.0
 40
2.0
 40
2.0
 40
2.0
 40
2.0
 10
13.1687211904761
 20
-16.47426535191735
 30
0.0
 10
13.1687211904761
 20
-16.47426535191735
 30
0.0
 10
13.14325090324921
 20
-16.47426535191735
 30
0.0
 10
13.10721612965964
 20
-16.47426535191735
 30
0.0
  0
LINE
  5
26B
330
70
100
AcDbEntity
  8
0
100
AcDbLine
 10
7.597240259528838
 20
-17.13477948880413
 30
0.0
 11
13.3335700319102
 21
-17.13477948880413
 31
0.0
  0
LINE
  5
26C
330
70
100
AcDbEntity
  8
0
100
AcDbLine
 10
13.42800667247496
 20
-16.64548642754633
 30
0.0
 11
13.42800667247496
 21
-9.780436177229946
 31
0.0
  0
LINE
  5
26D
330
70
100
AcDbEntity
  8
0
100
AcDbLine
 10
7.458465090518147
 20
-16.64657641426203
 30
0.0
 11
7.45846509051815
 21
-16.47972460162186
 31
0.0
  0
MTEXT
  5
26F
330
70
100
AcDbEntity
  8
0
100
AcDbMText
 10
10.12851800073266
 20
-17.4044017736252
 30
0.0
 40
0.2
 41
1.164235145747367
 46
0.0
 71
     1
 72
     5
  1
350
 73
     1
 44
1.0
101
Embedded Object
 70
     1
 10
1.0
 20
0.0
 30
0.0
 11
10.12851800073266
 21
-17.4044017736252
 31
0.0
 40
1.164235145747367
 41
0.0
 42
0.5
 43
0.2
 71
     2
 72
     1
 44
1.164235145747367
 45
1.0
 73
     0
 74
     0
 46
0.0
  0
MTEXT
  5
278
330
70
100
AcDbEntity
  8
0
100
AcDbMText
 10
7.080119661226253
 20
-16.4519815892751
 30
0.0
 40
0.2
 41
1.164235145747367
 46
0.0
 71
     1
 72
     5
  1
45
 73
     1
 44
1.0
101
Embedded Object
 70
     1
 10
1.0
 20
0.0
 30
0.0
 11
7.080119661226253
 21
-16.4519815892751
 31
0.0
 40
1.164235145747367
 41
0.0
 42
0.3333333333333333
 43
0.2
 71
     2
 72
     1
 44
1.164235145747367
 45
1.0
 73
     0
 74
     0
 46
0.0
  0
MTEXT
  5
280
330
70
100
AcDbEntity
  8
0
100
AcDbMText
 10
13.59677425700259
 20
-12.89643409487239
 30
0.0
 40
0.2
 41
1.164235145747367
 46
0.0
 71
     1
 72
     5
  1
1.311
 73
     1
 44
1.0
101
Embedded Object
 70
     1
 10
1.0
 20
0.0
 30
0.0
 11
13.59677425700259
 21
-12.89643409487239
 31
0.0
 40
1.164235145747367
 41
0.0
 42
0.6
 43
0.2000000000000001
 71
     2
 72
     1
 44
1.164235145747367
 45
1.0
 73
     0
 74
     0
 46
0.0
  0
ENDSEC
  0
SECTION
  2
OBJECTS
  0
DICTIONARY
  5
C
330
0
100
AcDbDictionary
281
     1
  3
ACAD_CIP_PREVIOUS_PRODUCT_INFO
350
246
  3
ACAD_COLOR
350
63
  3
ACAD_DETAILVIEWSTYLE
350
6A
  3
ACAD_GROUP
350
D
  3
ACAD_LAYOUT
350
62
  3
ACAD_MATERIAL
350
10
  3
ACAD_MLEADERSTYLE
350
66
  3
ACAD_MLINESTYLE
350
5F
  3
ACAD_PLOTSETTINGS
350
61
  3
ACAD_PLOTSTYLENAME
350
E
  3
ACAD_SCALELIST
350
42
  3
ACAD_SECTIONVIEWSTYLE
350
68
  3
ACAD_TABLESTYLE
350
64
  3
ACAD_VISUALSTYLE
350
29
  3
ACDB_RECOMPOSE_DATA
350
2A0
  3
AcDbVariableDictionary
350
23C
  0
DICTIONARY
  5
247
330
70
100
AcDbDictionary
280
     1
281
     1
  3
ACAD_SORTENTS
360
248
  0
XRECORD
  5
246
102
{ACAD_REACTORS
330
C
102
}
330
C
100
AcDbXrecord
280
     1
300
ACD
300
2022
300

  0
DICTIONARY
  5
63
102
{ACAD_REACTORS
330
C
102
}
330
C
100
AcDbDictionary
281
     1
  0
DICTIONARY
  5
6A
102
{ACAD_REACTORS
330
C
102
}
330
C
100
AcDbDictionary
281
     1
  3
Imperial24
350
6B
  0
DICTIONARY
  5
D
102
{ACAD_REACTORS
330
C
102
}
330
C
100
AcDbDictionary
281
     1
  0
DICTIONARY
  5
62
102
{ACAD_REACTORS
330
C
102
}
330
C
100
AcDbDictionary
281
     1
  3
Layout1
350
6F
  3
Layout2
350
77
  3
Model
350
73
  0
DICTIONARY
  5
10
102
{ACAD_REACTORS
330
C
102
}
330
C
100
AcDbDictionary
281
     1
  3
ByBlock
350
19
  3
ByLayer
350
11
  3
Global
350
21
  0
DICTIONARY
  5
66
102
{ACAD_REACTORS
330
C
102
}
330
C
100
AcDbDictionary
281
     1
  3
Standard
350
67
  0
DICTIONARY
  5
5F
102
{ACAD_REACTORS
330
C
102
}
330
C
100
AcDbDictionary
281
     1
  3
Standard
350
60
  0
DICTIONARY
  5
61
102
{ACAD_REACTORS
330
C
102
}
330
C
100
AcDbDictionary
281
     1
  0
ACDBDICTIONARYWDFLT
  5
E
102
{ACAD_REACTORS
330
C
102
}
330
C
100
AcDbDictionary
281
     1
  3
Normal
350
F
100
AcDbDictionaryWithDefault
340
F
  0
DICTIONARY
  5
42
102
{ACAD_REACTORS
330
C
102
}
330
C
100
AcDbDictionary
281
     1
  3
A0
350
43
  3
A1
350
44
  3
A2
350
45
  3
A3
350
46
  3
A4
350
47
  3
A5
350
48
  3
A6
350
49
  3
A7
350
4A
  3
A8
350
4B
  3
A9
350
4C
  3
B0
350
4D
  3
B1
350
4E
  3
B2
350
4F
  3
B3
350
50
  3
B4
350
51
  3
B5
350
52
  3
B6
350
53
  0
DICTIONARY
  5
68
102
{ACAD_REACTORS
330
C
102
}
330
C
100
AcDbDictionary
281
     1
  3
Imperial24
350
69
  0
DICTIONARY
  5
64
102
{ACAD_REACTORS
330
C
102
}
330
C
100
AcDbDictionary
281
     1
  3
Standard
350
65
  0
DICTIONARY
  5
29
102
{ACAD_REACTORS
330
C
102
}
330
C
100
AcDbDictionary
281
     1
  3
2dWireframe
350
2F
  3
Basic
350
2E
  3
Brighten
350
35
  3
ColorChange
350
39
  3
Conceptual
350
32
  3
Dim
350
34
  3
EdgeColorOff
350
41
  3
Facepattern
350
38
  3
Flat
350
2A
  3
FlatWithEdges
350
2B
  3
Gouraud
350
2C
  3
GouraudWithEdges
350
2D
  3
Hidden
350
31
  3
JitterOff
350
3F
  3
Linepattern
350
37
  3
OverhangOff
350
40
  3
Realistic
350
33
  3
Shaded
350
3E
  3
Shaded with edges
350
3D
  3
Shades of Gray
350
3A
  3
Sketchy
350
3B
  3
Thicken
350
36
  3
Wireframe
350
30
  3
X-Ray
350
3C
  0
XRECORD
  5
2A0
102
{ACAD_REACTORS
330
C
102
}
330
C
100
AcDbXrecord
280
     1
 90
        1
330
65
  0
DICTIONARY
  5
23C
102
{ACAD_REACTORS
330
C
102
}
330
C
100
AcDbDictionary
281
     1
  3
CANNOSCALE
350
241
  3
CMLEADERSTYLE
350
23E
  3
CTABLESTYLE
350
23D
  3
CVIEWDETAILSTYLE
350
23F
  3
CVIEWSECTIONSTYLE
350
240
  0
SORTENTSTABLE
  5
248
102
{ACAD_REACTORS
330
247
102
}
330
247
100
AcDbSortentsTable
330
70
331
1A0
  5
1CD
331
1A1
  5
1CF
331
1A2
  5
1D2
331
1A3
  5
1D4
331
1A4
  5
1D9
331
1A6
  5
1DA
331
1A9
  5
1DD
331
1AB
  5
1DE
331
1AC
  5
1E0
331
1AE
  5
1E1
331
1AF
  5
1E3
331
1B0
  5
1E4
331
1B4
  5
1E5
331
1B5
  5
1E8
331
1B6
  5
1E9
331
1B7
  5
1EA
331
1B9
  5
1EB
331
1BD
  5
1EE
331
1BE
  5
1F1
331
1BF
  5
1F2
331
1C1
  5
1F4
331
1C6
  5
1F5
331
1CA
  5
1F6
331
1CB
  5
1F7
331
1CC
  5
1F8
331
1CD
  5
1FA
331
1CF
  5
1FB
331
1D2
  5
1FC
331
1D4
  5
1FD
331
1D9
  5
1FE
331
1DA
  5
201
331
1DD
  5
202
331
1DE
  5
203
331
1E0
  5
24B
331
1E1
  5
24C
331
1E3
  5
24D
331
1E4
  5
24E
331
1E5
  5
24F
331
1E8
  5
250
331
1E9
  5
251
331
1EA
  5
252
331
1EB
  5
253
331
1EE
  5
254
331
1F1
  5
255
331
1F2
  5
256
331
1F4
  5
257
331
1F5
  5
258
331
1F6
  5
259
331
1F7
  5
25A
331
1F8
  5
25B
331
1FA
  5
25C
331
1FB
  5
25D
331
1FC
  5
25E
331
1FD
  5
25F
331
1FE
  5
260
331
201
  5
261
331
202
  5
262
331
203
  5
263
331
249
  5
1A0
331
24A
  5
1A1
331
24B
  5
1A2
331
24C
  5
1A3
331
262
  5
249
331
263
  5
24A
  0
ACDBDETAILVIEWSTYLE
  5
6B
102
{ACAD_REACTORS
330
6A
102
}
330
6A
100
AcDbModelDocViewStyle
 70
     0
  3
Imperial24
290
     0
300
Imperial24
 90
        0
100
AcDbDetailViewStyle
 70
     0
 71
     0
 90
        3
 71
     1
340
55
 62
   256
 40
0.24
340
0
 62
   256
 40
0.24
300

 40
0.36
280
     3
 71
     2
340
5D
 90
       25
 62
   256
 71
     3
340
55
 62
   256
 40
0.24
 90
        1
 40
0.75
 90
        1
300
%<\AcVar ViewType \f "%tc1">% %<\AcVar ViewDetailId>%\PSCALE %<\AcVar ViewScale \f "%sn">%
 71
     4
340
5D
 90
       25
 62
   256
340
5D
 90
       25
 62
   256
280
     0
  0
LAYOUT
  5
6F
102
{ACAD_REACTORS
330
62
102
}
330
62
100
AcDbPlotSettings
  1

  2

  4

  6

 40
0.0
 41
0.0
 42
0.0
 43
0.0
 44
0.0
 45
0.0
 46
0.0
 47
0.0
 48
0.0
 49
0.0
140
0.0
141
0.0
142
1.0
143
1.0
 70
   688
 72
     0
 73
     0
 74
     5
  7

 75
    16
147
1.0
 76
     0
 77
     2
 78
   300
148
0.0
149
0.0
100
AcDbLayout
  1
Layout1
 70
     1
 71
     1
 10
0.0
 20
0.0
 11
12.0
 21
9.0
 12
0.0
 22
0.0
 32
0.0
 14
1.000000000000000E+20
 24
1.000000000000000E+20
 34
1.000000000000000E+20
 15
-1.000000000000000E+20
 25
-1.000000000000000E+20
 35
-1.000000000000000E+20
146
0.0
 13
0.0
 23
0.0
 33
0.0
 16
1.0
 26
0.0
 36
0.0
 17
0.0
 27
1.0
 37
0.0
 76
     0
330
6C
  0
LAYOUT
  5
77
102
{ACAD_REACTORS
330
62
102
}
330
62
100
AcDbPlotSettings
  1

  2

  4

  6

 40
0.0
 41
0.0
 42
0.0
 43
0.0
 44
0.0
 45
0.0
 46
0.0
 47
0.0
 48
0.0
 49
0.0
140
0.0
141
0.0
142
1.0
143
1.0
 70
   688
 72
     0
 73
     0
 74
     5
  7

 75
    16
147
1.0
 76
     0
 77
     2
 78
   300
148
0.0
149
0.0
100
AcDbLayout
  1
Layout2
 70
     1
 71
     2
 10
0.0
 20
0.0
 11
12.0
 21
9.0
 12
0.0
 22
0.0
 32
0.0
 14
0.0
 24
0.0
 34
0.0
 15
0.0
 25
0.0
 35
0.0
146
0.0
 13
0.0
 23
0.0
 33
0.0
 16
1.0
 26
0.0
 36
0.0
 17
0.0
 27
1.0
 37
0.0
 76
     0
330
74
  0
LAYOUT
  5
73
102
{ACAD_REACTORS
330
62
102
}
330
62
100
AcDbPlotSettings
  1

  2

  4

  6

 40
0.0
 41
0.0
 42
0.0
 43
0.0
 44
0.0
 45
0.0
 46
0.0
 47
0.0
 48
0.0
 49
0.0
140
0.0
141
0.0
142
1.0
143
1.0
 70
  1712
 72
     0
 73
     0
 74
     0
  7

 75
     0
147
1.0
 76
     0
 77
     2
 78
   300
148
0.0
149
0.0
100
AcDbLayout
  1
Model
 70
     1
 71
     0
 10
0.0
 20
0.0
 11
12.0
 21
9.0
 12
0.0
 22
0.0
 32
0.0
 14
0.0
 24
0.0
 34
0.0
 15
0.0
 25
0.0
 35
0.0
146
0.0
 13
0.0
 23
0.0
 33
0.0
 16
1.0
 26
0.0
 36
0.0
 17
0.0
 27
1.0
 37
0.0
 76
     0
330
70
331
57
  0
MATERIAL
  5
19
102
{ACAD_XDICTIONARY
360
1A
102
}
102
{ACAD_REACTORS
330
10
102
}
330
10
100
AcDbMaterial
  1
ByBlock
 72
     0
 43
0.0208333333333333
 43
0.0
 43
0.0
 43
0.0
 43
0.0
 43
0.0208333333333333
 43
0.0
 43
0.0
 43
0.0
 43
0.0
 43
1.0
 43
0.0
 43
0.0
 43
0.0
 43
0.0
 43
1.0
 77
     0
 47
0.0208333333333333
 47
0.0
 47
0.0
 47
0.0
 47
0.0
 47
0.0208333333333333
 47
0.0
 47
0.0
 47
0.0
 47
0.0
 47
1.0
 47
0.0
 47
0.0
 47
0.0
 47
0.0
 47
1.0
171
     0
 49
0.0208333333333333
 49
0.0
 49
0.0
 49
0.0
 49
0.0
 49
0.0208333333333333
 49
0.0
 49
0.0
 49
0.0
 49
0.0
 49
1.0
 49
0.0
 49
0.0
 49
0.0
 49
0.0
 49
1.0
175
     0
142
0.0208333333333333
142
0.0
142
0.0
142
0.0
142
0.0
142
0.0208333333333333
142
0.0
142
0.0
142
0.0
142
0.0
142
1.0
142
0.0
142
0.0
142
0.0
142
0.0
142
1.0
179
     0
144
0.0208333333333333
144
0.0
144
0.0
144
0.0
144
0.0
144
0.0208333333333333
144
0.0
144
0.0
144
0.0
144
0.0
144
1.0
144
0.0
144
0.0
144
0.0
144
0.0
144
1.0
147
0.0208333333333333
147
0.0
147
0.0
147
0.0
147
0.0
147
0.0208333333333333
147
0.0
147
0.0
147
0.0
147
0.0
147
1.0
147
0.0
147
0.0
147
0.0
147
0.0
147
1.0
  0
MATERIAL
  5
11
102
{ACAD_XDICTIONARY
360
12
102
}
102
{ACAD_REACTORS
330
10
102
}
330
10
100
AcDbMaterial
  1
ByLayer
 72
     0
 43
0.0208333333333333
 43
0.0
 43
0.0
 43
0.0
 43
0.0
 43
0.0208333333333333
 43
0.0
 43
0.0
 43
0.0
 43
0.0
 43
1.0
 43
0.0
 43
0.0
 43
0.0
 43
0.0
 43
1.0
 77
     0
 47
0.0208333333333333
 47
0.0
 47
0.0
 47
0.0
 47
0.0
 47
0.0208333333333333
 47
0.0
 47
0.0
 47
0.0
 47
0.0
 47
1.0
 47
0.0
 47
0.0
 47
0.0
 47
0.0
 47
1.0
171
     0
 49
0.0208333333333333
 49
0.0
 49
0.0
 49
0.0
 49
0.0
 49
0.0208333333333333
 49
0.0
 49
0.0
 49
0.0
 49
0.0
 49
1.0
 49
0.0
 49
0.0
 49
0.0
 49
0.0
 49
1.0
175
     0
142
0.0208333333333333
142
0.0
142
0.0
142
0.0
142
0.0
142
0.0208333333333333
142
0.0
142
0.0
142
0.0
142
0.0
142
1.0
142
0.0
142
0.0
142
0.0
142
0.0
142
1.0
179
     0
144
0.0208333333333333
144
0.0
144
0.0
144
0.0
144
0.0
144
0.0208333333333333
144
0.0
144
0.0
144
0.0
144
0.0
144
1.0
144
0.0
144
0.0
144
0.0
144
0.0
144
1.0
147
0.0208333333333333
147
0.0
147
0.0
147
0.0
147
0.0
147
0.0208333333333333
147
0.0
147
0.0
147
0.0
147
0.0
147
1.0
147
0.0
147
0.0
147
0.0
147
0.0
147
1.0
  0
MATERIAL
  5
21
102
{ACAD_XDICTIONARY
360
22
102
}
102
{ACAD_REACTORS
330
10
102
}
330
10
100
AcDbMaterial
  1
Global
 72
     0
 43
0.0208333333333333
 43
0.0
 43
0.0
 43
0.0
 43
0.0
 43
0.0208333333333333
 43
0.0
 43
0.0
 43
0.0
 43
0.0
 43
1.0
 43
0.0
 43
0.0
 43
0.0
 43
0.0
 43
1.0
 77
     0
 47
0.0208333333333333
 47
0.0
 47
0.0
 47
0.0
 47
0.0
 47
0.0208333333333333
 47
0.0
 47
0.0
 47
0.0
 47
0.0
 47
1.0
 47
0.0
 47
0.0
 47
0.0
 47
0.0
 47
1.0
171
     0
 49
0.0208333333333333
 49
0.0
 49
0.0
 49
0.0
 49
0.0
 49
0.0208333333333333
 49
0.0
 49
0.0
 49
0.0
 49
0.0
 49
1.0
 49
0.0
 49
0.0
 49
0.0
 49
0.0
 49
1.0
175
     0
142
0.0208333333333333
142
0.0
142
0.0
142
0.0
142
0.0
142
0.0208333333333333
142
0.0
142
0.0
142
0.0
142
0.0
142
1.0
142
0.0
142
0.0
142
0.0
142
0.0
142
1.0
179
     0
144
0.0208333333333333
144
0.0
144
0.0
144
0.0
144
0.0
144
0.0208333333333333
144
0.0
144
0.0
144
0.0
144
0.0
144
1.0
144
0.0
144
0.0
144
0.0
144
0.0
144
1.0
147
0.0208333333333333
147
0.0
147
0.0
147
0.0
147
0.0
147
0.0208333333333333
147
0.0
147
0.0
147
0.0
147
0.0
147
1.0
147
0.0
147
0.0
147
0.0
147
0.0
147
1.0
  0
MLEADERSTYLE
  5
67
102
{ACAD_REACTORS
330
66
102
}
330
66
100
AcDbMLeaderStyle
179
     2
170
     2
171
     1
172
     0
 90
        2
 40
0.0
 41
0.0
173
     1
 91
-1056964608
340
5B
 92
       -2
290
     1
 42
0.09
291
     1
 43
0.36
  3
Standard
 44
0.18
300

342
55
174
     1
178
     6
175
     1
176
     0
 93
-1056964608
 45
0.18
292
     0
297
     0
 46
0.18
 94
-1056964608
 47
1.0
 49
1.0
140
1.0
293
     1
141
0.0
294
     1
177
     0
142
1.0
295
     0
296
     0
143
0.125
271
     0
272
     9
273
     9
298
     1
  0
MLINESTYLE
  5
60
102
{ACAD_REACTORS
330
5F
102
}
330
5F
100
AcDbMlineStyle
  2
STANDARD
 70
     0
  3

 62
   256
 51
90.0
 52
90.0
 71
     2
 49
0.5
 62
   256
  6
BYLAYER
 49
-0.5
 62
   256
  6
BYLAYER
  0
ACDBPLACEHOLDER
  5
F
102
{ACAD_REACTORS
330
E
102
}
330
E
  0
SCALE
  5
43
102
{ACAD_REACTORS
330
42
102
}
330
42
100
AcDbScale
 70
     0
300
1:1
140
1.0
141
1.0
290
     1
  0
SCALE
  5
44
102
{ACAD_REACTORS
330
42
102
}
330
42
100
AcDbScale
 70
     0
300
1/128" = 1'-0"
140
0.0078125
141
12.0
290
     0
  0
SCALE
  5
45
102
{ACAD_REACTORS
330
42
102
}
330
42
100
AcDbScale
 70
     0
300
1/64" = 1'-0"
140
0.015625
141
12.0
290
     0
  0
SCALE
  5
46
102
{ACAD_REACTORS
330
42
102
}
330
42
100
AcDbScale
 70
     0
300
1/32" = 1'-0"
140
0.03125
141
12.0
290
     0
  0
SCALE
  5
47
102
{ACAD_REACTORS
330
42
102
}
330
42
100
AcDbScale
 70
     0
300
1/16" = 1'-0"
140
0.0625
141
12.0
290
     0
  0
SCALE
  5
48
102
{ACAD_REACTORS
330
42
102
}
330
42
100
AcDbScale
 70
     0
300
3/32" = 1'-0"
140
0.09375
141
12.0
290
     0
  0
SCALE
  5
49
102
{ACAD_REACTORS
330
42
102
}
330
42
100
AcDbScale
 70
     0
300
1/8" = 1'-0"
140
0.125
141
12.0
290
     0
  0
SCALE
  5
4A
102
{ACAD_REACTORS
330
42
102
}
330
42
100
AcDbScale
 70
     0
300
3/16" = 1'-0"
140
0.1875
141
12.0
290
     0
  0
SCALE
  5
4B
102
{ACAD_REACTORS
330
42
102
}
330
42
100
AcDbScale
 70
     0
300
1/4" = 1'-0"
140
0.25
141
12.0
290
     0
  0
SCALE
  5
4C
102
{ACAD_REACTORS
330
42
102
}
330
42
100
AcDbScale
 70
     0
300
3/8" = 1'-0"
140
0.375
141
12.0
290
     0
  0
SCALE
  5
4D
102
{ACAD_REACTORS
330
42
102
}
330
42
100
AcDbScale
 70
     0
300
1/2" = 1'-0"
140
0.5
141
12.0
290
     0
  0
SCALE
  5
4E
102
{ACAD_REACTORS
330
42
102
}
330
42
100
AcDbScale
 70
     0
300
3/4" = 1'-0"
140
0.75
141
12.0
290
     0
  0
SCALE
  5
4F
102
{ACAD_REACTORS
330
42
102
}
330
42
100
AcDbScale
 70
     0
300
1" = 1'-0"
140
1.0
141
12.0
290
     0
  0
SCALE
  5
50
102
{ACAD_REACTORS
330
42
102
}
330
42
100
AcDbScale
 70
     0
300
1-1/2" = 1'-0"
140
1.5
141
12.0
290
     0
  0
SCALE
  5
51
102
{ACAD_REACTORS
330
42
102
}
330
42
100
AcDbScale
 70
     0
300
3" = 1'-0"
140
3.0
141
12.0
290
     0
  0
SCALE
  5
52
102
{ACAD_REACTORS
330
42
102
}
330
42
100
AcDbScale
 70
     0
300
6" = 1'-0"
140
6.0
141
12.0
290
     0
  0
SCALE
  5
53
102
{ACAD_REACTORS
330
42
102
}
330
42
100
AcDbScale
 70
     0
300
1'-0" = 1'-0"
140
12.0
141
12.0
290
     0
  0
ACDBSECTIONVIEWSTYLE
  5
69
102
{ACAD_REACTORS
330
68
102
}
330
68
100
AcDbModelDocViewStyle
 70
     0
  3
Imperial24
290
     0
300
Imperial24
 90
        0
100
AcDbSectionViewStyle
 70
     0
 71
     0
 90
       78
 71
     1
340
55
 62
   256
 40
0.24
340
0
340
0
 62
   256
 40
0.24
300
I, O, Q, S, X, Z
 40
0.48
 90
        3
 40
0.18
 90
        1
 71
     2
340
5D
 90
       25
 62
   256
340
5D
 90
       50
 62
   256
 40
0.24
 40
0.0
 40
0.24
 71
     3
340
55
 62
   256
 40
0.24
 90
        1
 40
0.75
 90
        1
300
%<\AcVar ViewType \f "%tc1">% %<\AcVar ViewSectionStartId>%-%<\AcVar ViewSectionEndId>%\PSCALE %<\AcVar ViewScale \f "%sn">%
 71
     4
 62
   256
 62
   257
300
ANSI31
 40
1.0
 90
        0
290
     0
290
     0
 90
        6
 40
0.0
 40
1.570796326794896
 40
0.2617993877991494
 40
1.308996938995747
 40
-0.2617993877991494
 40
1.832595714594044
  0
TABLESTYLE
  5
65
102
{ACAD_XDICTIONARY
360
281
102
}
102
{ACAD_REACTORS
330
64
102
}
330
64
100
AcDbTableStyle
280
     0
  3
Standard
 70
     0
 71
     0
 40
0.06
 41
0.06
280
     0
281
     0
  7
Standard
140
0.18
170
     2
 62
     0
 63
     7
283
     0
 90
      512
 91
        0
  1

274
    -2
284
     1
 64
     0
275
    -2
285
     1
 65
     0
276
    -2
286
     1
 66
     0
277
    -2
287
     1
 67
     0
278
    -2
288
     1
 68
     0
279
    -2
289
     1
 69
     0
  7
Standard
140
0.25
170
     5
 62
     0
 63
     7
283
     0
 90
      512
 91
        0
  1

274
    -2
284
     1
 64
     0
275
    -2
285
     1
 65
     0
276
    -2
286
     1
 66
     0
277
    -2
287
     1
 67
     0
278
    -2
288
     1
 68
     0
279
    -2
289
     1
 69
     0
  7
Standard
140
0.18
170
     5
 62
     0
 63
     7
283
     0
 90
      512
 91
        0
  1

274
    -2
284
     1
 64
     0
275
    -2
285
     1
 65
     0
276
    -2
286
     1
 66
     0
277
    -2
287
     1
 67
     0
278
    -2
288
     1
 68
     0
279
    -2
289
     1
 69
     0
  0
VISUALSTYLE
  5
2F
102
{ACAD_REACTORS
330
29
102
}
330
29
100
AcDbVisualStyle
  2
2dWireframe
 70
     4
177
     3
291
     0
 70
    58
 90
        0
176
     1
 90
        2
176
     1
 90
        0
176
     1
 90
        0
176
     1
 40
0.6
176
     1
 40
30.0
176
     1
 62
     7
420
 16777215
176
     1
 90
        1
176
     1
 90
        4
176
     1
 62
     7
176
     1
 62
   257
176
     1
 90
        1
176
     1
 90
        1
176
     1
 40
1.0
176
     1
 90
        0
176
     1
 62
   257
176
     1
 40
1.0
176
     1
 90
        1
176
     1
 90
        6
176
     1
 90
        2
176
     1
 62
     7
176
     1
 90
        5
176
     1
 90
        0
176
     1
 90
        0
176
     1
290
     0
176
     1
 90
        1
176
     1
 40
0.0
176
     1
 90
        0
176
     1
290
     1
176
     1
290
     1
176
     1
290
     0
176
     1
290
     0
176
     1
290
     0
176
     1
290
     0
176
     1
290
     0
176
     1
290
     0
176
     1
290
     0
176
     1
 90
       50
176
     1
 40
0.0
176
     1
 40
1.0
176
     1
 90
        0
176
     1
 62
    18
176
     1
 90
       50
176
     1
 90
        3
176
     1
 62
     5
420
      255
176
     1
290
     0
176
     1
 90
       50
176
     1
 90
       50
176
     1
 90
       50
176
     1
290
     0
176
     1
 90
       50
176
     1
 62
   256
176
     0
 40
1.0
176
     0
 90
        2
176
     1
  1
strokes_ogs.tif
176
     1
290
     0
176
     1
 40
1.0
176
     1
 40
1.0
176
     1
1001
ACAD
1000
AcDbSavedByObjectVersion
1070
     0
  0
VISUALSTYLE
  5
2E
102
{ACAD_REACTORS
330
29
102
}
330
29
100
AcDbVisualStyle
  2
Basic
 70
     7
177
     3
291
     1
 70
    58
 90
        1
176
     1
 90
        0
176
     1
 90
        1
176
     1
 90
        0
176
     1
 40
0.6
176
     1
 40
30.0
176
     1
 62
     7
420
 16777215
176
     1
 90
        0
176
     1
 90
        4
176
     1
 62
     7
176
     1
 62
   257
176
     1
 90
        1
176
     1
 90
        1
176
     1
 40
1.0
176
     1
 90
        8
176
     1
 62
     7
176
     1
 40
1.0
176
     1
 90
        1
176
     1
 90
        6
176
     1
 90
        2
176
     1
 62
     7
176
     1
 90
        5
176
     1
 90
        0
176
     1
 90
        0
176
     1
290
     0
176
     1
 90
        1
176
     1
 40
0.0
176
     1
 90
        0
176
     1
290
     0
176
     1
290
     1
176
     1
290
     1
176
     1
290
     0
176
     1
290
     0
176
     1
290
     0
176
     1
290
     0
176
     1
290
     0
176
     1
290
     0
176
     1
 90
       50
176
     1
 40
0.0
176
     1
 40
1.0
176
     1
 90
        0
176
     1
 62
    18
176
     1
 90
       50
176
     1
 90
        3
176
     1
 62
     5
420
      255
176
     1
290
     0
176
     1
 90
       50
176
     1
 90
       50
176
     1
 90
       50
176
     1
290
     0
176
     1
 90
       50
176
     1
 62
   256
176
     0
 40
1.0
176
     0
 90
        2
176
     1
  1
strokes_ogs.tif
176
     1
290
     0
176
     1
 40
1.0
176
     1
 40
1.0
176
     1
1001
ACAD
1000
AcDbSavedByObjectVersion
1070
     0
  0
VISUALSTYLE
  5
35
102
{ACAD_REACTORS
330
29
102
}
330
29
100
AcDbVisualStyle
  2
Brighten
 70
    12
177
     3
291
     1
 70
    58
 90
        2
176
     1
 90
        2
176
     1
 90
        0
176
     1
 90
        0
176
     1
 40
0.6
176
     1
 40
30.0
176
     1
 62
     7
420
 16777215
176
     1
 90
        1
176
     1
 90
        4
176
     1
 62
     7
176
     1
 62
   257
176
     1
 90
        1
176
     1
 90
        1
176
     1
 40
1.0
176
     1
 90
        8
176
     1
 62
     7
176
     1
 40
1.0
176
     1
 90
        1
176
     1
 90
        6
176
     1
 90
        2
176
     1
 62
     7
176
     1
 90
        5
176
     1
 90
        0
176
     1
 90
        0
176
     1
290
     0
176
     1
 90
        1
176
     1
 40
50.0
176
     1
 90
        0
176
     1
290
     0
176
     1
290
     1
176
     1
290
     1
176
     1
290
     0
176
     1
290
     0
176
     1
290
     0
176
     1
290
     0
176
     1
290
     0
176
     1
290
     0
176
     1
 90
       50
176
     1
 40
0.0
176
     1
 40
1.0
176
     1
 90
        0
176
     1
 62
    18
176
     1
 90
       50
176
     1
 90
        3
176
     1
 62
     5
420
      255
176
     1
290
     0
176
     1
 90
       50
176
     1
 90
       50
176
     1
 90
       50
176
     1
290
     0
176
     1
 90
       50
176
     1
 62
   256
176
     0
 40
1.0
176
     0
 90
        2
176
     1
  1
strokes_ogs.tif
176
     1
290
     0
176
     1
 40
1.0
176
     1
 40
1.0
176
     1
1001
ACAD
1000
AcDbSavedByObjectVersion
1070
     0
  0
VISUALSTYLE
  5
39
102
{ACAD_REACTORS
330
29
102
}
330
29
100
AcDbVisualStyle
  2
ColorChange
 70
    16
177
     3
291
     1
 70
    58
 90
        2
176
     1
 90
        2
176
     1
 90
        3
176
     1
 90
        0
176
     1
 40
0.6
176
     1
 40
30.0
176
     1
 62
     8
420
  8421504
176
     1
 90
        1
176
     1
 90
        4
176
     1
 62
     7
176
     1
 62
   257
176
     1
 90
        1
176
     1
 90
        1
176
     1
 40
1.0
176
     1
 90
        8
176
     1
 62
     8
420
  8421504
176
     1
 40
1.0
176
     1
 90
        1
176
     1
 90
        6
176
     1
 90
        2
176
     1
 62
     7
176
     1
 90
        5
176
     1
 90
        0
176
     1
 90
        0
176
     1
290
     0
176
     1
 90
        1
176
     1
 40
0.0
176
     1
 90
        0
176
     1
290
     0
176
     1
290
     1
176
     1
290
     1
176
     1
290
     0
176
     1
290
     0
176
     1
290
     0
176
     1
290
     0
176
     1
290
     0
176
     1
290
     0
176
     1
 90
       50
176
     1
 40
0.0
176
     1
 40
1.0
176
     1
 90
        0
176
     1
 62
    18
176
     1
 90
       50
176
     1
 90
        3
176
     1
 62
     5
420
      255
176
     1
290
     0
176
     1
 90
       50
176
     1
 90
       50
176
     1
 90
       50
176
     1
290
     0
176
     1
 90
       50
176
     1
 62
   256
176
     0
 40
1.0
176
     0
 90
        2
176
     1
  1
strokes_ogs.tif
176
     1
290
     0
176
     1
 40
1.0
176
     1
 40
1.0
176
     1
1001
ACAD
1000
AcDbSavedByObjectVersion
1070
     0
  0
VISUALSTYLE
  5
32
102
{ACAD_REACTORS
330
29
102
}
330
29
100
AcDbVisualStyle
  2
Conceptual
 70
     9
177
     3
291
     0
 70
    58
 90
        3
176
     1
 90
        2
176
     1
 90
        0
176
     1
 90
        0
176
     1
 40
0.6
176
     1
 40
30.0
176
     1
 62
     7
420
 16777215
176
     1
 90
        2
176
     1
 90
        2
176
     1
 62
     7
176
     1
 62
   257
176
     1
 90
        1
176
     1
 90
        1
176
     1
 40
179.0
176
     1
 90
        8
176
     1
 62
     7
176
     1
 40
1.0
176
     1
 90
        1
176
     1
 90
        6
176
     1
 90
        2
176
     1
 62
     7
176
     1
 90
        3
176
     1
 90
        0
176
     1
 90
        0
176
     1
290
     0
176
     1
 90
        1
176
     1
 40
0.0
176
     1
 90
        0
176
     1
290
     0
176
     1
290
     1
176
     1
290
     1
176
     1
290
     0
176
     1
290
     0
176
     1
290
     0
176
     1
290
     0
176
     1
290
     0
176
     1
290
     0
176
     1
 90
       50
176
     1
 40
0.0
176
     1
 40
1.0
176
     1
 90
        0
176
     1
 62
    18
176
     1
 90
       50
176
     1
 90
        3
176
     1
 62
     5
420
      255
176
     1
290
     0
176
     1
 90
       50
176
     1
 90
       50
176
     1
 90
       50
176
     1
290
     0
176
     1
 90
       50
176
     1
 62
   256
176
     0
 40
1.0
176
     0
 90
        2
176
     1
  1
strokes_ogs.tif
176
     1
290
     0
176
     1
 40
1.0
176
     1
 40
1.0
176
     1
1001
ACAD
1000
AcDbSavedByObjectVersion
1070
     0
  0
VISUALSTYLE
  5
34
102
{ACAD_REACTORS
330
29
102
}
330
29
100
AcDbVisualStyle
  2
Dim
 70
    11
177
     3
291
     1
 70
    58
 90
        2
176
     1
 90
        2
176
     1
 90
        0
176
     1
 90
        0
176
     1
 40
0.6
176
     1
 40
30.0
176
     1
 62
     7
420
 16777215
176
     1
 90
        1
176
     1
 90
        4
176
     1
 62
     7
176
     1
 62
   257
176
     1
 90
        1
176
     1
 90
        1
176
     1
 40
1.0
176
     1
 90
        8
176
     1
 62
     7
176
     1
 40
1.0
176
     1
 90
        1
176
     1
 90
        6
176
     1
 90
        2
176
     1
 62
     7
176
     1
 90
        5
176
     1
 90
        0
176
     1
 90
        0
176
     1
290
     0
176
     1
 90
        1
176
     1
 40
-50.0
176
     1
 90
        0
176
     1
290
     0
176
     1
290
     1
176
     1
290
     1
176
     1
290
     0
176
     1
290
     0
176
     1
290
     0
176
     1
290
     0
176
     1
290
     0
176
     1
290
     0
176
     1
 90
       50
176
     1
 40
0.0
176
     1
 40
1.0
176
     1
 90
        0
176
     1
 62
    18
176
     1
 90
       50
176
     1
 90
        3
176
     1
 62
     5
420
      255
176
     1
290
     0
176
     1
 90
       50
176
     1
 90
       50
176
     1
 90
       50
176
     1
290
     0
176
     1
 90
       50
176
     1
 62
   256
176
     0
 40
1.0
176
     0
 90
        2
176
     1
  1
strokes_ogs.tif
176
     1
290
     0
176
     1
 40
1.0
176
     1
 40
1.0
176
     1
1001
ACAD
1000
AcDbSavedByObjectVersion
1070
     0
  0
VISUALSTYLE
  5
41
102
{ACAD_REACTORS
330
29
102
}
330
29
100
AcDbVisualStyle
  2
EdgeColorOff
 70
    22
177
     3
291
     1
 70
    58
 90
        2
176
     0
 90
        2
176
     0
 90
        0
176
     0
 90
        0
176
     0
 40
0.6
176
     0
 40
30.0
176
     0
 62
     7
420
 16777215
176
     0
 90
        1
176
     0
 90
        4
176
     0
 62
     7
176
     0
 62
   257
176
     0
 90
        1
176
     0
 90
        1
176
     0
 40
1.0
176
     0
 90
        8
176
     2
 62
     7
176
     0
 40
1.0
176
     0
 90
        1
176
     0
 90
        6
176
     0
 90
        2
176
     0
 62
     7
176
     0
 90
        5
176
     0
 90
        0
176
     0
 90
        0
176
     0
290
     0
176
     0
 90
        1
176
     0
 40
0.0
176
     0
 90
        0
176
     0
290
     0
176
     0
290
     1
176
     0
290
     1
176
     0
290
     0
176
     0
290
     0
176
     0
290
     0
176
     0
290
     0
176
     0
290
     0
176
     0
290
     0
176
     0
 90
       50
176
     0
 40
0.0
176
     0
 40
1.0
176
     0
 90
        0
176
     0
 62
    18
176
     0
 90
       50
176
     0
 90
        3
176
     0
 62
     5
420
      255
176
     0
290
     0
176
     0
 90
       50
176
     0
 90
       50
176
     0
 90
       50
176
     0
290
     0
176
     0
 90
       50
176
     0
 62
   256
176
     0
 40
1.0
176
     0
 90
        2
176
     0
  1
strokes_ogs.tif
176
     0
290
     0
176
     0
 40
1.0
176
     0
 40
1.0
176
     0
1001
ACAD
1000
AcDbSavedByObjectVersion
1070
     0
  0
VISUALSTYLE
  5
38
102
{ACAD_REACTORS
330
29
102
}
330
29
100
AcDbVisualStyle
  2
Facepattern
 70
    15
177
     3
291
     1
 70
    58
 90
        2
176
     1
 90
        2
176
     1
 90
        0
176
     1
 90
        0
176
     1
 40
0.6
176
     1
 40
30.0
176
     1
 62
     7
420
 16777215
176
     1
 90
        1
176
     1
 90
        4
176
     1
 62
     7
176
     1
 62
   257
176
     1
 90
        1
176
     1
 90
        1
176
     1
 40
1.0
176
     1
 90
        8
176
     1
 62
     7
176
     1
 40
1.0
176
     1
 90
        1
176
     1
 90
        6
176
     1
 90
        2
176
     1
 62
     7
176
     1
 90
        5
176
     1
 90
        0
176
     1
 90
        0
176
     1
290
     0
176
     1
 90
        1
176
     1
 40
0.0
176
     1
 90
        0
176
     1
290
     0
176
     1
290
     1
176
     1
290
     1
176
     1
290
     0
176
     1
290
     0
176
     1
290
     0
176
     1
290
     0
176
     1
290
     0
176
     1
290
     0
176
     1
 90
       50
176
     1
 40
0.0
176
     1
 40
1.0
176
     1
 90
        0
176
     1
 62
    18
176
     1
 90
       50
176
     1
 90
        3
176
     1
 62
     5
420
      255
176
     1
290
     0
176
     1
 90
       50
176
     1
 90
       50
176
     1
 90
       50
176
     1
290
     0
176
     1
 90
       50
176
     1
 62
   256
176
     0
 40
1.0
176
     0
 90
        2
176
     1
  1
strokes_ogs.tif
176
     1
290
     0
176
     1
 40
1.0
176
     1
 40
1.0
176
     1
1001
ACAD
1000
AcDbSavedByObjectVersion
1070
     0
  0
VISUALSTYLE
  5
2A
102
{ACAD_REACTORS
330
29
102
}
330
29
100
AcDbVisualStyle
  2
Flat
 70
     0
177
     3
291
     1
 70
    58
 90
        2
176
     1
 90
        1
176
     1
 90
        1
176
     1
 90
        2
176
     1
 40
0.6
176
     1
 40
30.0
176
     1
 62
     7
420
 16777215
176
     1
 90
        0
176
     1
 90
        0
176
     1
 62
     7
176
     1
 62
   257
176
     1
 90
        1
176
     1
 90
        1
176
     1
 40
1.0
176
     1
 90
        8
176
     1
 62
     7
176
     1
 40
1.0
176
     1
 90
        1
176
     1
 90
        6
176
     1
 90
        2
176
     1
 62
     7
176
     1
 90
        5
176
     1
 90
        0
176
     1
 90
        0
176
     1
290
     0
176
     1
 90
       13
176
     1
 40
0.0
176
     1
 90
        0
176
     1
290
     0
176
     1
290
     1
176
     1
290
     1
176
     1
290
     0
176
     1
290
     0
176
     1
290
     0
176
     1
290
     0
176
     1
290
     0
176
     1
290
     0
176
     1
 90
       50
176
     1
 40
0.0
176
     1
 40
1.0
176
     1
 90
        0
176
     1
 62
    18
176
     1
 90
       50
176
     1
 90
        3
176
     1
 62
     5
420
      255
176
     1
290
     0
176
     1
 90
       50
176
     1
 90
       50
176
     1
 90
       50
176
     1
290
     0
176
     1
 90
       50
176
     1
 62
   256
176
     0
 40
1.0
176
     0
 90
        2
176
     1
  1
strokes_ogs.tif
176
     1
290
     0
176
     1
 40
1.0
176
     1
 40
1.0
176
     1
1001
ACAD
1000
AcDbSavedByObjectVersion
1070
     0
  0
VISUALSTYLE
  5
2B
102
{ACAD_REACTORS
330
29
102
}
330
29
100
AcDbVisualStyle
  2
FlatWithEdges
 70
     1
177
     3
291
     1
 70
    58
 90
        2
176
     1
 90
        1
176
     1
 90
        1
176
     1
 90
        2
176
     1
 40
0.6
176
     1
 40
30.0
176
     1
 62
     7
420
 16777215
176
     1
 90
        1
176
     1
 90
        0
176
     1
 62
     7
176
     1
 62
   257
176
     1
 90
        1
176
     1
 90
        1
176
     1
 40
1.0
176
     1
 90
        0
176
     1
 62
   257
176
     1
 40
1.0
176
     1
 90
        1
176
     1
 90
        6
176
     1
 90
        2
176
     1
 62
     7
176
     1
 90
        5
176
     1
 90
        0
176
     1
 90
        0
176
     1
290
     0
176
     1
 90
       13
176
     1
 40
0.0
176
     1
 90
        0
176
     1
290
     0
176
     1
290
     1
176
     1
290
     1
176
     1
290
     0
176
     1
290
     0
176
     1
290
     0
176
     1
290
     0
176
     1
290
     0
176
     1
290
     0
176
     1
 90
       50
176
     1
 40
0.0
176
     1
 40
1.0
176
     1
 90
        0
176
     1
 62
    18
176
     1
 90
       50
176
     1
 90
        3
176
     1
 62
     5
420
      255
176
     1
290
     0
176
     1
 90
       50
176
     1
 90
       50
176
     1
 90
       50
176
     1
290
     0
176
     1
 90
       50
176
     1
 62
   256
176
     0
 40
1.0
176
     0
 90
        2
176
     1
  1
strokes_ogs.tif
176
     1
290
     0
176
     1
 40
1.0
176
     1
 40
1.0
176
     1
1001
ACAD
1000
AcDbSavedByObjectVersion
1070
     0
  0
VISUALSTYLE
  5
2C
102
{ACAD_REACTORS
330
29
102
}
330
29
100
AcDbVisualStyle
  2
Gouraud
 70
     2
177
     3
291
     1
 70
    58
 90
        2
176
     1
 90
        2
176
     1
 90
        1
176
     1
 90
        2
176
     1
 40
0.6
176
     1
 40
30.0
176
     1
 62
     7
420
 16777215
176
     1
 90
        0
176
     1
 90
        0
176
     1
 62
     7
176
     1
 62
   257
176
     1
 90
        1
176
     1
 90
        1
176
     1
 40
1.0
176
     1
 90
        0
176
     1
 62
     7
176
     1
 40
1.0
176
     1
 90
        1
176
     1
 90
        6
176
     1
 90
        2
176
     1
 62
     7
176
     1
 90
        5
176
     1
 90
        0
176
     1
 90
        0
176
     1
290
     0
176
     1
 90
       13
176
     1
 40
0.0
176
     1
 90
        0
176
     1
290
     0
176
     1
290
     1
176
     1
290
     1
176
     1
290
     0
176
     1
290
     0
176
     1
290
     0
176
     1
290
     0
176
     1
290
     0
176
     1
290
     0
176
     1
 90
       50
176
     1
 40
0.0
176
     1
 40
1.0
176
     1
 90
        0
176
     1
 62
    18
176
     1
 90
       50
176
     1
 90
        3
176
     1
 62
     5
420
      255
176
     1
290
     0
176
     1
 90
       50
176
     1
 90
       50
176
     1
 90
       50
176
     1
290
     0
176
     1
 90
       50
176
     1
 62
   256
176
     0
 40
1.0
176
     0
 90
        2
176
     1
  1
strokes_ogs.tif
176
     1
290
     0
176
     1
 40
1.0
176
     1
 40
1.0
176
     1
1001
ACAD
1000
AcDbSavedByObjectVersion
1070
     0
  0
VISUALSTYLE
  5
2D
102
{ACAD_REACTORS
330
29
102
}
330
29
100
AcDbVisualStyle
  2
GouraudWithEdges
 70
     3
177
     3
291
     1
 70
    58
 90
        2
176
     1
 90
        2
176
     1
 90
        1
176
     1
 90
        2
176
     1
 40
0.6
176
     1
 40
30.0
176
     1
 62
     7
420
 16777215
176
     1
 90
        1
176
     1
 90
        0
176
     1
 62
     7
176
     1
 62
   257
176
     1
 90
        1
176
     1
 90
        1
176
     1
 40
1.0
176
     1
 90
        0
176
     1
 62
   257
176
     1
 40
1.0
176
     1
 90
        1
176
     1
 90
        6
176
     1
 90
        2
176
     1
 62
     7
176
     1
 90
        5
176
     1
 90
        0
176
     1
 90
        0
176
     1
290
     0
176
     1
 90
       13
176
     1
 40
0.0
176
     1
 90
        0
176
     1
290
     0
176
     1
290
     1
176
     1
290
     1
176
     1
290
     0
176
     1
290
     0
176
     1
290
     0
176
     1
290
     0
176
     1
290
     0
176
     1
290
     0
176
     1
 90
       50
176
     1
 40
0.0
176
     1
 40
1.0
176
     1
 90
        0
176
     1
 62
    18
176
     1
 90
       50
176
     1
 90
        3
176
     1
 62
     5
420
      255
176
     1
290
     0
176
     1
 90
       50
176
     1
 90
       50
176
     1
 90
       50
176
     1
290
     0
176
     1
 90
       50
176
     1
 62
   256
176
     0
 40
1.0
176
     0
 90
        2
176
     1
  1
strokes_ogs.tif
176
     1
290
     0
176
     1
 40
1.0
176
     1
 40
1.0
176
     1
1001
ACAD
1000
AcDbSavedByObjectVersion
1070
     0
  0
VISUALSTYLE
  5
31
102
{ACAD_REACTORS
330
29
102
}
330
29
100
AcDbVisualStyle
  2
Hidden
 70
     6
177
     3
291
     0
 70
    58
 90
        1
176
     1
 90
        2
176
     1
 90
        2
176
     1
 90
        0
176
     1
 40
0.6
176
     1
 40
30.0
176
     1
 62
     7
420
 16777215
176
     1
 90
        2
176
     1
 90
        2
176
     1
 62
     7
176
     1
 62
   257
176
     1
 90
        2
176
     1
 90
        1
176
     1
 40
40.0
176
     1
 90
        0
176
     1
 62
   257
176
     1
 40
1.0
176
     1
 90
        1
176
     1
 90
        6
176
     1
 90
        2
176
     1
 62
     7
176
     1
 90
        3
176
     1
 90
        0
176
     1
 90
        0
176
     1
290
     0
176
     1
 90
        1
176
     1
 40
0.0
176
     1
 90
        0
176
     1
290
     0
176
     1
290
     1
176
     1
290
     1
176
     1
290
     0
176
     1
290
     0
176
     1
290
     0
176
     1
290
     0
176
     1
290
     0
176
     1
290
     0
176
     1
 90
       50
176
     1
 40
0.0
176
     1
 40
1.0
176
     1
 90
        0
176
     1
 62
    18
176
     1
 90
       50
176
     1
 90
        3
176
     1
 62
     5
420
      255
176
     1
290
     0
176
     1
 90
       50
176
     1
 90
       50
176
     1
 90
       50
176
     1
290
     0
176
     1
 90
       50
176
     1
 62
   256
176
     0
 40
1.0
176
     0
 90
        2
176
     1
  1
strokes_ogs.tif
176
     1
290
     0
176
     1
 40
1.0
176
     1
 40
1.0
176
     1
1001
ACAD
1000
AcDbSavedByObjectVersion
1070
     0
  0
VISUALSTYLE
  5
3F
102
{ACAD_REACTORS
330
29
102
}
330
29
100
AcDbVisualStyle
  2
JitterOff
 70
    20
177
     3
291
     1
 70
    58
 90
        2
176
     0
 90
        2
176
     0
 90
        0
176
     0
 90
        0
176
     0
 40
0.6
176
     0
 40
30.0
176
     0
 62
     7
420
 16777215
176
     0
 90
        1
176
     0
 90
        4
176
     0
 62
     7
176
     0
 62
   257
176
     0
 90
        1
176
     0
 90
        1
176
     0
 40
1.0
176
     0
 90
       10
176
     2
 62
     7
176
     0
 40
1.0
176
     0
 90
        1
176
     0
 90
        6
176
     0
 90
        2
176
     0
 62
     7
176
     0
 90
        5
176
     0
 90
        0
176
     0
 90
        0
176
     0
290
     0
176
     0
 90
        1
176
     0
 40
0.0
176
     0
 90
        0
176
     0
290
     0
176
     0
290
     1
176
     0
290
     1
176
     0
290
     0
176
     0
290
     0
176
     0
290
     0
176
     0
290
     0
176
     0
290
     0
176
     0
290
     0
176
     0
 90
       50
176
     0
 40
0.0
176
     0
 40
1.0
176
     0
 90
        0
176
     0
 62
    18
176
     0
 90
       50
176
     0
 90
        3
176
     0
 62
     5
420
      255
176
     0
290
     0
176
     0
 90
       50
176
     0
 90
       50
176
     0
 90
       50
176
     0
290
     0
176
     0
 90
       50
176
     0
 62
   256
176
     0
 40
1.0
176
     0
 90
        2
176
     0
  1
strokes_ogs.tif
176
     0
290
     0
176
     0
 40
1.0
176
     0
 40
1.0
176
     0
1001
ACAD
1000
AcDbSavedByObjectVersion
1070
     0
  0
VISUALSTYLE
  5
37
102
{ACAD_REACTORS
330
29
102
}
330
29
100
AcDbVisualStyle
  2
Linepattern
 70
    14
177
     3
291
     1
 70
    58
 90
        2
176
     1
 90
        2
176
     1
 90
        0
176
     1
 90
        0
176
     1
 40
0.6
176
     1
 40
30.0
176
     1
 62
     7
420
 16777215
176
     1
 90
        1
176
     1
 90
        4
176
     1
 62
     7
176
     1
 62
   257
176
     1
 90
        7
176
     1
 90
        7
176
     1
 40
1.0
176
     1
 90
        8
176
     1
 62
     7
176
     1
 40
1.0
176
     1
 90
        1
176
     1
 90
        6
176
     1
 90
        2
176
     1
 62
     7
176
     1
 90
        5
176
     1
 90
        0
176
     1
 90
        0
176
     1
290
     0
176
     1
 90
        1
176
     1
 40
0.0
176
     1
 90
        0
176
     1
290
     0
176
     1
290
     1
176
     1
290
     1
176
     1
290
     0
176
     1
290
     0
176
     1
290
     0
176
     1
290
     0
176
     1
290
     0
176
     1
290
     0
176
     1
 90
       50
176
     1
 40
0.0
176
     1
 40
1.0
176
     1
 90
        0
176
     1
 62
    18
176
     1
 90
       50
176
     1
 90
        3
176
     1
 62
     5
420
      255
176
     1
290
     0
176
     1
 90
       50
176
     1
 90
       50
176
     1
 90
       50
176
     1
290
     0
176
     1
 90
       50
176
     1
 62
   256
176
     0
 40
1.0
176
     0
 90
        2
176
     1
  1
strokes_ogs.tif
176
     1
290
     0
176
     1
 40
1.0
176
     1
 40
1.0
176
     1
1001
ACAD
1000
AcDbSavedByObjectVersion
1070
     0
  0
VISUALSTYLE
  5
40
102
{ACAD_REACTORS
330
29
102
}
330
29
100
AcDbVisualStyle
  2
OverhangOff
 70
    21
177
     3
291
     1
 70
    58
 90
        2
176
     0
 90
        2
176
     0
 90
        0
176
     0
 90
        0
176
     0
 40
0.6
176
     0
 40
30.0
176
     0
 62
     7
420
 16777215
176
     0
 90
        1
176
     0
 90
        4
176
     0
 62
     7
176
     0
 62
   257
176
     0
 90
        1
176
     0
 90
        1
176
     0
 40
1.0
176
     0
 90
        9
176
     2
 62
     7
176
     0
 40
1.0
176
     0
 90
        1
176
     0
 90
        6
176
     0
 90
        2
176
     0
 62
     7
176
     0
 90
        5
176
     0
 90
        0
176
     0
 90
        0
176
     0
290
     0
176
     0
 90
        1
176
     0
 40
0.0
176
     0
 90
        0
176
     0
290
     0
176
     0
290
     1
176
     0
290
     1
176
     0
290
     0
176
     0
290
     0
176
     0
290
     0
176
     0
290
     0
176
     0
290
     0
176
     0
290
     0
176
     0
 90
       50
176
     0
 40
0.0
176
     0
 40
1.0
176
     0
 90
        0
176
     0
 62
    18
176
     0
 90
       50
176
     0
 90
        3
176
     0
 62
     5
420
      255
176
     0
290
     0
176
     0
 90
       50
176
     0
 90
       50
176
     0
 90
       50
176
     0
290
     0
176
     0
 90
       50
176
     0
 62
   256
176
     0
 40
1.0
176
     0
 90
        2
176
     0
  1
strokes_ogs.tif
176
     0
290
     0
176
     0
 40
1.0
176
     0
 40
1.0
176
     0
1001
ACAD
1000
AcDbSavedByObjectVersion
1070
     0
  0
VISUALSTYLE
  5
33
102
{ACAD_REACTORS
330
29
102
}
330
29
100
AcDbVisualStyle
  2
Realistic
 70
     8
177
     3
291
     0
 70
    58
 90
        2
176
     1
 90
        3
176
     1
 90
        0
176
     1
 90
        2
176
     1
 40
0.6
176
     1
 40
30.0
176
     1
 62
     7
420
 16777215
176
     1
 90
        0
176
     1
 90
        0
176
     1
 62
     7
176
     1
 62
   257
176
     1
 90
        1
176
     1
 90
        1
176
     1
 40
1.0
176
     1
 90
        8
176
     1
 62
   257
176
     1
 40
1.0
176
     1
 90
        1
176
     1
 90
        6
176
     1
 90
        2
176
     1
 62
     7
176
     1
 90
        3
176
     1
 90
        0
176
     1
 90
        0
176
     1
290
     0
176
     1
 90
       13
176
     1
 40
0.0
176
     1
 90
        0
176
     1
290
     0
176
     1
290
     1
176
     1
290
     1
176
     1
290
     0
176
     1
290
     0
176
     1
290
     0
176
     1
290
     0
176
     1
290
     0
176
     1
290
     0
176
     1
 90
       50
176
     1
 40
0.0
176
     1
 40
1.0
176
     1
 90
        0
176
     1
 62
    18
176
     1
 90
       50
176
     1
 90
        3
176
     1
 62
     5
420
      255
176
     1
290
     0
176
     1
 90
       50
176
     1
 90
       50
176
     1
 90
       50
176
     1
290
     0
176
     1
 90
       50
176
     1
 62
   256
176
     0
 40
1.0
176
     0
 90
        2
176
     1
  1
strokes_ogs.tif
176
     1
290
     0
176
     1
 40
1.0
176
     1
 40
1.0
176
     1
1001
ACAD
1000
AcDbSavedByObjectVersion
1070
     0
  0
VISUALSTYLE
  5
3E
102
{ACAD_REACTORS
330
29
102
}
330
29
100
AcDbVisualStyle
  2
Shaded
 70
    27
177
     3
291
     0
 70
    58
 90
        2
176
     1
 90
        2
176
     1
 90
        1
176
     1
 90
        2
176
     1
 40
0.6
176
     1
 40
30.0
176
     1
 62
     7
420
 16777215
176
     1
 90
        0
176
     1
 90
        4
176
     1
 62
     7
176
     1
 62
   257
176
     1
 90
        1
176
     1
 90
        1
176
     1
 40
1.0
176
     1
 90
        8
176
     1
 62
   257
176
     1
 40
1.0
176
     1
 90
        1
176
     1
 90
        6
176
     1
 90
        2
176
     1
 62
     8
420
  7895160
176
     1
 90
        3
176
     1
 90
        0
176
     1
 90
        0
176
     1
290
     0
176
     1
 90
        5
176
     1
 40
0.0
176
     1
 90
        0
176
     1
290
     0
176
     1
290
     1
176
     1
290
     1
176
     1
290
     0
176
     1
290
     0
176
     1
290
     0
176
     1
290
     0
176
     1
290
     0
176
     1
290
     0
176
     1
 90
       50
176
     1
 40
0.0
176
     1
 40
1.0
176
     1
 90
        0
176
     1
 62
    18
176
     1
 90
       50
176
     1
 90
        3
176
     1
 62
     5
420
      255
176
     1
290
     0
176
     1
 90
       50
176
     1
 90
       50
176
     1
 90
       50
176
     1
290
     0
176
     1
 90
       50
176
     1
 62
   256
176
     0
 40
1.0
176
     0
 90
        2
176
     1
  1
strokes_ogs.tif
176
     1
290
     0
176
     1
 40
1.0
176
     1
 40
1.0
176
     1
1001
ACAD
1000
AcDbSavedByObjectVersion
1070
     0
  0
VISUALSTYLE
  5
3D
102
{ACAD_REACTORS
330
29
102
}
330
29
100
AcDbVisualStyle
  2
Shaded with edges
 70
    26
177
     3
291
     0
 70
    58
 90
        2
176
     1
 90
        2
176
     1
 90
        1
176
     1
 90
        2
176
     1
 40
0.6
176
     1
 40
30.0
176
     1
 62
     7
420
 16777215
176
     1
 90
        1
176
     1
 90
        2
176
     1
 62
     7
176
     1
 62
   257
176
     1
 90
        2
176
     1
 90
        1
176
     1
 40
1.0
176
     1
 90
        8
176
     1
 62
   257
176
     1
 40
1.0
176
     1
 90
        1
176
     1
 90
        6
176
     1
 90
        2
176
     1
 62
     7
176
     1
 90
        3
176
     1
 90
        0
176
     1
 90
        0
176
     1
290
     0
176
     1
 90
        5
176
     1
 40
0.0
176
     1
 90
        0
176
     1
290
     0
176
     1
290
     1
176
     1
290
     1
176
     1
290
     0
176
     1
290
     0
176
     1
290
     0
176
     1
290
     0
176
     1
290
     0
176
     1
290
     0
176
     1
 90
       50
176
     1
 40
0.0
176
     1
 40
1.0
176
     1
 90
        0
176
     1
 62
    18
176
     1
 90
       50
176
     1
 90
        3
176
     1
 62
     5
420
      255
176
     1
290
     0
176
     1
 90
       50
176
     1
 90
       50
176
     1
 90
       50
176
     1
290
     0
176
     1
 90
       50
176
     1
 62
   256
176
     0
 40
1.0
176
     0
 90
        2
176
     1
  1
strokes_ogs.tif
176
     1
290
     0
176
     1
 40
1.0
176
     1
 40
1.0
176
     1
1001
ACAD
1000
AcDbSavedByObjectVersion
1070
     0
  0
VISUALSTYLE
  5
3A
102
{ACAD_REACTORS
330
29
102
}
330
29
100
AcDbVisualStyle
  2
Shades of Gray
 70
    23
177
     3
291
     0
 70
    58
 90
        2
176
     1
 90
        2
176
     1
 90
        3
176
     1
 90
        0
176
     1
 40
0.6
176
     1
 40
30.0
176
     1
 62
     7
420
 16777215
176
     1
 90
        2
176
     1
 90
        2
176
     1
 62
     7
176
     1
 62
     7
176
     1
 90
        1
176
     1
 90
        1
176
     1
 40
40.0
176
     1
 90
        8
176
     1
 62
     7
176
     1
 40
1.0
176
     1
 90
        1
176
     1
 90
        6
176
     1
 90
        2
176
     1
 62
     7
176
     1
 90
        3
176
     1
 90
        0
176
     1
 90
        0
176
     1
290
     0
176
     1
 90
        1
176
     1
 40
0.0
176
     1
 90
        0
176
     1
290
     0
176
     1
290
     1
176
     1
290
     1
176
     1
290
     0
176
     1
290
     0
176
     1
290
     0
176
     1
290
     0
176
     1
290
     0
176
     1
290
     0
176
     1
 90
       50
176
     1
 40
0.0
176
     1
 40
1.0
176
     1
 90
        0
176
     1
 62
    18
176
     1
 90
       50
176
     1
 90
        3
176
     1
 62
     5
420
      255
176
     1
290
     0
176
     1
 90
       50
176
     1
 90
       50
176
     1
 90
       50
176
     1
290
     0
176
     1
 90
       50
176
     1
 62
   256
176
     0
 40
1.0
176
     0
 90
        2
176
     1
  1
strokes_ogs.tif
176
     1
290
     0
176
     1
 40
1.0
176
     1
 40
1.0
176
     1
1001
ACAD
1000
AcDbSavedByObjectVersion
1070
     0
  0
VISUALSTYLE
  5
3B
102
{ACAD_REACTORS
330
29
102
}
330
29
100
AcDbVisualStyle
  2
Sketchy
 70
    24
177
     3
291
     0
 70
    58
 90
        1
176
     1
 90
        2
176
     1
 90
        2
176
     1
 90
        0
176
     1
 40
0.6
176
     1
 40
30.0
176
     1
 62
     7
420
 16777215
176
     1
 90
        2
176
     1
 90
        2
176
     1
 62
     7
176
     1
 62
     7
176
     1
 90
        1
176
     1
 90
        1
176
     1
 40
40.0
176
     1
 90
       11
176
     1
 62
     7
176
     1
 40
1.0
176
     1
 90
        1
176
     1
 90
        6
176
     1
 90
        2
176
     1
 62
     7
176
     1
 90
        6
176
     1
 90
        0
176
     1
 90
        0
176
     1
290
     0
176
     1
 90
        1
176
     1
 40
0.0
176
     1
 90
        0
176
     1
290
     0
176
     1
290
     1
176
     1
290
     1
176
     1
290
     0
176
     1
290
     0
176
     1
290
     0
176
     1
290
     0
176
     1
290
     0
176
     1
290
     0
176
     1
 90
       50
176
     1
 40
0.0
176
     1
 40
1.0
176
     1
 90
        0
176
     1
 62
    18
176
     1
 90
       50
176
     1
 90
        3
176
     1
 62
     5
420
      255
176
     1
290
     0
176
     1
 90
       50
176
     1
 90
       50
176
     1
 90
       50
176
     1
290
     0
176
     1
 90
       50
176
     1
 62
   256
176
     0
 40
1.0
176
     0
 90
        2
176
     1
  1
strokes_ogs.tif
176
     1
290
     0
176
     1
 40
1.0
176
     1
 40
1.0
176
     1
1001
ACAD
1000
AcDbSavedByObjectVersion
1070
     0
  0
VISUALSTYLE
  5
36
102
{ACAD_REACTORS
330
29
102
}
330
29
100
AcDbVisualStyle
  2
Thicken
 70
    13
177
     3
291
     1
 70
    58
 90
        2
176
     1
 90
        2
176
     1
 90
        0
176
     1
 90
        0
176
     1
 40
0.6
176
     1
 40
30.0
176
     1
 62
     7
420
 16777215
176
     1
 90
        1
176
     1
 90
        4
176
     1
 62
     7
176
     1
 62
   257
176
     1
 90
        1
176
     1
 90
        1
176
     1
 40
1.0
176
     1
 90
       12
176
     1
 62
     7
176
     1
 40
1.0
176
     1
 90
        1
176
     1
 90
        6
176
     1
 90
        2
176
     1
 62
     7
176
     1
 90
        5
176
     1
 90
        0
176
     1
 90
        0
176
     1
290
     0
176
     1
 90
        1
176
     1
 40
0.0
176
     1
 90
        0
176
     1
290
     0
176
     1
290
     1
176
     1
290
     1
176
     1
290
     0
176
     1
290
     0
176
     1
290
     0
176
     1
290
     0
176
     1
290
     0
176
     1
290
     0
176
     1
 90
       50
176
     1
 40
0.0
176
     1
 40
1.0
176
     1
 90
        0
176
     1
 62
    18
176
     1
 90
       50
176
     1
 90
        3
176
     1
 62
     5
420
      255
176
     1
290
     0
176
     1
 90
       50
176
     1
 90
       50
176
     1
 90
       50
176
     1
290
     0
176
     1
 90
       50
176
     1
 62
   256
176
     0
 40
1.0
176
     0
 90
        2
176
     1
  1
strokes_ogs.tif
176
     1
290
     0
176
     1
 40
1.0
176
     1
 40
1.0
176
     1
1001
ACAD
1000
AcDbSavedByObjectVersion
1070
     0
  0
VISUALSTYLE
  5
30
102
{ACAD_REACTORS
330
29
102
}
330
29
100
AcDbVisualStyle
  2
Wireframe
 70
     5
177
     3
291
     0
 70
    58
 90
        0
176
     1
 90
        2
176
     1
 90
        0
176
     1
 90
        0
176
     1
 40
0.6
176
     1
 40
30.0
176
     1
 62
     7
420
 16777215
176
     1
 90
        1
176
     1
 90
        4
176
     1
 62
     7
176
     1
 62
   257
176
     1
 90
        1
176
     1
 90
        1
176
     1
 40
1.0
176
     1
 90
        0
176
     1
 62
   257
176
     1
 40
1.0
176
     1
 90
        1
176
     1
 90
        6
176
     1
 90
        2
176
     1
 62
     7
176
     1
 90
        3
176
     1
 90
        0
176
     1
 90
        0
176
     1
290
     0
176
     1
 90
        1
176
     1
 40
0.0
176
     1
 90
        0
176
     1
290
     0
176
     1
290
     1
176
     1
290
     1
176
     1
290
     0
176
     1
290
     0
176
     1
290
     0
176
     1
290
     0
176
     1
290
     0
176
     1
290
     0
176
     1
 90
       50
176
     1
 40
0.0
176
     1
 40
1.0
176
     1
 90
        0
176
     1
 62
    18
176
     1
 90
       50
176
     1
 90
        3
176
     1
 62
     5
420
      255
176
     1
290
     0
176
     1
 90
       50
176
     1
 90
       50
176
     1
 90
       50
176
     1
290
     0
176
     1
 90
       50
176
     1
 62
   256
176
     0
 40
1.0
176
     0
 90
        2
176
     1
  1
strokes_ogs.tif
176
     1
290
     0
176
     1
 40
1.0
176
     1
 40
1.0
176
     1
1001
ACAD
1000
AcDbSavedByObjectVersion
1070
     0
  0
VISUALSTYLE
  5
3C
102
{ACAD_REACTORS
330
29
102
}
330
29
100
AcDbVisualStyle
  2
X-Ray
 70
    25
177
     3
291
     0
 70
    58
 90
        2
176
     1
 90
        2
176
     1
 90
        1
176
     1
 90
        1
176
     1
 40
0.5
176
     1
 40
30.0
176
     1
 62
     7
420
 16777215
176
     1
 90
        1
176
     1
 90
        0
176
     1
 62
     7
176
     1
 62
   257
176
     1
 90
        1
176
     1
 90
        1
176
     1
 40
1.0
176
     1
 90
        8
176
     1
 62
     7
176
     1
 40
1.0
176
     1
 90
        1
176
     1
 90
        6
176
     1
 90
        2
176
     1
 62
     7
176
     1
 90
        3
176
     1
 90
        0
176
     1
 90
        0
176
     1
290
     0
176
     1
 90
       13
176
     1
 40
0.0
176
     1
 90
        0
176
     1
290
     0
176
     1
290
     1
176
     1
290
     1
176
     1
290
     0
176
     1
290
     0
176
     1
290
     0
176
     1
290
     0
176
     1
290
     0
176
     1
290
     0
176
     1
 90
       50
176
     1
 40
0.0
176
     1
 40
1.0
176
     1
 90
        0
176
     1
 62
    18
176
     1
 90
       50
176
     1
 90
        3
176
     1
 62
     5
420
      255
176
     1
290
     0
176
     1
 90
       50
176
     1
 90
       50
176
     1
 90
       50
176
     1
290
     0
176
     1
 90
       50
176
     1
 62
   256
176
     0
 40
1.0
176
     0
 90
        2
176
     1
  1
strokes_ogs.tif
176
     1
290
     0
176
     1
 40
1.0
176
     1
 40
1.0
176
     1
1001
ACAD
1000
AcDbSavedByObjectVersion
1070
     0
  0
DICTIONARYVAR
  5
241
102
{ACAD_REACTORS
330
23C
102
}
330
23C
100
DictionaryVariables
280
     0
  1
1:1
  0
DICTIONARYVAR
  5
23E
102
{ACAD_REACTORS
330
23C
102
}
330
23C
100
DictionaryVariables
280
     0
  1
STANDARD
  0
DICTIONARYVAR
  5
23D
102
{ACAD_REACTORS
330
23C
102
}
330
23C
100
DictionaryVariables
280
     0
  1
STANDARD
  0
DICTIONARYVAR
  5
23F
102
{ACAD_REACTORS
330
23C
102
}
330
23C
100
DictionaryVariables
280
     0
  1
Imperial24
  0
DICTIONARYVAR
  5
240
102
{ACAD_REACTORS
330
23C
102
}
330
23C
100
DictionaryVariables
280
     0
  1
Imperial24
  0
DICTIONARY
  5
1A
330
19
100
AcDbDictionary
280
     1
281
     1
  3
BUMPTILE
360
1C
  3
DIFFUSETILE
360
1B
  3
OPACITYTILE
360
1F
  3
REFLECTIONTILE
360
1E
  3
REFRACTIONTILE
360
20
  3
SPECULARTILE
360
1D
  0
DICTIONARY
  5
12
330
11
100
AcDbDictionary
280
     1
281
     1
  3
BUMPTILE
360
14
  3
DIFFUSETILE
360
13
  3
OPACITYTILE
360
17
  3
REFLECTIONTILE
360
16
  3
REFRACTIONTILE
360
18
  3
SPECULARTILE
360
15
  0
DICTIONARY
  5
22
330
21
100
AcDbDictionary
280
     1
281
     1
  3
BUMPTILE
360
24
  3
DIFFUSETILE
360
23
  3
OPACITYTILE
360
27
  3
REFLECTIONTILE
360
26
  3
REFRACTIONTILE
360
28
  3
SPECULARTILE
360
25
  0
DICTIONARY
  5
281
330
65
100
AcDbDictionary
280
     1
281
     1
  3
ACAD_ROUNDTRIP_2008_TABLESTYLE_CELLSTYLEMAP
360
29F
  0
XRECORD
  5
1C
102
{ACAD_REACTORS
330
1A
102
}
330
1A
100
AcDbXrecord
280
     1
270
     1
271
     1
  0
XRECORD
  5
1B
102
{ACAD_REACTORS
330
1A
102
}
330
1A
100
AcDbXrecord
280
     1
270
     1
271
     1
  0
XRECORD
  5
1F
102
{ACAD_REACTORS
330
1A
102
}
330
1A
100
AcDbXrecord
280
     1
270
     1
271
     1
  0
XRECORD
  5
1E
102
{ACAD_REACTORS
330
1A
102
}
330
1A
100
AcDbXrecord
280
     1
270
     1
271
     1
  0
XRECORD
  5
20
102
{ACAD_REACTORS
330
1A
102
}
330
1A
100
AcDbXrecord
280
     1
270
     1
271
     1
  0
XRECORD
  5
1D
102
{ACAD_REACTORS
330
1A
102
}
330
1A
100
AcDbXrecord
280
     1
270
     1
271
     1
  0
XRECORD
  5
14
102
{ACAD_REACTORS
330
12
102
}
330
12
100
AcDbXrecord
280
     1
270
     1
271
     1
  0
XRECORD
  5
13
102
{ACAD_REACTORS
330
12
102
}
330
12
100
AcDbXrecord
280
     1
270
     1
271
     1
  0
XRECORD
  5
17
102
{ACAD_REACTORS
330
12
102
}
330
12
100
AcDbXrecord
280
     1
270
     1
271
     1
  0
XRECORD
  5
16
102
{ACAD_REACTORS
330
12
102
}
330
12
100
AcDbXrecord
280
     1
270
     1
271
     1
  0
XRECORD
  5
18
102
{ACAD_REACTORS
330
12
102
}
330
12
100
AcDbXrecord
280
     1
270
     1
271
     1
  0
XRECORD
  5
15
102
{ACAD_REACTORS
330
12
102
}
330
12
100
AcDbXrecord
280
     1
270
     1
271
     1
  0
XRECORD
  5
24
102
{ACAD_REACTORS
330
22
102
}
330
22
100
AcDbXrecord
280
     1
270
     1
271
     1
  0
XRECORD
  5
23
102
{ACAD_REACTORS
330
22
102
}
330
22
100
AcDbXrecord
280
     1
270
     1
271
     1
  0
XRECORD
  5
27
102
{ACAD_REACTORS
330
22
102
}
330
22
100
AcDbXrecord
280
     1
270
     1
271
     1
  0
XRECORD
  5
26
102
{ACAD_REACTORS
330
22
102
}
330
22
100
AcDbXrecord
280
     1
270
     1
271
     1
  0
XRECORD
  5
28
102
{ACAD_REACTORS
330
22
102
}
330
22
100
AcDbXrecord
280
     1
270
     1
271
     1
  0
XRECORD
  5
25
102
{ACAD_REACTORS
330
22
102
}
330
22
100
AcDbXrecord
280
     1
270
     1
271
     1
  0
CELLSTYLEMAP
  5
29F
102
{ACAD_REACTORS
330
281
102
}
330
281
100
AcDbCellStyleMap
 90
        3
300
CELLSTYLE
  1
TABLEFORMAT_BEGIN
 90
        5
170
     1
 91
        0
 92
    32768
 62
   257
 93
        1
300
CONTENTFORMAT
  1
CONTENTFORMAT_BEGIN
 90
        0
 91
        0
 92
      512
 93
        0
300

 40
0.0
140
1.0
 94
        5
 62
     0
340
55
144
0.25
309
CONTENTFORMAT_END
171
     1
301
MARGIN
  1
CELLMARGIN_BEGIN
 40
0.06
 40
0.06
 40
0.06
 40
0.06
 40
0.18
 40
0.18
309
CELLMARGIN_END
 94
        6
 95
        1
302
GRIDFORMAT
  1
GRIDFORMAT_BEGIN
 90
        0
 91
        1
 62
     0
 92
       -2
340
0
 93
        0
 40
0.045
309
GRIDFORMAT_END
 95
        2
302
GRIDFORMAT
  1
GRIDFORMAT_BEGIN
 90
        0
 91
        1
 62
     0
 92
       -2
340
0
 93
        0
 40
0.045
309
GRIDFORMAT_END
 95
        4
302
GRIDFORMAT
  1
GRIDFORMAT_BEGIN
 90
        0
 91
        1
 62
     0
 92
       -2
340
0
 93
        0
 40
0.045
309
GRIDFORMAT_END
 95
        8
302
GRIDFORMAT
  1
GRIDFORMAT_BEGIN
 90
        0
 91
        1
 62
     0
 92
       -2
340
0
 93
        0
 40
0.045
309
GRIDFORMAT_END
 95
       16
302
GRIDFORMAT
  1
GRIDFORMAT_BEGIN
 90
        0
 91
        1
 62
     0
 92
       -2
340
0
 93
        0
 40
0.045
309
GRIDFORMAT_END
 95
       32
302
GRIDFORMAT
  1
GRIDFORMAT_BEGIN
 90
        0
 91
        1
 62
     0
 92
       -2
340
0
 93
        0
 40
0.045
309
GRIDFORMAT_END
309
TABLEFORMAT_END
  1
CELLSTYLE_BEGIN
 90
        1
 91
        1
300
_TITLE
309
CELLSTYLE_END
300
CELLSTYLE
  1
TABLEFORMAT_BEGIN
 90
        5
170
     1
 91
        0
 92
        0
 62
   257
 93
        1
300
CONTENTFORMAT
  1
CONTENTFORMAT_BEGIN
 90
        0
 91
        0
 92
      512
 93
        0
300

 40
0.0
140
1.0
 94
        5
 62
     0
340
55
144
0.18
309
CONTENTFORMAT_END
171
     1
301
MARGIN
  1
CELLMARGIN_BEGIN
 40
0.06
 40
0.06
 40
0.06
 40
0.06
 40
0.18
 40
0.18
309
CELLMARGIN_END
 94
        6
 95
        1
302
GRIDFORMAT
  1
GRIDFORMAT_BEGIN
 90
        0
 91
        1
 62
     0
 92
       -2
340
0
 93
        0
 40
0.045
309
GRIDFORMAT_END
 95
        2
302
GRIDFORMAT
  1
GRIDFORMAT_BEGIN
 90
        0
 91
        1
 62
     0
 92
       -2
340
0
 93
        0
 40
0.045
309
GRIDFORMAT_END
 95
        4
302
GRIDFORMAT
  1
GRIDFORMAT_BEGIN
 90
        0
 91
        1
 62
     0
 92
       -2
340
0
 93
        0
 40
0.045
309
GRIDFORMAT_END
 95
        8
302
GRIDFORMAT
  1
GRIDFORMAT_BEGIN
 90
        0
 91
        1
 62
     0
 92
       -2
340
0
 93
        0
 40
0.045
309
GRIDFORMAT_END
 95
       16
302
GRIDFORMAT
  1
GRIDFORMAT_BEGIN
 90
        0
 91
        1
 62
     0
 92
       -2
340
0
 93
        0
 40
0.045
309
GRIDFORMAT_END
 95
       32
302
GRIDFORMAT
  1
GRIDFORMAT_BEGIN
 90
        0
 91
        1
 62
     0
 92
       -2
340
0
 93
        0
 40
0.045
309
GRIDFORMAT_END
309
TABLEFORMAT_END
  1
CELLSTYLE_BEGIN
 90
        2
 91
        1
300
_HEADER
309
CELLSTYLE_END
300
CELLSTYLE
  1
TABLEFORMAT_BEGIN
 90
        5
170
     1
 91
        0
 92
        0
 62
   257
 93
        1
300
CONTENTFORMAT
  1
CONTENTFORMAT_BEGIN
 90
        0
 91
        0
 92
      512
 93
        0
300

 40
0.0
140
1.0
 94
        2
 62
     0
340
55
144
0.18
309
CONTENTFORMAT_END
171
     1
301
MARGIN
  1
CELLMARGIN_BEGIN
 40
0.06
 40
0.06
 40
0.06
 40
0.06
 40
0.18
 40
0.18
309
CELLMARGIN_END
 94
        6
 95
        1
302
GRIDFORMAT
  1
GRIDFORMAT_BEGIN
 90
        0
 91
        1
 62
     0
 92
       -2
340
0
 93
        0
 40
0.045
309
GRIDFORMAT_END
 95
        2
302
GRIDFORMAT
  1
GRIDFORMAT_BEGIN
 90
        0
 91
        1
 62
     0
 92
       -2
340
0
 93
        0
 40
0.045
309
GRIDFORMAT_END
 95
        4
302
GRIDFORMAT
  1
GRIDFORMAT_BEGIN
 90
        0
 91
        1
 62
     0
 92
       -2
340
0
 93
        0
 40
0.045
309
GRIDFORMAT_END
 95
        8
302
GRIDFORMAT
  1
GRIDFORMAT_BEGIN
 90
        0
 91
        1
 62
     0
 92
       -2
340
0
 93
        0
 40
0.045
309
GRIDFORMAT_END
 95
       16
302
GRIDFORMAT
  1
GRIDFORMAT_BEGIN
 90
        0
 91
        1
 62
     0
 92
       -2
340
0
 93
        0
 40
0.045
309
GRIDFORMAT_END
 95
       32
302
GRIDFORMAT
  1
GRIDFORMAT_BEGIN
 90
        0
 91
        1
 62
     0
 92
       -2
340
0
 93
        0
 40
0.045
309
GRIDFORMAT_END
309
TABLEFORMAT_END
  1
CELLSTYLE_BEGIN
 90
        3
 91
        2
300
_DATA
309
CELLSTYLE_END
  0
ENDSEC
  0
EOF
