  0
SECTION
  2
HEADER
  9
$ACADVER
  1
AC1032
  9
$ACADMAINTVER
 90
      199
  9
$DWGCODEPAGE
  3
ANSI_1252
  9
$LASTSAVEDBY
  1
ufficio.tecnico
  9
$REQUIREDVERSIONS
160
                 0
  9
$INSBASE
 10
0.0
 20
0.0
 30
0.0
  9
$EXTMIN
 10
6.249021140320872
 20
-17.756683935842
 30
0.0
  9
$EXTMAX
 10
15.42035553802532
 20
-9.780436177229946
 30
0.0
  9
$LIMMIN
 10
0.0
 20
0.0
  9
$LIMMAX
 10
12.0
 20
9.0
  9
$ORTHOMODE
 70
     1
  9
$REGENMODE
 70
     1
  9
$FILLMODE
 70
     1
  9
$QTEXTMODE
 70
     0
  9
$MIRRTEXT
 70
     0
  9
$LTSCALE
 40
1.0
  9
$ATTMODE
 70
     1
  9
$TEXTSIZE
 40
0.2
  9
$TRACEWID
 40
0.05
  9
$TEXTSTYLE
  7
Standard
  9
$CLAYER
  8
0
  9
$CELTYPE
  6
ByLayer
  9
$CECOLOR
 62
   256
  9
$CELTSCALE
 40
1.0
  9
$DISPSILH
 70
     0
  9
$DIMSCALE
 40
1.0
  9
$DIMASZ
 40
0.18
  9
$DIMEXO
 40
0.0625
  9
$DIMDLI
 40
0.38
  9
$DIMRND
 40
0.0
  9
$DIMDLE
 40
0.0
  9
$DIMEXE
 40
0.18
  9
$DIMTP
 40
0.0
  9
$DIMTM
 40
0.0
  9
$DIMTXT
 40
0.18
  9
$DIMCEN
 40
0.09
  9
$DIMTSZ
 40
0.0
  9
$DIMTOL
 70
     0
  9
$DIMLIM
 70
     0
  9
$DIMTIH
 70
     1
  9
$DIMTOH
 70
     1
  9
$DIMSE1
 70
     0
  9
$DIMSE2
 70
     0
  9
$DIMTAD
 70
     0
  9
$DIMZIN
 70
     0
  9
$DIMBLK
  1

  9
$DIMASO
 70
     1
  9
$DIMSHO
 70
     1
  9
$DIMPOST
  1

  9
$DIMAPOST
  1

  9
$DIMALT
 70
     0
  9
$DIMALTD
 70
     2
  9
$DIMALTF
 40
25.4
  9
$DIMLFAC
 40
1.0
  9
$DIMTOFL
 70
     0
  9
$DIMTVP
 40
0.0
  9
$DIMTIX
 70
     0
  9
$DIMSOXD
 70
     0
  9
$DIMSAH
 70
     0
  9
$DIMBLK1
  1

  9
$DIMBLK2
  1

  9
$DIMSTYLE
  2
Standard
  9
$DIMCLRD
 70
     0
  9
$DIMCLRE
 70
     0
  9
$DIMCLRT
 70
     0
  9
$DIMTFAC
 40
1.0
  9
$DIMGAP
 40
0.09
  9
$DIMJUST
 70
     0
  9
$DIMSD1
 70
     0
  9
$DIMSD2
 70
     0
  9
$DIMTOLJ
 70
     1
  9
$DIMTZIN
 70
     0
  9
$DIMALTZ
 70
     0
  9
$DIMALTTZ
 70
     0
  9
$DIMUPT
 70
     0
  9
$DIMDEC
 70
     4
  9
$DIMTDEC
 70
     4
  9
$DIMALTU
 70
     2
  9
$DIMALTTD
 70
     2
  9
$DIMTXSTY
  7
Standard
  9
$DIMAUNIT
 70
     0
  9
$DIMADEC
 70
     0
  9
$DIMALTRND
 40
0.0
  9
$DIMAZIN
 70
     0
  9
$DIMDSEP
 70
    46
  9
$DIMATFIT
 70
     3
  9
$DIMFRAC
 70
     0
  9
$DIMLDRBLK
  1

  9
$DIMLUNIT
 70
     2
  9
$DIMLWD
 70
    -2
  9
$DIMLWE
 70
    -2
  9
$DIMTMOVE
 70
     0
  9
$DIMFXL
 40
1.0
  9
$DIMFXLON
 70
     0
  9
$DIMJOGANG
 40
0.7853981633974483
  9
$DIMTFILL
 70
     0
  9
$DIMTFILLCLR
 70
     0
  9
$DIMARCSYM
 70
     0
  9
$DIMLTYPE
  6

  9
$DIMLTEX1
  6

  9
$DIMLTEX2
  6

  9
$DIMTXTDIRECTION
 70
     0
  9
$LUNITS
 70
     2
  9
$LUPREC
 70
     4
  9
$SKETCHINC
 40
0.1
  9
$FILLETRAD
 40
0.0
  9
$AUNITS
 70
     0
  9
$AUPREC
 70
     0
  9
$MENU
  1
.
  9
$ELEVATION
 40
0.0
  9
$PELEVATION
 40
0.0
  9
$THICKNESS
 40
0.0
  9
$LIMCHECK
 70
     0
  9
$CHAMFERA
 40
0.0
  9
$CHAMFERB
 40
0.0
  9
$CHAMFERC
 40
0.0
  9
$CHAMFERD
 40
0.0
  9
$SKPOLY
 70
     0
  9
$TDCREATE
 40
2459858.680451389
  9
$TDUCREATE
 40
2459858.597118055
  9
$TDUPDATE
 40
2459913.579560185
  9
$TDUUPDATE
 40
2459913.537893518
  9
$TDINDWG
 40
0.0054629630
  9
$TDUSRTIMER
 40
0.0054629630
  9
$USRTIMER
 70
     1
  9
$ANGBASE
 50
0.0
  9
$ANGDIR
 70
     0
  9
$PDMODE
 70
     0
  9
$PDSIZE
 40
0.0
  9
$PLINEWID
 40
0.0
  9
$SPLFRAME
 70
     0
  9
$SPLINETYPE
 70
     6
  9
$SPLINESEGS
 70
     8
  9
$HANDSEED
  5
1D4
  9
$SURFTAB1
 70
     6
  9
$SURFTAB2
 70
     6
  9
$SURFTYPE
 70
     6
  9
$SURFU
 70
     6
  9
$SURFV
 70
     6
  9
$UCSBASE
  2

  9
$UCSNAME
  2

  9
$UCSORG
 10
0.0
 20
0.0
 30
0.0
  9
$UCSXDIR
 10
1.0
 20
0.0
 30
0.0
  9
$UCSYDIR
 10
0.0
 20
1.0
 30
0.0
  9
$UCSORTHOREF
  2

  9
$UCSORTHOVIEW
 70
     0
  9
$UCSORGTOP
 10
0.0
 20
0.0
 30
0.0
  9
$UCSORGBOTTOM
 10
0.0
 20
0.0
 30
0.0
  9
$UCSORGLEFT
 10
0.0
 20
0.0
 30
0.0
  9
$UCSORGRIGHT
 10
0.0
 20
0.0
 30
0.0
  9
$UCSORGFRONT
 10
0.0
 20
0.0
 30
0.0
  9
$UCSORGBACK
 10
0.0
 20
0.0
 30
0.0
  9
$PUCSBASE
  2

  9
$PUCSNAME
  2

  9
$PUCSORG
 10
0.0
 20
0.0
 30
0.0
  9
$PUCSXDIR
 10
1.0
 20
0.0
 30
0.0
  9
$PUCSYDIR
 10
0.0
 20
1.0
 30
0.0
  9
$PUCSORTHOREF
  2

  9
$PUCSORTHOVIEW
 70
     0
  9
$PUCSORGTOP
 10
0.0
 20
0.0
 30
0.0
  9
$PUCSORGBOTTOM
 10
0.0
 20
0.0
 30
0.0
  9
$PUCSORGLEFT
 10
0.0
 20
0.0
 30
0.0
  9
$PUCSORGRIGHT
 10
0.0
 20
0.0
 30
0.0
  9
$PUCSORGFRONT
 10
0.0
 20
0.0
 30
0.0
  9
$PUCSORGBACK
 10
0.0
 20
0.0
 30
0.0
  9
$USERI1
 70
     0
  9
$USERI2
 70
     0
  9
$USERI3
 70
     0
  9
$USERI4
 70
     0
  9
$USERI5
 70
     0
  9
$USERR1
 40
0.0
  9
$USERR2
 40
0.0
  9
$USERR3
 40
0.0
  9
$USERR4
 40
0.0
  9
$USERR5
 40
0.0
  9
$WORLDVIEW
 70
     1
  9
$SHADEDGE
 70
     3
  9
$SHADEDIF
 70
    70
  9
$TILEMODE
 70
     1
  9
$MAXACTVP
 70
    64
  9
$PINSBASE
 10
0.0
 20
0.0
 30
0.0
  9
$PLIMCHECK
 70
     0
  9
$PEXTMIN
 10
1.000000000000000E+20
 20
1.000000000000000E+20
 30
1.000000000000000E+20
  9
$PEXTMAX
 10
-1.000000000000000E+20
 20
-1.000000000000000E+20
 30
-1.000000000000000E+20
  9
$PLIMMIN
 10
0.0
 20
0.0
  9
$PLIMMAX
 10
12.0
 20
9.0
  9
$UNITMODE
 70
     0
  9
$VISRETAIN
 70
     1
  9
$PLINEGEN
 70
     0
  9
$PSLTSCALE
 70
     1
  9
$TREEDEPTH
 70
  3020
  9
$CMLSTYLE
  2
Standard
  9
$CMLJUST
 70
     0
  9
$CMLSCALE
 40
1.0
  9
$PROXYGRAPHICS
 70
     1
  9
$MEASUREMENT
 70
     0
  9
$CELWEIGHT
370
    -1
  9
$ENDCAPS
280
     0
  9
$JOINSTYLE
280
     0
  9
$LWDISPLAY
290
     1
  9
$INSUNITS
 70
     5
  9
$HYPERLINKBASE
  1

  9
$STYLESHEET
  1

  9
$XEDIT
290
     1
  9
$CEPSNTYPE
380
     0
  9
$PSTYLEMODE
290
     1
  9
$FINGERPRINTGUID
  2
{715904A3-DDCA-3640-95AC-7D91CFCA8E76}
  9
$VERSIONGUID
  2
{504DB8DB-D275-694A-ACF7-326EA4545FFE}
  9
$EXTNAMES
290
     1
  9
$PSVPSCALE
 40
0.0
  9
$OLESTARTUP
290
     0
  9
$SORTENTS
280
   127
  9
$INDEXCTL
280
     0
  9
$HIDETEXT
280
     1
  9
$XCLIPFRAME
280
     2
  9
$HALOGAP
280
     0
  9
$OBSCOLOR
 70
   257
  9
$OBSLTYPE
280
     0
  9
$INTERSECTIONDISPLAY
280
     0
  9
$INTERSECTIONCOLOR
 70
   257
  9
$DIMASSOC
280
     2
  9
$PROJECTNAME
  1

  9
$CAMERADISPLAY
290
     0
  9
$LENSLENGTH
 40
50.0
  9
$CAMERAHEIGHT
 40
0.0
  9
$STEPSPERSEC
 40
2.0
  9
$STEPSIZE
 40
6.0
  9
$3DDWFPREC
 40
2.0
  9
$PSOLWIDTH
 40
0.25
  9
$PSOLHEIGHT
 40
4.0
  9
$LOFTANG1
 40
1.570796326794896
  9
$LOFTANG2
 40
1.570796326794896
  9
$LOFTMAG1
 40
0.0
  9
$LOFTMAG2
 40
0.0
  9
$LOFTPARAM
 70
     7
  9
$LOFTNORMALS
280
     1
  9
$LATITUDE
 40
37.795
  9
$LONGITUDE
 40
-122.394
  9
$NORTHDIRECTION
 40
0.0
  9
$TIMEZONE
 70
 -8000
  9
$LIGHTGLYPHDISPLAY
280
     1
  9
$TILEMODELIGHTSYNCH
280
     1
  9
$CMATERIAL
347
11
  9
$SOLIDHIST
280
     0
  9
$SHOWHIST
280
     1
  9
$DWFFRAME
280
     2
  9
$DGNFRAME
280
     0
  9
$REALWORLDSCALE
290
     1
  9
$INTERFERECOLOR
 62
     1
  9
$INTERFEREOBJVS
345
33
  9
$INTERFEREVPVS
346
30
  9
$CSHADOW
280
     0
  9
$SHADOWPLANELOCATION
 40
0.0
  0
ENDSEC
  0
SECTION
  2
CLASSES
  0
CLASS
  1
ACDBDICTIONARYWDFLT
  2
AcDbDictionaryWithDefault
  3
ObjectDBX Classes
 90
        0
 91
        1
280
     0
281
     0
  0
CLASS
  1
MATERIAL
  2
AcDbMaterial
  3
ObjectDBX Classes
 90
     1153
 91
        3
280
     0
281
     0
  0
CLASS
  1
VISUALSTYLE
  2
AcDbVisualStyle
  3
ObjectDBX Classes
 90
     4095
 91
       24
280
     0
281
     0
  0
CLASS
  1
SCALE
  2
AcDbScale
  3
ObjectDBX Classes
 90
     1153
 91
       17
280
     0
281
     0
  0
CLASS
  1
TABLESTYLE
  2
AcDbTableStyle
  3
ObjectDBX Classes
 90
     4095
 91
        1
280
     0
281
     0
  0
CLASS
  1
MLEADERSTYLE
  2
AcDbMLeaderStyle
  3
ACDB_MLEADERSTYLE_CLASS
 90
     4095
 91
        1
280
     0
281
     0
  0
CLASS
  1
ACDBSECTIONVIEWSTYLE
  2
AcDbSectionViewStyle
  3
ObjectDBX Classes
 90
     1025
 91
        1
280
     0
281
     0
  0
CLASS
  1
ACDBDETAILVIEWSTYLE
  2
AcDbDetailViewStyle
  3
ObjectDBX Classes
 90
     1025
 91
        1
280
     0
281
     0
  0
CLASS
  1
DICTIONARYVAR
  2
AcDbDictionaryVar
  3
ObjectDBX Classes
 90
        0
 91
        5
280
     0
281
     0
  0
CLASS
  1
SORTENTSTABLE
  2
AcDbSortentsTable
  3
ObjectDBX Classes
 90
        0
 91
        2
280
     0
281
     0
  0
CLASS
  1
CELLSTYLEMAP
  2
AcDbCellStyleMap
  3
ObjectDBX Classes
 90
     1152
 91
        3
280
     0
281
     0
  0
ENDSEC
  0
SECTION
  2
TABLES
  0
TABLE
  2
VPORT
  5
8
330
0
100
AcDbSymbolTable
 70
     1
1001
ACAD
1000
DbSaveVer
1071
      249
  0
VPORT
  5
57
330
8
100
AcDbSymbolTableRecord
100
AcDbViewportTableRecord
  2
*Active
 70
     0
 10
0.0
 20
0.0
 11
1.0
 21
1.0
 12
0.3380882727912393
 22
-1.333218253169548
 13
0.0
 23
0.0
 14
1.0
 24
1.0
 15
0.0
 25
0.0
 16
0.0
 26
0.0
 36
1.0
 17
10.50000721959722
 27
-14.85000416295415
 37
0.0
 40
18.56593971033797
 41
2.495448634590377
 42
50.0
 43
0.0
 44
0.0
 50
0.0
 51
0.0
 71
     0
 72
   100
 73
     1
 74
     1
 75
     0
 76
     0
 77
     0
 78
     0
281
     0
 65
     1
110
0.0
120
0.0
130
0.0
111
1.0
121
0.0
131
0.0
112
0.0
122
1.0
132
0.0
 79
     0
146
0.0
348
2F
 60
     3
 61
     5
292
     1
282
     1
141
0.0
142
0.0
 63
   250
421
  3355443
1001
ACAD_NAV_VCDISPLAY
1070
     3
  0
ENDTAB
  0
TABLE
  2
LTYPE
  5
5
330
0
100
AcDbSymbolTable
 70
     2
  0
LTYPE
  5
5B
330
5
100
AcDbSymbolTableRecord
100
AcDbLinetypeTableRecord
  2
ByBlock
 70
     0
  3

 72
    65
 73
     0
 40
0.0
  0
LTYPE
  5
5C
330
5
100
AcDbSymbolTableRecord
100
AcDbLinetypeTableRecord
  2
ByLayer
 70
     0
  3

 72
    65
 73
     0
 40
0.0
  0
LTYPE
  5
5D
330
5
100
AcDbSymbolTableRecord
100
AcDbLinetypeTableRecord
  2
Continuous
 70
     0
  3
Solid line
 72
    65
 73
     0
 40
0.0
  0
ENDTAB
  0
TABLE
  2
LAYER
  5
2
330
0
100
AcDbSymbolTable
 70
     2
  0
LAYER
  5
54
330
2
100
AcDbSymbolTableRecord
100
AcDbLayerTableRecord
  2
0
 70
     0
 62
     7
  6
Continuous
370
    -3
390
F
347
21
348
0
  0
LAYER
  5
78
330
2
100
AcDbSymbolTableRecord
100
AcDbLayerTableRecord
  2
Livello 1
 70
     0
 62
     7
  6
Continuous
370
     0
390
F
347
21
348
0
  0
ENDTAB
  0
TABLE
  2
STYLE
  5
3
330
0
100
AcDbSymbolTable
 70
     2
  0
STYLE
  5
55
330
3
100
AcDbSymbolTableRecord
100
AcDbTextStyleTableRecord
  2
Standard
 70
     0
 40
0.0
 41
1.0
 50
0.0
 71
     0
 42
0.2
  3
txt
  4

  0
STYLE
  5
5A
330
3
100
AcDbSymbolTableRecord
100
AcDbTextStyleTableRecord
  2
Annotative
 70
     0
 40
0.0
 41
1.0
 50
0.0
 71
     0
 42
0.2
  3
txt
  4

1001
AcadAnnotative
1000
AnnotativeData
1002
{
1070
     1
1070
     1
1002
}
  0
ENDTAB
  0
TABLE
  2
VIEW
  5
6
330
0
100
AcDbSymbolTable
 70
     0
  0
ENDTAB
  0
TABLE
  2
UCS
  5
7
330
0
100
AcDbSymbolTable
 70
     0
  0
ENDTAB
  0
TABLE
  2
APPID
  5
9
330
0
100
AcDbSymbolTable
 70
     4
  0
APPID
  5
56
330
9
100
AcDbSymbolTableRecord
100
AcDbRegAppTableRecord
  2
ACAD
 70
     0
  0
APPID
  5
5E
330
9
100
AcDbSymbolTableRecord
100
AcDbRegAppTableRecord
  2
AcadAnnotative
 70
     0
  0
APPID
  5
1A1
330
9
100
AcDbSymbolTableRecord
100
AcDbRegAppTableRecord
  2
ACAD_EXEMPT_FROM_CAD_STANDARDS
 70
     0
  0
APPID
  5
1AB
330
9
100
AcDbSymbolTableRecord
100
AcDbRegAppTableRecord
  2
ACAD_NAV_VCDISPLAY
 70
     0
  0
ENDTAB
  0
TABLE
  2
DIMSTYLE
  5
A
330
0
100
AcDbSymbolTable
 70
     2
100
AcDbDimStyleTable
 71
     1
340
58
  0
DIMSTYLE
105
58
330
A
100
AcDbSymbolTableRecord
100
AcDbDimStyleTableRecord
  2
Standard
 70
     0
340
55
  0
DIMSTYLE
105
59
330
A
100
AcDbSymbolTableRecord
100
AcDbDimStyleTableRecord
  2
Annotative
 70
     0
340
55
1001
AcadAnnotative
1000
AnnotativeData
1002
{
1070
     1
1070
     1
1002
}
  0
ENDTAB
  0
TABLE
  2
BLOCK_RECORD
  5
1
330
0
100
AcDbSymbolTable
 70
    16
  0
BLOCK_RECORD
  5
70
102
{ACAD_XDICTIONARY
360
18C
102
}
330
1
100
AcDbSymbolTableRecord
100
AcDbBlockTableRecord
  2
*Model_Space
340
73
 70
     0
280
     1
281
     0
  0
BLOCK_RECORD
  5
6C
330
1
100
AcDbSymbolTableRecord
100
AcDbBlockTableRecord
  2
*Paper_Space
340
6F
 70
     0
280
     1
281
     0
  0
BLOCK_RECORD
  5
74
330
1
100
AcDbSymbolTableRecord
100
AcDbBlockTableRecord
  2
*Paper_Space0
340
77
 70
     0
280
     1
281
     0
  0
BLOCK_RECORD
  5
7D
330
1
100
AcDbSymbolTableRecord
100
AcDbBlockTableRecord
  2
Block_0
340
0
 70
     0
280
     1
281
     0
  0
BLOCK_RECORD
  5
81
330
1
100
AcDbSymbolTableRecord
100
AcDbBlockTableRecord
  2
Block_1
340
0
102
{BLKREFS
331
82
102
}
 70
     0
280
     1
281
     0
  0
BLOCK_RECORD
  5
91
330
1
100
AcDbSymbolTableRecord
100
AcDbBlockTableRecord
  2
Block_2
340
0
 70
     0
280
     1
281
     0
  0
BLOCK_RECORD
  5
98
330
1
100
AcDbSymbolTableRecord
100
AcDbBlockTableRecord
  2
Block_3
340
0
 70
     0
280
     1
281
     0
  0
BLOCK_RECORD
  5
9F
330
1
100
AcDbSymbolTableRecord
100
AcDbBlockTableRecord
  2
Block_4
340
0
 70
     0
280
     1
281
     0
  0
BLOCK_RECORD
  5
A3
330
1
100
AcDbSymbolTableRecord
100
AcDbBlockTableRecord
  2
Block_5
340
0
102
{BLKREFS
331
A4
102
}
 70
     0
280
     1
281
     0
  0
BLOCK_RECORD
  5
A7
330
1
100
AcDbSymbolTableRecord
100
AcDbBlockTableRecord
  2
Block_6
340
0
102
{BLKREFS
331
A8
102
}
 70
     0
280
     1
281
     0
  0
BLOCK_RECORD
  5
B0
330
1
100
AcDbSymbolTableRecord
100
AcDbBlockTableRecord
  2
Block_7
340
0
102
{BLKREFS
331
B1
102
}
 70
     0
280
     1
281
     0
  0
BLOCK_RECORD
  5
B7
330
1
100
AcDbSymbolTableRecord
100
AcDbBlockTableRecord
  2
Block_8
340
0
102
{BLKREFS
331
B8
102
}
 70
     0
280
     1
281
     0
  0
BLOCK_RECORD
  5
BE
330
1
100
AcDbSymbolTableRecord
100
AcDbBlockTableRecord
  2
Block_9
340
0
 70
     0
280
     1
281
     0
  0
BLOCK_RECORD
  5
C2
330
1
100
AcDbSymbolTableRecord
100
AcDbBlockTableRecord
  2
Block_10
340
0
102
{BLKREFS
331
C3
102
}
 70
     0
280
     1
281
     0
  0
BLOCK_RECORD
  5
C6
330
1
100
AcDbSymbolTableRecord
100
AcDbBlockTableRecord
  2
Block_11
340
0
102
{BLKREFS
331
C7
102
}
 70
     0
280
     1
281
     0
  0
BLOCK_RECORD
  5
CF
330
1
100
AcDbSymbolTableRecord
100
AcDbBlockTableRecord
  2
Block_12
340
0
102
{BLKREFS
331
D0
102
}
 70
     0
280
     1
281
     0
  0
BLOCK_RECORD
  5
D6
330
1
100
AcDbSymbolTableRecord
100
AcDbBlockTableRecord
  2
Block_13
340
0
102
{BLKREFS
331
D7
102
}
 70
     0
280
     1
281
     0
  0
BLOCK_RECORD
  5
1AC
102
{ACAD_XDICTIONARY
360
1AE
102
}
330
1
100
AcDbSymbolTableRecord
100
AcDbBlockTableRecord
  2
A$Cc3ebea15
340
0
 70
     5
280
     1
281
     0
  0
ENDTAB
  0
ENDSEC
  0
SECTION
  2
BLOCKS
  0
BLOCK
  5
71
330
70
100
AcDbEntity
  8
0
100
AcDbBlockBegin
  2
*Model_Space
 70
     0
 10
0.0
 20
0.0
 30
0.0
  3
*Model_Space
  1

  0
ENDBLK
  5
72
330
70
100
AcDbEntity
  8
0
100
AcDbBlockEnd
  0
BLOCK
  5
6D
330
6C
100
AcDbEntity
 67
     1
  8
0
100
AcDbBlockBegin
  2
*Paper_Space
 70
     0
 10
0.0
 20
0.0
 30
0.0
  3
*Paper_Space
  1

  0
ENDBLK
  5
6E
330
6C
100
AcDbEntity
 67
     1
  8
0
100
AcDbBlockEnd
  0
BLOCK
  5
75
330
74
100
AcDbEntity
 67
     1
  8
0
100
AcDbBlockBegin
  2
*Paper_Space0
 70
     0
 10
0.0
 20
0.0
 30
0.0
  3
*Paper_Space0
  1

  0
ENDBLK
  5
76
330
74
100
AcDbEntity
 67
     1
  8
0
100
AcDbBlockEnd
  0
BLOCK
  5
7F
330
7D
100
AcDbEntity
  8
0
100
AcDbBlockBegin
  2
Block_0
 70
     0
 10
0.0
 20
0.0
 30
0.0
  3
Block_0
  1

  0
INSERT
  5
82
330
7D
100
AcDbEntity
  8
Livello 1
100
AcDbBlockReference
  2
Block_1
 10
0.0
 20
0.0
 30
0.0
  0
ENDBLK
  5
80
330
7D
100
AcDbEntity
  8
0
100
AcDbBlockEnd
  0
BLOCK
  5
83
330
81
100
AcDbEntity
  8
0
100
AcDbBlockBegin
  2
Block_1
 70
     0
 10
0.0
 20
0.0
 30
0.0
  3
Block_1
  1

  0
SPLINE
  5
85
330
81
100
AcDbEntity
  8
Livello 1
100
AcDbSpline
210
0.0
220
0.0
230
1.0
 70
     9
 71
     3
 72
    17
 73
    13
 74
     0
 42
0.000000001
 43
0.0000000001
 40
0.0
 40
0.0
 40
0.0
 40
0.0
 40
1.0
 40
1.0
 40
1.0
 40
2.0
 40
2.0
 40
2.0
 40
3.0
 40
3.0
 40
3.0
 40
4.0
 40
4.0
 40
4.0
 40
4.0
 10
10.15610703956166
 20
-17.10403781039413
 30
0.0
 10
10.16289387766761
 20
-17.11251274528784
 30
0.0
 10
10.17331529151049
 20
-17.11833495665791
 30
0.0
 10
10.18687174224495
 20
-17.11833495665791
 30
0.0
 10
10.21618950482442
 20
-17.11833495665791
 30
0.0
 10
10.23072780777217
 20
-17.09166991760208
 30
0.0
 10
10.23072780777217
 20
-17.0650393295011
 30
0.0
 10
10.23072780777217
 20
-17.05339490676095
 30
0.0
 10
10.22805785877111
 20
-17.04202609165963
 30
0.0
 10
10.22223564740103
 20
-17.03258653003004
 30
0.0
 10
10.22223564740103
 20
-17.03258653003004
 30
0.0
 10
10.15610703956166
 20
-17.10403781039413
 30
0.0
 10
10.15610703956166
 20
-17.10403781039413
 30
0.0
  0
SPLINE
  5
86
330
81
100
AcDbEntity
  8
Livello 1
100
AcDbSpline
210
0.0
220
0.0
230
1.0
 70
     9
 71
     3
 72
    17
 73
    13
 74
     0
 42
0.000000001
 43
0.0000000001
 40
0.0
 40
0.0
 40
0.0
 40
0.0
 40
1.0
 40
1.0
 40
1.0
 40
2.0
 40
2.0
 40
2.0
 40
3.0
 40
3.0
 40
3.0
 40
4.0
 40
4.0
 40
4.0
 40
4.0
 10
10.21787760161219
 20
-17.02628200529204
 30
0.0
 10
10.21086683229971
 20
-17.01756591371436
 30
0.0
 10
10.20044541845683
 20
-17.01174370234429
 30
0.0
 10
10.18687174224495
 20
-17.01174370234429
 30
0.0
 10
10.1575712051429
 20
-17.01174370234429
 30
0.0
 10
10.14303290219514
 20
-17.03837429044526
 30
0.0
 10
10.14303290219514
 20
-17.0650393295011
 30
0.0
 10
10.14303290219514
 20
-17.07664930128639
 30
0.0
 10
10.14570285119621
 20
-17.08805256734257
 30
0.0
 10
10.15174899377282
 20
-17.09773328565612
 30
0.0
 10
10.15174899377282
 20
-17.09773328565612
 30
0.0
 10
10.21787760161219
 20
-17.02628200529204
 30
0.0
 10
10.21787760161219
 20
-17.02628200529204
 30
0.0
  0
SPLINE
  5
87
330
81
100
AcDbEntity
  8
Livello 1
100
AcDbSpline
210
0.0
220
0.0
230
1.0
 70
    11
 71
     3
 72
    41
 73
    37
 74
     0
 42
0.000000001
 43
0.0000000001
 40
0.0
 40
0.0
 40
0.0
 40
0.0
 40
1.0
 40
1.0
 40
1.0
 40
2.0
 40
2.0
 40
2.0
 40
3.0
 40
3.0
 40
3.0
 40
4.0
 40
4.0
 40
4.0
 40
5.0
 40
5.0
 40
5.0
 40
6.0
 40
6.0
 40
6.0
 40
7.0
 40
7.0
 40
7.0
 40
8.0
 40
8.0
 40
8.0
 40
9.0
 40
9.0
 40
9.0
 40
10.0
 40
10.0
 40
10.0
 40
11.0
 40
11.0
 40
11.0
 40
12.0
 40
12.0
 40
12.0
 40
12.0
 10
10.24598958077183
 20
-17.00664496102611
 30
0.0
 10
10.24598958077183
 20
-17.00664496102611
 30
0.0
 10
10.23289821792788
 20
-17.0209421072899
 30
0.0
 10
10.23289821792788
 20
-17.0209421072899
 30
0.0
 10
10.24163153498299
 20
-17.03306884339798
 30
0.0
 10
10.24598958077183
 20
-17.0485717730816
 30
0.0
 10
10.24598958077183
 20
-17.0650393295011
 30
0.0
 10
10.24598958077183
 20
-17.10086832254769
 30
0.0
 10
10.22514675308607
 20
-17.13115071186304
 30
0.0
 10
10.18687174224495
 20
-17.13115071186304
 30
0.0
 10
10.16968071577355
 20
-17.13115071186304
 30
0.0
 10
10.1558658828777
 20
-17.125087343809
 30
0.0
 10
10.14618516456414
 20
-17.11468315544355
 30
0.0
 10
10.14618516456414
 20
-17.11468315544355
 30
0.0
 10
10.13188801830036
 20
-17.13018608512717
 30
0.0
 10
10.13188801830036
 20
-17.13018608512717
 30
0.0
 10
10.13188801830036
 20
-17.13018608512717
 30
0.0
 10
10.12656534577565
 20
-17.12532850049297
 30
0.0
 10
10.12656534577565
 20
-17.12532850049297
 30
0.0
 10
10.12656534577565
 20
-17.12532850049297
 30
0.0
 10
10.14134480540737
 20
-17.10910210075744
 30
0.0
 10
10.14134480540737
 20
-17.10910210075744
 30
0.0
 10
10.13237033166829
 20
-17.09749212897215
 30
0.0
 10
10.12777112919549
 20
-17.08174804260456
 30
0.0
 10
10.12777112919549
 20
-17.0650393295011
 30
0.0
 10
10.12777112919549
 20
-17.02917588549965
 30
0.0
 10
10.14861395688125
 20
-16.9988934961843
 30
0.0
 10
10.18687174224495
 20
-16.9988934961843
 30
0.0
 10
10.20432115087774
 20
-16.9988934961843
 30
0.0
 10
10.21837714045755
 20
-17.00519802092231
 30
0.0
 10
10.22805785877111
 20
-17.0153610526038
 30
0.0
 10
10.22805785877111
 20
-17.0153610526038
 30
0.0
 10
10.2406496827697
 20
-17.00182182734677
 30
0.0
 10
10.2406496827697
 20
-17.00182182734677
 30
0.0
 10
10.2406496827697
 20
-17.00182182734677
 30
0.0
 10
10.24598958077183
 20
-17.00664496102611
 30
0.0
 10
10.24598958077183
 20
-17.00664496102611
 30
0.0
  0
HATCH
  5
88
330
81
100
AcDbEntity
  8
Livello 1
 62
    18
420
        0
440
 33554687
100
AcDbHatch
 10
0.0
 20
0.0
 30
0.0
210
0.0
220
0.0
230
1.0
  2
SOLID
 70
     1
 71
     1
 91
        3
 92
        1
 93
        1
 72
     4
 94
        3
 73
     0
 74
     0
 95
       17
 96
       13
 40
0.0
 40
0.0
 40
0.0
 40
0.0
 40
1.0
 40
1.0
 40
1.0
 40
2.0
 40
2.0
 40
2.0
 40
3.0
 40
3.0
 40
3.0
 40
4.0
 40
4.0
 40
4.0
 40
4.0
 10
10.15610703956166
 20
-17.10403781039413
 10
10.16289387766761
 20
-17.11251274528784
 10
10.17331529151049
 20
-17.11833495665791
 10
10.18687174224495
 20
-17.11833495665791
 10
10.21618950482442
 20
-17.11833495665791
 10
10.23072780777217
 20
-17.09166991760208
 10
10.23072780777217
 20
-17.0650393295011
 10
10.23072780777217
 20
-17.05339490676095
 10
10.22805785877111
 20
-17.04202609165963
 10
10.22223564740103
 20
-17.03258653003004
 10
10.22223564740103
 20
-17.03258653003004
 10
10.15610703956166
 20
-17.10403781039413
 10
10.15610703956166
 20
-17.10403781039413
 97
        0
 97
        1
330
85
 92
        1
 93
        1
 72
     4
 94
        3
 73
     0
 74
     0
 95
       17
 96
       13
 40
0.0
 40
0.0
 40
0.0
 40
0.0
 40
1.0
 40
1.0
 40
1.0
 40
2.0
 40
2.0
 40
2.0
 40
3.0
 40
3.0
 40
3.0
 40
4.0
 40
4.0
 40
4.0
 40
4.0
 10
10.21787760161219
 20
-17.02628200529204
 10
10.21086683229971
 20
-17.01756591371436
 10
10.20044541845683
 20
-17.01174370234429
 10
10.18687174224495
 20
-17.01174370234429
 10
10.1575712051429
 20
-17.01174370234429
 10
10.14303290219514
 20
-17.03837429044526
 10
10.14303290219514
 20
-17.0650393295011
 10
10.14303290219514
 20
-17.07664930128639
 10
10.14570285119621
 20
-17.08805256734257
 10
10.15174899377282
 20
-17.09773328565612
 10
10.15174899377282
 20
-17.09773328565612
 10
10.21787760161219
 20
-17.02628200529204
 10
10.21787760161219
 20
-17.02628200529204
 97
        0
 97
        1
330
86
 92
        1
 93
        1
 72
     4
 94
        3
 73
     0
 74
     0
 95
       41
 96
       37
 40
0.0
 40
0.0
 40
0.0
 40
0.0
 40
1.0
 40
1.0
 40
1.0
 40
2.0
 40
2.0
 40
2.0
 40
3.0
 40
3.0
 40
3.0
 40
4.0
 40
4.0
 40
4.0
 40
5.0
 40
5.0
 40
5.0
 40
6.0
 40
6.0
 40
6.0
 40
7.0
 40
7.0
 40
7.0
 40
8.0
 40
8.0
 40
8.0
 40
9.0
 40
9.0
 40
9.0
 40
10.0
 40
10.0
 40
10.0
 40
11.0
 40
11.0
 40
11.0
 40
12.0
 40
12.0
 40
12.0
 40
12.0
 10
10.24598958077183
 20
-17.00664496102611
 10
10.24598958077183
 20
-17.00664496102611
 10
10.23289821792788
 20
-17.0209421072899
 10
10.23289821792788
 20
-17.0209421072899
 10
10.24163153498299
 20
-17.03306884339798
 10
10.24598958077183
 20
-17.0485717730816
 10
10.24598958077183
 20
-17.0650393295011
 10
10.24598958077183
 20
-17.10086832254769
 10
10.22514675308607
 20
-17.13115071186304
 10
10.18687174224495
 20
-17.13115071186304
 10
10.16968071577355
 20
-17.13115071186304
 10
10.1558658828777
 20
-17.125087343809
 10
10.14618516456414
 20
-17.11468315544355
 10
10.14618516456414
 20
-17.11468315544355
 10
10.13188801830036
 20
-17.13018608512717
 10
10.13188801830036
 20
-17.13018608512717
 10
10.13188801830036
 20
-17.13018608512717
 10
10.12656534577565
 20
-17.12532850049297
 10
10.12656534577565
 20
-17.12532850049297
 10
10.12656534577565
 20
-17.12532850049297
 10
10.14134480540737
 20
-17.10910210075744
 10
10.14134480540737
 20
-17.10910210075744
 10
10.13237033166829
 20
-17.09749212897215
 10
10.12777112919549
 20
-17.08174804260456
 10
10.12777112919549
 20
-17.0650393295011
 10
10.12777112919549
 20
-17.02917588549965
 10
10.14861395688125
 20
-16.9988934961843
 10
10.18687174224495
 20
-16.9988934961843
 10
10.20432115087774
 20
-16.9988934961843
 10
10.21837714045755
 20
-17.00519802092231
 10
10.22805785877111
 20
-17.0153610526038
 10
10.22805785877111
 20
-17.0153610526038
 10
10.2406496827697
 20
-17.00182182734677
 10
10.2406496827697
 20
-17.00182182734677
 10
10.2406496827697
 20
-17.00182182734677
 10
10.24598958077183
 20
-17.00664496102611
 10
10.24598958077183
 20
-17.00664496102611
 97
        0
 97
        1
330
87
 75
     2
 76
     1
 98
        1
 10
0.0
 20
0.0
450
        0
451
        0
460
0.0
461
0.0
452
        0
462
0.0
453
        0
470

  0
SPLINE
  5
89
330
81
100
AcDbEntity
  8
Livello 1
100
AcDbSpline
210
0.0
220
0.0
230
1.0
 70
    11
 71
     3
 72
    17
 73
    13
 74
     0
 42
0.000000001
 43
0.0000000001
 40
0.0
 40
0.0
 40
0.0
 40
0.0
 40
1.0
 40
1.0
 40
1.0
 40
2.0
 40
2.0
 40
2.0
 40
3.0
 40
3.0
 40
3.0
 40
4.0
 40
4.0
 40
4.0
 40
4.0
 10
10.40685831445557
 20
-17.07254963765894
 30
0.0
 10
10.40685831445557
 20
-17.07254963765894
 30
0.0
 10
10.40685831445557
 20
-16.9802555296091
 30
0.0
 10
10.40685831445557
 20
-16.9802555296091
 30
0.0
 10
10.40685831445557
 20
-16.9802555296091
 30
0.0
 10
10.40637600108764
 20
-16.9802555296091
 30
0.0
 10
10.40637600108764
 20
-16.9802555296091
 30
0.0
 10
10.40637600108764
 20
-16.9802555296091
 30
0.0
 10
10.34241780340398
 20
-17.07254963765894
 30
0.0
 10
10.34241780340398
 20
-17.07254963765894
 30
0.0
 10
10.34241780340398
 20
-17.07254963765894
 30
0.0
 10
10.40685831445557
 20
-17.07254963765894
 30
0.0
 10
10.40685831445557
 20
-17.07254963765894
 30
0.0
  0
SPLINE
  5
8A
330
81
100
AcDbEntity
  8
Livello 1
100
AcDbSpline
210
0.0
220
0.0
230
1.0
 70
    11
 71
     3
 72
    38
 73
    34
 74
     0
 42
0.000000001
 43
0.0000000001
 40
0.0
 40
0.0
 40
0.0
 40
0.0
 40
1.0
 40
1.0
 40
1.0
 40
2.0
 40
2.0
 40
2.0
 40
3.0
 40
3.0
 40
3.0
 40
4.0
 40
4.0
 40
4.0
 40
5.0
 40
5.0
 40
5.0
 40
6.0
 40
6.0
 40
6.0
 40
7.0
 40
7.0
 40
7.0
 40
8.0
 40
8.0
 40
8.0
 40
9.0
 40
9.0
 40
9.0
 40
10.0
 40
10.0
 40
10.0
 40
11.0
 40
11.0
 40
11.0
 40
11.0
 10
10.32862019598555
 20
-17.07058593323235
 30
0.0
 10
10.32862019598555
 20
-17.07058593323235
 30
0.0
 10
10.40709947113954
 20
-16.95796576181953
 30
0.0
 10
10.40709947113954
 20
-16.95796576181953
 30
0.0
 10
10.40709947113954
 20
-16.95796576181953
 30
0.0
 10
10.42091430403539
 20
-16.95796576181953
 30
0.0
 10
10.42091430403539
 20
-16.95796576181953
 30
0.0
 10
10.42091430403539
 20
-16.95796576181953
 30
0.0
 10
10.42091430403539
 20
-17.07254963765894
 30
0.0
 10
10.42091430403539
 20
-17.07254963765894
 30
0.0
 10
10.42091430403539
 20
-17.07254963765894
 30
0.0
 10
10.44633910871654
 20
-17.07254963765894
 30
0.0
 10
10.44633910871654
 20
-17.07254963765894
 30
0.0
 10
10.44633910871654
 20
-17.07254963765894
 30
0.0
 10
10.44633910871654
 20
-17.08536539286407
 30
0.0
 10
10.44633910871654
 20
-17.08536539286407
 30
0.0
 10
10.44633910871654
 20
-17.08536539286407
 30
0.0
 10
10.42091430403539
 20
-17.08536539286407
 30
0.0
 10
10.42091430403539
 20
-17.08536539286407
 30
0.0
 10
10.42091430403539
 20
-17.08536539286407
 30
0.0
 10
10.42091430403539
 20
-17.12753336160353
 30
0.0
 10
10.42091430403539
 20
-17.12753336160353
 30
0.0
 10
10.42091430403539
 20
-17.12753336160353
 30
0.0
 10
10.40685831445557
 20
-17.12753336160353
 30
0.0
 10
10.40685831445557
 20
-17.12753336160353
 30
0.0
 10
10.40685831445557
 20
-17.12753336160353
 30
0.0
 10
10.40685831445557
 20
-17.08536539286407
 30
0.0
 10
10.40685831445557
 20
-17.08536539286407
 30
0.0
 10
10.40685831445557
 20
-17.08536539286407
 30
0.0
 10
10.32862019598555
 20
-17.08536539286407
 30
0.0
 10
10.32862019598555
 20
-17.08536539286407
 30
0.0
 10
10.32862019598555
 20
-17.08536539286407
 30
0.0
 10
10.32862019598555
 20
-17.07058593323235
 30
0.0
 10
10.32862019598555
 20
-17.07058593323235
 30
0.0
  0
HATCH
  5
8B
330
81
100
AcDbEntity
  8
Livello 1
 62
    18
420
        0
440
 33554687
100
AcDbHatch
 10
0.0
 20
0.0
 30
0.0
210
0.0
220
0.0
230
1.0
  2
SOLID
 70
     1
 71
     1
 91
        2
 92
        1
 93
        1
 72
     4
 94
        3
 73
     0
 74
     0
 95
       17
 96
       13
 40
0.0
 40
0.0
 40
0.0
 40
0.0
 40
1.0
 40
1.0
 40
1.0
 40
2.0
 40
2.0
 40
2.0
 40
3.0
 40
3.0
 40
3.0
 40
4.0
 40
4.0
 40
4.0
 40
4.0
 10
10.40685831445557
 20
-17.07254963765894
 10
10.40685831445557
 20
-17.07254963765894
 10
10.40685831445557
 20
-16.9802555296091
 10
10.40685831445557
 20
-16.9802555296091
 10
10.40685831445557
 20
-16.9802555296091
 10
10.40637600108764
 20
-16.9802555296091
 10
10.40637600108764
 20
-16.9802555296091
 10
10.40637600108764
 20
-16.9802555296091
 10
10.34241780340398
 20
-17.07254963765894
 10
10.34241780340398
 20
-17.07254963765894
 10
10.34241780340398
 20
-17.07254963765894
 10
10.40685831445557
 20
-17.07254963765894
 10
10.40685831445557
 20
-17.07254963765894
 97
        0
 97
        1
330
89
 92
        1
 93
        1
 72
     4
 94
        3
 73
     0
 74
     0
 95
       38
 96
       34
 40
0.0
 40
0.0
 40
0.0
 40
0.0
 40
1.0
 40
1.0
 40
1.0
 40
2.0
 40
2.0
 40
2.0
 40
3.0
 40
3.0
 40
3.0
 40
4.0
 40
4.0
 40
4.0
 40
5.0
 40
5.0
 40
5.0
 40
6.0
 40
6.0
 40
6.0
 40
7.0
 40
7.0
 40
7.0
 40
8.0
 40
8.0
 40
8.0
 40
9.0
 40
9.0
 40
9.0
 40
10.0
 40
10.0
 40
10.0
 40
11.0
 40
11.0
 40
11.0
 40
11.0
 10
10.32862019598555
 20
-17.07058593323235
 10
10.32862019598555
 20
-17.07058593323235
 10
10.40709947113954
 20
-16.95796576181953
 10
10.40709947113954
 20
-16.95796576181953
 10
10.40709947113954
 20
-16.95796576181953
 10
10.42091430403539
 20
-16.95796576181953
 10
10.42091430403539
 20
-16.95796576181953
 10
10.42091430403539
 20
-16.95796576181953
 10
10.42091430403539
 20
-17.07254963765894
 10
10.42091430403539
 20
-17.07254963765894
 10
10.42091430403539
 20
-17.07254963765894
 10
10.44633910871654
 20
-17.07254963765894
 10
10.44633910871654
 20
-17.07254963765894
 10
10.44633910871654
 20
-17.07254963765894
 10
10.44633910871654
 20
-17.08536539286407
 10
10.44633910871654
 20
-17.08536539286407
 10
10.44633910871654
 20
-17.08536539286407
 10
10.42091430403539
 20
-17.08536539286407
 10
10.42091430403539
 20
-17.08536539286407
 10
10.42091430403539
 20
-17.08536539286407
 10
10.42091430403539
 20
-17.12753336160353
 10
10.42091430403539
 20
-17.12753336160353
 10
10.42091430403539
 20
-17.12753336160353
 10
10.40685831445557
 20
-17.12753336160353
 10
10.40685831445557
 20
-17.12753336160353
 10
10.40685831445557
 20
-17.12753336160353
 10
10.40685831445557
 20
-17.08536539286407
 10
10.40685831445557
 20
-17.08536539286407
 10
10.40685831445557
 20
-17.08536539286407
 10
10.32862019598555
 20
-17.08536539286407
 10
10.32862019598555
 20
-17.08536539286407
 10
10.32862019598555
 20
-17.08536539286407
 10
10.32862019598555
 20
-17.07058593323235
 10
10.32862019598555
 20
-17.07058593323235
 97
        0
 97
        1
330
8A
 75
     2
 76
     1
 98
        1
 10
0.0
 20
0.0
450
        0
451
        0
460
0.0
461
0.0
452
        0
462
0.0
453
        0
470

  0
SPLINE
  5
8C
330
81
100
AcDbEntity
  8
Livello 1
100
AcDbSpline
210
0.0
220
0.0
230
1.0
 70
     9
 71
     3
 72
    53
 73
    49
 74
     0
 42
0.000000001
 43
0.0000000001
 40
0.0
 40
0.0
 40
0.0
 40
0.0
 40
1.0
 40
1.0
 40
1.0
 40
2.0
 40
2.0
 40
2.0
 40
3.0
 40
3.0
 40
3.0
 40
4.0
 40
4.0
 40
4.0
 40
5.0
 40
5.0
 40
5.0
 40
6.0
 40
6.0
 40
6.0
 40
7.0
 40
7.0
 40
7.0
 40
8.0
 40
8.0
 40
8.0
 40
9.0
 40
9.0
 40
9.0
 40
10.0
 40
10.0
 40
10.0
 40
11.0
 40
11.0
 40
11.0
 40
12.0
 40
12.0
 40
12.0
 40
13.0
 40
13.0
 40
13.0
 40
14.0
 40
14.0
 40
14.0
 40
15.0
 40
15.0
 40
15.0
 40
16.0
 40
16.0
 40
16.0
 40
16.0
 10
10.47987711326545
 20
-17.07909531908092
 30
0.0
 10
10.48060058331735
 20
-17.10259087029032
 30
0.0
 10
10.49829114863411
 20
-17.11833495665791
 30
0.0
 10
10.52154554315954
 20
-17.11833495665791
 30
0.0
 10
10.54771104337001
 20
-17.11833495665791
 30
0.0
 10
10.56393744310554
 20
-17.09676865892025
 30
0.0
 10
10.56393744310554
 20
-17.07206732429101
 30
0.0
 10
10.56393744310554
 20
-17.04709038202295
 30
0.0
 10
10.54576456442085
 20
-17.02797010207981
 30
0.0
 10
10.52058091642367
 20
-17.02797010207981
 30
0.0
 10
10.50556030010798
 20
-17.02797010207981
 30
0.0
 10
10.49102199716023
 20
-17.03523925355369
 30
0.0
 10
10.48278821895048
 20
-17.04808945971367
 30
0.0
 10
10.48278821895048
 20
-17.04808945971367
 30
0.0
 10
10.46971408158396
 20
-17.04808945971367
 30
0.0
 10
10.46971408158396
 20
-17.04808945971367
 30
0.0
 10
10.46971408158396
 20
-17.04808945971367
 30
0.0
 10
10.48618163800345
 20
-16.96013617197524
 30
0.0
 10
10.48618163800345
 20
-16.96013617197524
 30
0.0
 10
10.48618163800345
 20
-16.96013617197524
 30
0.0
 10
10.57096543789545
 20
-16.96013617197524
 30
0.0
 10
10.57096543789545
 20
-16.96013617197524
 30
0.0
 10
10.57096543789545
 20
-16.96013617197524
 30
0.0
 10
10.57096543789545
 20
-16.97419216155506
 30
0.0
 10
10.57096543789545
 20
-16.97419216155506
 30
0.0
 10
10.57096543789545
 20
-16.97419216155506
 30
0.0
 10
10.4968442085303
 20
-16.97419216155506
 30
0.0
 10
10.4968442085303
 20
-16.97419216155506
 30
0.0
 10
10.4968442085303
 20
-16.97419216155506
 30
0.0
 10
10.48594048131948
 20
-17.03038166891948
 30
0.0
 10
10.48594048131948
 20
-17.03038166891948
 30
0.0
 10
10.48594048131948
 20
-17.03038166891948
 30
0.0
 10
10.48642279468742
 20
-17.03086398228742
 30
0.0
 10
10.48642279468742
 20
-17.03086398228742
 30
0.0
 10
10.49489772958113
 20
-17.0209421072899
 30
0.0
 10
10.50919487584492
 20
-17.01511989591983
 30
0.0
 10
10.52226901321144
 20
-17.01511989591983
 30
0.0
 10
10.5571506049996
 20
-17.01511989591983
 30
0.0
 10
10.5791992161052
 20
-17.0395800738651
 30
0.0
 10
10.5791992161052
 20
-17.07375542107878
 30
0.0
 10
10.5791992161052
 20
-17.10693169060174
 30
0.0
 10
10.55280978468818
 20
-17.13115071186304
 30
0.0
 10
10.5203397597397
 20
-17.13115071186304
 30
0.0
 10
10.48885158700452
 20
-17.13115071186304
 30
0.0
 10
10.46533881031769
 20
-17.111306961868
 30
0.0
 10
10.46461534026579
 20
-17.07909531908092
 30
0.0
 10
10.46461534026579
 20
-17.07909531908092
 30
0.0
 10
10.47987711326545
 20
-17.07909531908092
 30
0.0
 10
10.47987711326545
 20
-17.07909531908092
 30
0.0
  0
HATCH
  5
8D
330
81
100
AcDbEntity
  8
Livello 1
 62
    18
420
        0
440
 33554687
100
AcDbHatch
 10
0.0
 20
0.0
 30
0.0
210
0.0
220
0.0
230
1.0
  2
SOLID
 70
     1
 71
     1
 91
        1
 92
        1
 93
        1
 72
     4
 94
        3
 73
     0
 74
     0
 95
       53
 96
       49
 40
0.0
 40
0.0
 40
0.0
 40
0.0
 40
1.0
 40
1.0
 40
1.0
 40
2.0
 40
2.0
 40
2.0
 40
3.0
 40
3.0
 40
3.0
 40
4.0
 40
4.0
 40
4.0
 40
5.0
 40
5.0
 40
5.0
 40
6.0
 40
6.0
 40
6.0
 40
7.0
 40
7.0
 40
7.0
 40
8.0
 40
8.0
 40
8.0
 40
9.0
 40
9.0
 40
9.0
 40
10.0
 40
10.0
 40
10.0
 40
11.0
 40
11.0
 40
11.0
 40
12.0
 40
12.0
 40
12.0
 40
13.0
 40
13.0
 40
13.0
 40
14.0
 40
14.0
 40
14.0
 40
15.0
 40
15.0
 40
15.0
 40
16.0
 40
16.0
 40
16.0
 40
16.0
 10
10.47987711326545
 20
-17.07909531908092
 10
10.48060058331735
 20
-17.10259087029032
 10
10.49829114863411
 20
-17.11833495665791
 10
10.52154554315954
 20
-17.11833495665791
 10
10.54771104337001
 20
-17.11833495665791
 10
10.56393744310554
 20
-17.09676865892025
 10
10.56393744310554
 20
-17.07206732429101
 10
10.56393744310554
 20
-17.04709038202295
 10
10.54576456442085
 20
-17.02797010207981
 10
10.52058091642367
 20
-17.02797010207981
 10
10.50556030010798
 20
-17.02797010207981
 10
10.49102199716023
 20
-17.03523925355369
 10
10.48278821895048
 20
-17.04808945971367
 10
10.48278821895048
 20
-17.04808945971367
 10
10.46971408158396
 20
-17.04808945971367
 10
10.46971408158396
 20
-17.04808945971367
 10
10.46971408158396
 20
-17.04808945971367
 10
10.48618163800345
 20
-16.96013617197524
 10
10.48618163800345
 20
-16.96013617197524
 10
10.48618163800345
 20
-16.96013617197524
 10
10.57096543789545
 20
-16.96013617197524
 10
10.57096543789545
 20
-16.96013617197524
 10
10.57096543789545
 20
-16.96013617197524
 10
10.57096543789545
 20
-16.97419216155506
 10
10.57096543789545
 20
-16.97419216155506
 10
10.57096543789545
 20
-16.97419216155506
 10
10.4968442085303
 20
-16.97419216155506
 10
10.4968442085303
 20
-16.97419216155506
 10
10.4968442085303
 20
-16.97419216155506
 10
10.48594048131948
 20
-17.03038166891948
 10
10.48594048131948
 20
-17.03038166891948
 10
10.48594048131948
 20
-17.03038166891948
 10
10.48642279468742
 20
-17.03086398228742
 10
10.48642279468742
 20
-17.03086398228742
 10
10.49489772958113
 20
-17.0209421072899
 10
10.50919487584492
 20
-17.01511989591983
 10
10.52226901321144
 20
-17.01511989591983
 10
10.5571506049996
 20
-17.01511989591983
 10
10.5791992161052
 20
-17.0395800738651
 10
10.5791992161052
 20
-17.07375542107878
 10
10.5791992161052
 20
-17.10693169060174
 10
10.55280978468818
 20
-17.13115071186304
 10
10.5203397597397
 20
-17.13115071186304
 10
10.48885158700452
 20
-17.13115071186304
 10
10.46533881031769
 20
-17.111306961868
 10
10.46461534026579
 20
-17.07909531908092
 10
10.46461534026579
 20
-17.07909531908092
 10
10.47987711326545
 20
-17.07909531908092
 10
10.47987711326545
 20
-17.07909531908092
 97
        0
 97
        1
330
8C
 75
     2
 76
     1
 98
        1
 10
0.0
 20
0.0
450
        0
451
        0
460
0.0
461
0.0
452
        0
462
0.0
453
        0
470

  0
SPLINE
  5
8E
330
81
100
AcDbEntity
  8
Livello 1
100
AcDbSpline
210
0.0
220
0.0
230
1.0
 70
     9
 71
     3
 72
    17
 73
    13
 74
     0
 42
0.000000001
 43
0.0000000001
 40
0.0
 40
0.0
 40
0.0
 40
0.0
 40
1.0
 40
1.0
 40
1.0
 40
2.0
 40
2.0
 40
2.0
 40
3.0
 40
3.0
 40
3.0
 40
4.0
 40
4.0
 40
4.0
 40
4.0
 10
10.61392577859652
 20
-17.0437141884474
 30
0.0
 10
10.61392577859652
 20
-17.07327310771084
 30
0.0
 10
10.61902451991469
 20
-17.11833495665791
 30
0.0
 10
10.65778184412375
 20
-17.11833495665791
 30
0.0
 10
10.69653916833281
 20
-17.11833495665791
 30
0.0
 10
10.70163790965098
 20
-17.07327310771084
 30
0.0
 10
10.70163790965098
 20
-17.0437141884474
 30
0.0
 10
10.70163790965098
 20
-17.01439642586793
 30
0.0
 10
10.69653916833281
 20
-16.96933457692086
 30
0.0
 10
10.65778184412375
 20
-16.96933457692086
 30
0.0
 10
10.61902451991469
 20
-16.96933457692086
 30
0.0
 10
10.61392577859652
 20
-17.01439642586793
 30
0.0
 10
10.61392577859652
 20
-17.0437141884474
 30
0.0
  0
SPLINE
  5
8F
330
81
100
AcDbEntity
  8
Livello 1
100
AcDbSpline
210
0.0
220
0.0
230
1.0
 70
     9
 71
     3
 72
    17
 73
    13
 74
     0
 42
0.000000001
 43
0.0000000001
 40
0.0
 40
0.0
 40
0.0
 40
0.0
 40
1.0
 40
1.0
 40
1.0
 40
2.0
 40
2.0
 40
2.0
 40
3.0
 40
3.0
 40
3.0
 40
4.0
 40
4.0
 40
4.0
 40
4.0
 10
10.71689968265063
 20
-17.0437141884474
 30
0.0
 10
10.71689968265063
 20
-17.08343613939233
 30
0.0
 10
10.70718451338223
 20
-17.13115071186304
 30
0.0
 10
10.65778184412375
 20
-17.13115071186304
 30
0.0
 10
10.60837917486526
 20
-17.13115071186304
 30
0.0
 10
10.59866400559686
 20
-17.08343613939233
 30
0.0
 10
10.59866400559686
 20
-17.04395534513137
 30
0.0
 10
10.59866400559686
 20
-17.00423339418644
 30
0.0
 10
10.60837917486526
 20
-16.95651882171573
 30
0.0
 10
10.65778184412375
 20
-16.95651882171573
 30
0.0
 10
10.70718451338223
 20
-16.95651882171573
 30
0.0
 10
10.71689968265063
 20
-17.00423339418644
 30
0.0
 10
10.71689968265063
 20
-17.0437141884474
 30
0.0
  0
HATCH
  5
90
330
81
100
AcDbEntity
  8
Livello 1
 62
    18
420
        0
440
 33554687
100
AcDbHatch
 10
0.0
 20
0.0
 30
0.0
210
0.0
220
0.0
230
1.0
  2
SOLID
 70
     1
 71
     1
 91
        2
 92
        1
 93
        1
 72
     4
 94
        3
 73
     0
 74
     0
 95
       17
 96
       13
 40
0.0
 40
0.0
 40
0.0
 40
0.0
 40
1.0
 40
1.0
 40
1.0
 40
2.0
 40
2.0
 40
2.0
 40
3.0
 40
3.0
 40
3.0
 40
4.0
 40
4.0
 40
4.0
 40
4.0
 10
10.61392577859652
 20
-17.0437141884474
 10
10.61392577859652
 20
-17.07327310771084
 10
10.61902451991469
 20
-17.11833495665791
 10
10.65778184412375
 20
-17.11833495665791
 10
10.69653916833281
 20
-17.11833495665791
 10
10.70163790965098
 20
-17.07327310771084
 10
10.70163790965098
 20
-17.0437141884474
 10
10.70163790965098
 20
-17.01439642586793
 10
10.69653916833281
 20
-16.96933457692086
 10
10.65778184412375
 20
-16.96933457692086
 10
10.61902451991469
 20
-16.96933457692086
 10
10.61392577859652
 20
-17.01439642586793
 10
10.61392577859652
 20
-17.0437141884474
 97
        0
 97
        1
330
8E
 92
        1
 93
        1
 72
     4
 94
        3
 73
     0
 74
     0
 95
       17
 96
       13
 40
0.0
 40
0.0
 40
0.0
 40
0.0
 40
1.0
 40
1.0
 40
1.0
 40
2.0
 40
2.0
 40
2.0
 40
3.0
 40
3.0
 40
3.0
 40
4.0
 40
4.0
 40
4.0
 40
4.0
 10
10.71689968265063
 20
-17.0437141884474
 10
10.71689968265063
 20
-17.08343613939233
 10
10.70718451338223
 20
-17.13115071186304
 10
10.65778184412375
 20
-17.13115071186304
 10
10.60837917486526
 20
-17.13115071186304
 10
10.59866400559686
 20
-17.08343613939233
 10
10.59866400559686
 20
-17.04395534513137
 10
10.59866400559686
 20
-17.00423339418644
 10
10.60837917486526
 20
-16.95651882171573
 10
10.65778184412375
 20
-16.95651882171573
 10
10.70718451338223
 20
-16.95651882171573
 10
10.71689968265063
 20
-17.00423339418644
 10
10.71689968265063
 20
-17.0437141884474
 97
        0
 97
        1
330
8F
 75
     2
 76
     1
 98
        1
 10
0.0
 20
0.0
450
        0
451
        0
460
0.0
461
0.0
452
        0
462
0.0
453
        0
470

  0
ENDBLK
  5
84
330
81
100
AcDbEntity
  8
0
100
AcDbBlockEnd
  0
BLOCK
  5
93
330
91
100
AcDbEntity
  8
0
100
AcDbBlockBegin
  2
Block_2
 70
     0
 10
0.0
 20
0.0
 30
0.0
  3
Block_2
  1

  0
LINE
  5
95
330
91
100
AcDbEntity
  8
Livello 1
 62
    18
420
        0
370
     9
100
AcDbLine
 10
10.11758656559833
 20
-17.04620919968907
 30
0.0
 11
6.917337825662674
 21
-17.04620919968907
 31
0.0
  0
LWPOLYLINE
  5
96
330
91
100
AcDbEntity
  8
Livello 1
100
AcDbPolyline
 90
        3
 70
     1
 43
0.0
 10
6.660625052979469
 20
-17.04708628276061
 10
6.91552200572664
 20
-16.96210892619778
 10
6.91552200572664
 20
-17.13030947318036
  0
HATCH
  5
97
330
91
100
AcDbEntity
  8
Livello 1
 62
    18
420
        0
440
 33554687
100
AcDbHatch
 10
0.0
 20
0.0
 30
0.0
210
0.0
220
0.0
230
1.0
  2
SOLID
 70
     1
 71
     1
 91
        1
 92
        1
 93
        3
 72
     1
 10
6.660625052979469
 20
-17.04708628276061
 11
6.91552200572664
 21
-16.96210892619778
 72
     1
 10
6.91552200572664
 20
-16.96210892619778
 11
6.91552200572664
 21
-17.13030947318036
 72
     1
 10
6.91552200572664
 20
-17.13030947318036
 11
6.660625052979469
 21
-17.04708628276061
 97
        1
330
96
 75
     0
 76
     1
 98
        1
 10
0.0
 20
0.0
450
        0
451
        0
460
0.0
461
0.0
452
        0
462
0.0
453
        0
470

  0
ENDBLK
  5
94
330
91
100
AcDbEntity
  8
0
100
AcDbBlockEnd
  0
BLOCK
  5
9A
330
98
100
AcDbEntity
  8
0
100
AcDbBlockBegin
  2
Block_3
 70
     0
 10
0.0
 20
0.0
 30
0.0
  3
Block_3
  1

  0
LINE
  5
9C
330
98
100
AcDbEntity
  8
Livello 1
 62
    18
420
        0
370
     9
100
AcDbLine
 10
10.76165905619066
 20
-17.04620919968907
 30
0.0
 11
14.06325077018781
 21
-17.04620919968907
 31
0.0
  0
LWPOLYLINE
  5
9D
330
98
100
AcDbEntity
  8
Livello 1
100
AcDbPolyline
 90
        3
 70
     1
 43
0.0
 10
14.31996354287114
 20
-17.04533211661759
 10
14.06506659012391
 20
-17.13030947318036
 10
14.06506659012391
 20
-16.96210892619778
  0
HATCH
  5
9E
330
98
100
AcDbEntity
  8
Livello 1
 62
    18
420
        0
440
 33554687
100
AcDbHatch
 10
0.0
 20
0.0
 30
0.0
210
0.0
220
0.0
230
1.0
  2
SOLID
 70
     1
 71
     1
 91
        1
 92
        1
 93
        3
 72
     1
 10
14.31996354287114
 20
-17.04533211661759
 11
14.06506659012391
 21
-17.13030947318036
 72
     1
 10
14.06506659012391
 20
-17.13030947318036
 11
14.06506659012391
 21
-16.96210892619778
 72
     1
 10
14.06506659012391
 20
-16.96210892619778
 11
14.31996354287114
 21
-17.04533211661759
 97
        1
330
9D
 75
     0
 76
     1
 98
        1
 10
0.0
 20
0.0
450
        0
451
        0
460
0.0
461
0.0
452
        0
462
0.0
453
        0
470

  0
ENDBLK
  5
9B
330
98
100
AcDbEntity
  8
0
100
AcDbBlockEnd
  0
BLOCK
  5
A1
330
9F
100
AcDbEntity
  8
0
100
AcDbBlockBegin
  2
Block_4
 70
     0
 10
0.0
 20
0.0
 30
0.0
  3
Block_4
  1

  0
INSERT
  5
A4
330
9F
100
AcDbEntity
  8
Livello 1
100
AcDbBlockReference
  2
Block_5
 10
0.0
 20
0.0
 30
0.0
  0
INSERT
  5
B1
330
9F
100
AcDbEntity
  8
Livello 1
100
AcDbBlockReference
  2
Block_7
 10
0.0
 20
0.0
 30
0.0
  0
INSERT
  5
B8
330
9F
100
AcDbEntity
  8
Livello 1
100
AcDbBlockReference
  2
Block_8
 10
0.0
 20
0.0
 30
0.0
  0
ENDBLK
  5
A2
330
9F
100
AcDbEntity
  8
0
100
AcDbBlockEnd
  0
BLOCK
  5
A5
330
A3
100
AcDbEntity
  8
0
100
AcDbBlockBegin
  2
Block_5
 70
     0
 10
0.0
 20
0.0
 30
0.0
  3
Block_5
  1

  0
INSERT
  5
A8
330
A3
100
AcDbEntity
  8
Livello 1
100
AcDbBlockReference
  2
Block_6
 10
0.0
 20
0.0
 30
0.0
  0
ENDBLK
  5
A6
330
A3
100
AcDbEntity
  8
0
100
AcDbBlockEnd
  0
BLOCK
  5
A9
330
A7
100
AcDbEntity
  8
0
100
AcDbBlockBegin
  2
Block_6
 70
     0
 10
0.0
 20
0.0
 30
0.0
  3
Block_6
  1

  0
SPLINE
  5
AB
330
A7
100
AcDbEntity
  8
Livello 1
100
AcDbSpline
210
0.0
220
0.0
230
1.0
 70
     9
 71
     3
 72
    26
 73
    22
 74
     0
 42
0.000000001
 43
0.0000000001
 40
0.0
 40
0.0
 40
0.0
 40
0.0
 40
1.0
 40
1.0
 40
1.0
 40
2.0
 40
2.0
 40
2.0
 40
3.0
 40
3.0
 40
3.0
 40
4.0
 40
4.0
 40
4.0
 40
5.0
 40
5.0
 40
5.0
 40
6.0
 40
6.0
 40
6.0
 40
7.0
 40
7.0
 40
7.0
 40
7.0
 10
5.980685762393718
 20
-16.34715033228474
 30
0.0
 10
6.007333575972124
 20
-16.34618570554887
 30
0.0
 10
6.023801132391617
 20
-16.34570339218093
 30
0.0
 10
6.028400334864428
 20
-16.31445637612972
 30
0.0
 10
6.028400334864428
 20
-16.31445637612972
 30
0.0
 10
6.040768227656474
 20
-16.31445637612972
 30
0.0
 10
6.040768227656474
 20
-16.31445637612972
 30
0.0
 10
6.040768227656474
 20
-16.31445637612972
 30
0.0
 10
6.040768227656474
 20
-16.48402397591371
 30
0.0
 10
6.040768227656474
 20
-16.48402397591371
 30
0.0
 10
6.040768227656474
 20
-16.48402397591371
 30
0.0
 10
6.025506454656818
 20
-16.48402397591371
 30
0.0
 10
6.025506454656818
 20
-16.48402397591371
 30
0.0
 10
6.025506454656818
 20
-16.48402397591371
 30
0.0
 10
6.025506454656818
 20
-16.35807128497298
 30
0.0
 10
6.025506454656818
 20
-16.35807128497298
 30
0.0
 10
6.025506454656818
 20
-16.35807128497298
 30
0.0
 10
5.980685762393718
 20
-16.35807128497298
 30
0.0
 10
5.980685762393718
 20
-16.35807128497298
 30
0.0
 10
5.980685762393718
 20
-16.35807128497298
 30
0.0
 10
5.980685762393718
 20
-16.34715033228474
 30
0.0
 10
5.980685762393718
 20
-16.34715033228474
 30
0.0
  0
HATCH
  5
AC
330
A7
100
AcDbEntity
  8
Livello 1
 62
    18
420
        0
440
 33554687
100
AcDbHatch
 10
0.0
 20
0.0
 30
0.0
210
0.0
220
0.0
230
1.0
  2
SOLID
 70
     1
 71
     1
 91
        1
 92
        1
 93
        1
 72
     4
 94
        3
 73
     0
 74
     0
 95
       26
 96
       22
 40
0.0
 40
0.0
 40
0.0
 40
0.0
 40
1.0
 40
1.0
 40
1.0
 40
2.0
 40
2.0
 40
2.0
 40
3.0
 40
3.0
 40
3.0
 40
4.0
 40
4.0
 40
4.0
 40
5.0
 40
5.0
 40
5.0
 40
6.0
 40
6.0
 40
6.0
 40
7.0
 40
7.0
 40
7.0
 40
7.0
 10
5.980685762393718
 20
-16.34715033228474
 10
6.007333575972124
 20
-16.34618570554887
 10
6.023801132391617
 20
-16.34570339218093
 10
6.028400334864428
 20
-16.31445637612972
 10
6.028400334864428
 20
-16.31445637612972
 10
6.040768227656474
 20
-16.31445637612972
 10
6.040768227656474
 20
-16.31445637612972
 10
6.040768227656474
 20
-16.31445637612972
 10
6.040768227656474
 20
-16.48402397591371
 10
6.040768227656474
 20
-16.48402397591371
 10
6.040768227656474
 20
-16.48402397591371
 10
6.025506454656818
 20
-16.48402397591371
 10
6.025506454656818
 20
-16.48402397591371
 10
6.025506454656818
 20
-16.48402397591371
 10
6.025506454656818
 20
-16.35807128497298
 10
6.025506454656818
 20
-16.35807128497298
 10
6.025506454656818
 20
-16.35807128497298
 10
5.980685762393718
 20
-16.35807128497298
 10
5.980685762393718
 20
-16.35807128497298
 10
5.980685762393718
 20
-16.35807128497298
 10
5.980685762393718
 20
-16.34715033228474
 10
5.980685762393718
 20
-16.34715033228474
 97
        0
 97
        1
330
AB
 75
     2
 76
     1
 98
        1
 10
0.0
 20
0.0
450
        0
451
        0
460
0.0
461
0.0
452
        0
462
0.0
453
        0
470

  0
SPLINE
  5
AD
330
A7
100
AcDbEntity
  8
Livello 1
100
AcDbSpline
210
0.0
220
0.0
230
1.0
 70
    11
 71
     3
 72
    17
 73
    13
 74
     0
 42
0.000000001
 43
0.0000000001
 40
0.0
 40
0.0
 40
0.0
 40
0.0
 40
1.0
 40
1.0
 40
1.0
 40
2.0
 40
2.0
 40
2.0
 40
3.0
 40
3.0
 40
3.0
 40
4.0
 40
4.0
 40
4.0
 40
4.0
 10
6.177245685304646
 20
-16.42904025196912
 30
0.0
 10
6.177245685304646
 20
-16.42904025196912
 30
0.0
 10
6.177245685304646
 20
-16.33674614391928
 30
0.0
 10
6.177245685304646
 20
-16.33674614391928
 30
0.0
 10
6.177245685304646
 20
-16.33674614391928
 30
0.0
 10
6.17676337193671
 20
-16.33674614391928
 30
0.0
 10
6.17676337193671
 20
-16.33674614391928
 30
0.0
 10
6.17676337193671
 20
-16.33674614391928
 30
0.0
 10
6.112805174253047
 20
-16.42904025196912
 30
0.0
 10
6.112805174253047
 20
-16.42904025196912
 30
0.0
 10
6.112805174253047
 20
-16.42904025196912
 30
0.0
 10
6.177245685304646
 20
-16.42904025196912
 30
0.0
 10
6.177245685304646
 20
-16.42904025196912
 30
0.0
  0
SPLINE
  5
AE
330
A7
100
AcDbEntity
  8
Livello 1
100
AcDbSpline
210
0.0
220
0.0
230
1.0
 70
    11
 71
     3
 72
    38
 73
    34
 74
     0
 42
0.000000001
 43
0.0000000001
 40
0.0
 40
0.0
 40
0.0
 40
0.0
 40
1.0
 40
1.0
 40
1.0
 40
2.0
 40
2.0
 40
2.0
 40
3.0
 40
3.0
 40
3.0
 40
4.0
 40
4.0
 40
4.0
 40
5.0
 40
5.0
 40
5.0
 40
6.0
 40
6.0
 40
6.0
 40
7.0
 40
7.0
 40
7.0
 40
8.0
 40
8.0
 40
8.0
 40
9.0
 40
9.0
 40
9.0
 40
10.0
 40
10.0
 40
10.0
 40
11.0
 40
11.0
 40
11.0
 40
11.0
 10
6.099007566834622
 20
-16.42707654754253
 30
0.0
 10
6.099007566834622
 20
-16.42707654754253
 30
0.0
 10
6.177486841988612
 20
-16.31445637612972
 30
0.0
 10
6.177486841988612
 20
-16.31445637612972
 30
0.0
 10
6.177486841988612
 20
-16.31445637612972
 30
0.0
 10
6.191301674884464
 20
-16.31445637612972
 30
0.0
 10
6.191301674884464
 20
-16.31445637612972
 30
0.0
 10
6.191301674884464
 20
-16.31445637612972
 30
0.0
 10
6.191301674884464
 20
-16.42904025196912
 30
0.0
 10
6.191301674884464
 20
-16.42904025196912
 30
0.0
 10
6.191301674884464
 20
-16.42904025196912
 30
0.0
 10
6.216726479565608
 20
-16.42904025196912
 30
0.0
 10
6.216726479565608
 20
-16.42904025196912
 30
0.0
 10
6.216726479565608
 20
-16.42904025196912
 30
0.0
 10
6.216726479565608
 20
-16.44185600717425
 30
0.0
 10
6.216726479565608
 20
-16.44185600717425
 30
0.0
 10
6.216726479565608
 20
-16.44185600717425
 30
0.0
 10
6.191301674884464
 20
-16.44185600717425
 30
0.0
 10
6.191301674884464
 20
-16.44185600717425
 30
0.0
 10
6.191301674884464
 20
-16.44185600717425
 30
0.0
 10
6.191301674884464
 20
-16.48402397591371
 30
0.0
 10
6.191301674884464
 20
-16.48402397591371
 30
0.0
 10
6.191301674884464
 20
-16.48402397591371
 30
0.0
 10
6.177245685304646
 20
-16.48402397591371
 30
0.0
 10
6.177245685304646
 20
-16.48402397591371
 30
0.0
 10
6.177245685304646
 20
-16.48402397591371
 30
0.0
 10
6.177245685304646
 20
-16.44185600717425
 30
0.0
 10
6.177245685304646
 20
-16.44185600717425
 30
0.0
 10
6.177245685304646
 20
-16.44185600717425
 30
0.0
 10
6.099007566834622
 20
-16.44185600717425
 30
0.0
 10
6.099007566834622
 20
-16.44185600717425
 30
0.0
 10
6.099007566834622
 20
-16.44185600717425
 30
0.0
 10
6.099007566834622
 20
-16.42707654754253
 30
0.0
 10
6.099007566834622
 20
-16.42707654754253
 30
0.0
  0
HATCH
  5
AF
330
A7
100
AcDbEntity
  8
Livello 1
 62
    18
420
        0
440
 33554687
100
AcDbHatch
 10
0.0
 20
0.0
 30
0.0
210
0.0
220
0.0
230
1.0
  2
SOLID
 70
     1
 71
     1
 91
        2
 92
        1
 93
        1
 72
     4
 94
        3
 73
     0
 74
     0
 95
       17
 96
       13
 40
0.0
 40
0.0
 40
0.0
 40
0.0
 40
1.0
 40
1.0
 40
1.0
 40
2.0
 40
2.0
 40
2.0
 40
3.0
 40
3.0
 40
3.0
 40
4.0
 40
4.0
 40
4.0
 40
4.0
 10
6.177245685304646
 20
-16.42904025196912
 10
6.177245685304646
 20
-16.42904025196912
 10
6.177245685304646
 20
-16.33674614391928
 10
6.177245685304646
 20
-16.33674614391928
 10
6.177245685304646
 20
-16.33674614391928
 10
6.17676337193671
 20
-16.33674614391928
 10
6.17676337193671
 20
-16.33674614391928
 10
6.17676337193671
 20
-16.33674614391928
 10
6.112805174253047
 20
-16.42904025196912
 10
6.112805174253047
 20
-16.42904025196912
 10
6.112805174253047
 20
-16.42904025196912
 10
6.177245685304646
 20
-16.42904025196912
 10
6.177245685304646
 20
-16.42904025196912
 97
        0
 97
        1
330
AD
 92
        1
 93
        1
 72
     4
 94
        3
 73
     0
 74
     0
 95
       38
 96
       34
 40
0.0
 40
0.0
 40
0.0
 40
0.0
 40
1.0
 40
1.0
 40
1.0
 40
2.0
 40
2.0
 40
2.0
 40
3.0
 40
3.0
 40
3.0
 40
4.0
 40
4.0
 40
4.0
 40
5.0
 40
5.0
 40
5.0
 40
6.0
 40
6.0
 40
6.0
 40
7.0
 40
7.0
 40
7.0
 40
8.0
 40
8.0
 40
8.0
 40
9.0
 40
9.0
 40
9.0
 40
10.0
 40
10.0
 40
10.0
 40
11.0
 40
11.0
 40
11.0
 40
11.0
 10
6.099007566834622
 20
-16.42707654754253
 10
6.099007566834622
 20
-16.42707654754253
 10
6.177486841988612
 20
-16.31445637612972
 10
6.177486841988612
 20
-16.31445637612972
 10
6.177486841988612
 20
-16.31445637612972
 10
6.191301674884464
 20
-16.31445637612972
 10
6.191301674884464
 20
-16.31445637612972
 10
6.191301674884464
 20
-16.31445637612972
 10
6.191301674884464
 20
-16.42904025196912
 10
6.191301674884464
 20
-16.42904025196912
 10
6.191301674884464
 20
-16.42904025196912
 10
6.216726479565608
 20
-16.42904025196912
 10
6.216726479565608
 20
-16.42904025196912
 10
6.216726479565608
 20
-16.42904025196912
 10
6.216726479565608
 20
-16.44185600717425
 10
6.216726479565608
 20
-16.44185600717425
 10
6.216726479565608
 20
-16.44185600717425
 10
6.191301674884464
 20
-16.44185600717425
 10
6.191301674884464
 20
-16.44185600717425
 10
6.191301674884464
 20
-16.44185600717425
 10
6.191301674884464
 20
-16.48402397591371
 10
6.191301674884464
 20
-16.48402397591371
 10
6.191301674884464
 20
-16.48402397591371
 10
6.177245685304646
 20
-16.48402397591371
 10
6.177245685304646
 20
-16.48402397591371
 10
6.177245685304646
 20
-16.48402397591371
 10
6.177245685304646
 20
-16.44185600717425
 10
6.177245685304646
 20
-16.44185600717425
 10
6.177245685304646
 20
-16.44185600717425
 10
6.099007566834622
 20
-16.44185600717425
 10
6.099007566834622
 20
-16.44185600717425
 10
6.099007566834622
 20
-16.44185600717425
 10
6.099007566834622
 20
-16.42707654754253
 10
6.099007566834622
 20
-16.42707654754253
 97
        0
 97
        1
330
AE
 75
     2
 76
     1
 98
        1
 10
0.0
 20
0.0
450
        0
451
        0
460
0.0
461
0.0
452
        0
462
0.0
453
        0
470

  0
ENDBLK
  5
AA
330
A7
100
AcDbEntity
  8
0
100
AcDbBlockEnd
  0
BLOCK
  5
B2
330
B0
100
AcDbEntity
  8
0
100
AcDbBlockBegin
  2
Block_7
 70
     0
 10
0.0
 20
0.0
 30
0.0
  3
Block_7
  1

  0
LINE
  5
B4
330
B0
100
AcDbEntity
  8
Livello 1
 62
    18
420
        0
370
     9
100
AcDbLine
 10
6.086674460431387
 20
-16.27734084774466
 30
0.0
 11
6.086674460431387
 21
-16.22463407596003
 31
0.0
  0
LWPOLYLINE
  5
B5
330
B0
100
AcDbEntity
  8
Livello 1
100
AcDbPolyline
 90
        3
 70
     1
 43
0.0
 10
6.085797377359913
 20
-15.96792130327676
 10
6.170774733922673
 20
-16.222818256024
 10
6.002574186940099
 20
-16.222818256024
  0
HATCH
  5
B6
330
B0
100
AcDbEntity
  8
Livello 1
 62
    18
420
        0
440
 33554687
100
AcDbHatch
 10
0.0
 20
0.0
 30
0.0
210
0.0
220
0.0
230
1.0
  2
SOLID
 70
     1
 71
     1
 91
        1
 92
        1
 93
        3
 72
     1
 10
6.085797377359913
 20
-15.96792130327676
 11
6.170774733922673
 21
-16.222818256024
 72
     1
 10
6.170774733922673
 20
-16.222818256024
 11
6.002574186940099
 21
-16.222818256024
 72
     1
 10
6.002574186940099
 20
-16.222818256024
 11
6.085797377359913
 21
-15.96792130327676
 97
        1
330
B5
 75
     0
 76
     1
 98
        1
 10
0.0
 20
0.0
450
        0
451
        0
460
0.0
461
0.0
452
        0
462
0.0
453
        0
470

  0
ENDBLK
  5
B3
330
B0
100
AcDbEntity
  8
0
100
AcDbBlockEnd
  0
BLOCK
  5
B9
330
B7
100
AcDbEntity
  8
0
100
AcDbBlockBegin
  2
Block_8
 70
     0
 10
0.0
 20
0.0
 30
0.0
  3
Block_8
  1

  0
LINE
  5
BB
330
B7
100
AcDbEntity
  8
Livello 1
 62
    18
420
        0
370
     9
100
AcDbLine
 10
6.086674460431387
 20
-16.56400671781141
 30
0.0
 11
6.086674460431387
 21
-16.60759428751475
 31
0.0
  0
LWPOLYLINE
  5
BC
330
B7
100
AcDbEntity
  8
Livello 1
100
AcDbPolyline
 90
        3
 70
     1
 43
0.0
 10
6.087551543502987
 20
-16.86430706019808
 10
6.002574186940099
 20
-16.60941010745091
 10
6.170774733922673
 20
-16.60941010745091
  0
HATCH
  5
BD
330
B7
100
AcDbEntity
  8
Livello 1
 62
    18
420
        0
440
 33554687
100
AcDbHatch
 10
0.0
 20
0.0
 30
0.0
210
0.0
220
0.0
230
1.0
  2
SOLID
 70
     1
 71
     1
 91
        1
 92
        1
 93
        3
 72
     1
 10
6.087551543502987
 20
-16.86430706019808
 11
6.002574186940099
 21
-16.60941010745091
 72
     1
 10
6.002574186940099
 20
-16.60941010745091
 11
6.170774733922673
 21
-16.60941010745091
 72
     1
 10
6.170774733922673
 20
-16.60941010745091
 11
6.087551543502987
 21
-16.86430706019808
 97
        1
330
BC
 75
     0
 76
     1
 98
        1
 10
0.0
 20
0.0
450
        0
451
        0
460
0.0
461
0.0
452
        0
462
0.0
453
        0
470

  0
ENDBLK
  5
BA
330
B7
100
AcDbEntity
  8
0
100
AcDbBlockEnd
  0
BLOCK
  5
C0
330
BE
100
AcDbEntity
  8
0
100
AcDbBlockBegin
  2
Block_9
 70
     0
 10
0.0
 20
0.0
 30
0.0
  3
Block_9
  1

  0
INSERT
  5
C3
330
BE
100
AcDbEntity
  8
Livello 1
100
AcDbBlockReference
  2
Block_10
 10
0.0
 20
0.0
 30
0.0
  0
INSERT
  5
D0
330
BE
100
AcDbEntity
  8
Livello 1
100
AcDbBlockReference
  2
Block_12
 10
0.0
 20
0.0
 30
0.0
  0
INSERT
  5
D7
330
BE
100
AcDbEntity
  8
Livello 1
100
AcDbBlockReference
  2
Block_13
 10
0.0
 20
0.0
 30
0.0
  0
ENDBLK
  5
C1
330
BE
100
AcDbEntity
  8
0
100
AcDbBlockEnd
  0
BLOCK
  5
C4
330
C2
100
AcDbEntity
  8
0
100
AcDbBlockBegin
  2
Block_10
 70
     0
 10
0.0
 20
0.0
 30
0.0
  3
Block_10
  1

  0
INSERT
  5
C7
330
C2
100
AcDbEntity
  8
Livello 1
100
AcDbBlockReference
  2
Block_11
 10
0.0
 20
0.0
 30
0.0
  0
ENDBLK
  5
C5
330
C2
100
AcDbEntity
  8
0
100
AcDbBlockEnd
  0
BLOCK
  5
C8
330
C6
100
AcDbEntity
  8
0
100
AcDbBlockBegin
  2
Block_11
 70
     0
 10
0.0
 20
0.0
 30
0.0
  3
Block_11
  1

  0
SPLINE
  5
CA
330
C6
100
AcDbEntity
  8
Livello 1
100
AcDbSpline
210
0.0
220
0.0
230
1.0
 70
    11
 71
     3
 72
    17
 73
    13
 74
     0
 42
0.000000001
 43
0.0000000001
 40
0.0
 40
0.0
 40
0.0
 40
0.0
 40
1.0
 40
1.0
 40
1.0
 40
2.0
 40
2.0
 40
2.0
 40
3.0
 40
3.0
 40
3.0
 40
4.0
 40
4.0
 40
4.0
 40
4.0
 10
14.61175238349984
 20
-16.19367132841686
 30
0.0
 10
14.61175238349984
 20
-16.19367132841686
 30
0.0
 10
14.61175238349984
 20
-16.10137722036701
 30
0.0
 10
14.61175238349984
 20
-16.10137722036701
 30
0.0
 10
14.61175238349984
 20
-16.10137722036701
 30
0.0
 10
14.6112700701319
 20
-16.10137722036701
 30
0.0
 10
14.6112700701319
 20
-16.10137722036701
 30
0.0
 10
14.6112700701319
 20
-16.10137722036701
 30
0.0
 10
14.54732909792566
 20
-16.19367132841686
 30
0.0
 10
14.54732909792566
 20
-16.19367132841686
 30
0.0
 10
14.54732909792566
 20
-16.19367132841686
 30
0.0
 10
14.61175238349984
 20
-16.19367132841686
 30
0.0
 10
14.61175238349984
 20
-16.19367132841686
 30
0.0
  0
SPLINE
  5
CB
330
C6
100
AcDbEntity
  8
Livello 1
100
AcDbSpline
210
0.0
220
0.0
230
1.0
 70
    11
 71
     3
 72
    38
 73
    34
 74
     0
 42
0.000000001
 43
0.0000000001
 40
0.0
 40
0.0
 40
0.0
 40
0.0
 40
1.0
 40
1.0
 40
1.0
 40
2.0
 40
2.0
 40
2.0
 40
3.0
 40
3.0
 40
3.0
 40
4.0
 40
4.0
 40
4.0
 40
5.0
 40
5.0
 40
5.0
 40
6.0
 40
6.0
 40
6.0
 40
7.0
 40
7.0
 40
7.0
 40
8.0
 40
8.0
 40
8.0
 40
9.0
 40
9.0
 40
9.0
 40
10.0
 40
10.0
 40
10.0
 40
11.0
 40
11.0
 40
11.0
 40
11.0
 10
14.53351426502981
 20
-16.19170762399026
 30
0.0
 10
14.53351426502981
 20
-16.19170762399026
 30
0.0
 10
14.6119935401838
 20
-16.07908745257745
 30
0.0
 10
14.6119935401838
 20
-16.07908745257745
 30
0.0
 10
14.6119935401838
 20
-16.07908745257745
 30
0.0
 10
14.62580837307966
 20
-16.07908745257745
 30
0.0
 10
14.62580837307966
 20
-16.07908745257745
 30
0.0
 10
14.62580837307966
 20
-16.07908745257745
 30
0.0
 10
14.62580837307966
 20
-16.19367132841686
 30
0.0
 10
14.62580837307966
 20
-16.19367132841686
 30
0.0
 10
14.62580837307966
 20
-16.19367132841686
 30
0.0
 10
14.6512331777608
 20
-16.19367132841686
 30
0.0
 10
14.6512331777608
 20
-16.19367132841686
 30
0.0
 10
14.6512331777608
 20
-16.19367132841686
 30
0.0
 10
14.6512331777608
 20
-16.20648708362199
 30
0.0
 10
14.6512331777608
 20
-16.20648708362199
 30
0.0
 10
14.6512331777608
 20
-16.20648708362199
 30
0.0
 10
14.62580837307966
 20
-16.20648708362199
 30
0.0
 10
14.62580837307966
 20
-16.20648708362199
 30
0.0
 10
14.62580837307966
 20
-16.20648708362199
 30
0.0
 10
14.62580837307966
 20
-16.24865505236144
 30
0.0
 10
14.62580837307966
 20
-16.24865505236144
 30
0.0
 10
14.62580837307966
 20
-16.24865505236144
 30
0.0
 10
14.61175238349984
 20
-16.24865505236144
 30
0.0
 10
14.61175238349984
 20
-16.24865505236144
 30
0.0
 10
14.61175238349984
 20
-16.24865505236144
 30
0.0
 10
14.61175238349984
 20
-16.20648708362199
 30
0.0
 10
14.61175238349984
 20
-16.20648708362199
 30
0.0
 10
14.61175238349984
 20
-16.20648708362199
 30
0.0
 10
14.53351426502981
 20
-16.20648708362199
 30
0.0
 10
14.53351426502981
 20
-16.20648708362199
 30
0.0
 10
14.53351426502981
 20
-16.20648708362199
 30
0.0
 10
14.53351426502981
 20
-16.19170762399026
 30
0.0
 10
14.53351426502981
 20
-16.19170762399026
 30
0.0
  0
HATCH
  5
CC
330
C6
100
AcDbEntity
  8
Livello 1
 62
    18
420
        0
440
 33554687
100
AcDbHatch
 10
0.0
 20
0.0
 30
0.0
210
0.0
220
0.0
230
1.0
  2
SOLID
 70
     1
 71
     1
 91
        2
 92
        1
 93
        1
 72
     4
 94
        3
 73
     0
 74
     0
 95
       17
 96
       13
 40
0.0
 40
0.0
 40
0.0
 40
0.0
 40
1.0
 40
1.0
 40
1.0
 40
2.0
 40
2.0
 40
2.0
 40
3.0
 40
3.0
 40
3.0
 40
4.0
 40
4.0
 40
4.0
 40
4.0
 10
14.61175238349984
 20
-16.19367132841686
 10
14.61175238349984
 20
-16.19367132841686
 10
14.61175238349984
 20
-16.10137722036701
 10
14.61175238349984
 20
-16.10137722036701
 10
14.61175238349984
 20
-16.10137722036701
 10
14.6112700701319
 20
-16.10137722036701
 10
14.6112700701319
 20
-16.10137722036701
 10
14.6112700701319
 20
-16.10137722036701
 10
14.54732909792566
 20
-16.19367132841686
 10
14.54732909792566
 20
-16.19367132841686
 10
14.54732909792566
 20
-16.19367132841686
 10
14.61175238349984
 20
-16.19367132841686
 10
14.61175238349984
 20
-16.19367132841686
 97
        0
 97
        1
330
CA
 92
        1
 93
        1
 72
     4
 94
        3
 73
     0
 74
     0
 95
       38
 96
       34
 40
0.0
 40
0.0
 40
0.0
 40
0.0
 40
1.0
 40
1.0
 40
1.0
 40
2.0
 40
2.0
 40
2.0
 40
3.0
 40
3.0
 40
3.0
 40
4.0
 40
4.0
 40
4.0
 40
5.0
 40
5.0
 40
5.0
 40
6.0
 40
6.0
 40
6.0
 40
7.0
 40
7.0
 40
7.0
 40
8.0
 40
8.0
 40
8.0
 40
9.0
 40
9.0
 40
9.0
 40
10.0
 40
10.0
 40
10.0
 40
11.0
 40
11.0
 40
11.0
 40
11.0
 10
14.53351426502981
 20
-16.19170762399026
 10
14.53351426502981
 20
-16.19170762399026
 10
14.6119935401838
 20
-16.07908745257745
 10
14.6119935401838
 20
-16.07908745257745
 10
14.6119935401838
 20
-16.07908745257745
 10
14.62580837307966
 20
-16.07908745257745
 10
14.62580837307966
 20
-16.07908745257745
 10
14.62580837307966
 20
-16.07908745257745
 10
14.62580837307966
 20
-16.19367132841686
 10
14.62580837307966
 20
-16.19367132841686
 10
14.62580837307966
 20
-16.19367132841686
 10
14.6512331777608
 20
-16.19367132841686
 10
14.6512331777608
 20
-16.19367132841686
 10
14.6512331777608
 20
-16.19367132841686
 10
14.6512331777608
 20
-16.20648708362199
 10
14.6512331777608
 20
-16.20648708362199
 10
14.6512331777608
 20
-16.20648708362199
 10
14.62580837307966
 20
-16.20648708362199
 10
14.62580837307966
 20
-16.20648708362199
 10
14.62580837307966
 20
-16.20648708362199
 10
14.62580837307966
 20
-16.24865505236144
 10
14.62580837307966
 20
-16.24865505236144
 10
14.62580837307966
 20
-16.24865505236144
 10
14.61175238349984
 20
-16.24865505236144
 10
14.61175238349984
 20
-16.24865505236144
 10
14.61175238349984
 20
-16.24865505236144
 10
14.61175238349984
 20
-16.20648708362199
 10
14.61175238349984
 20
-16.20648708362199
 10
14.61175238349984
 20
-16.20648708362199
 10
14.53351426502981
 20
-16.20648708362199
 10
14.53351426502981
 20
-16.20648708362199
 10
14.53351426502981
 20
-16.20648708362199
 10
14.53351426502981
 20
-16.19170762399026
 10
14.53351426502981
 20
-16.19170762399026
 97
        0
 97
        1
330
CB
 75
     2
 76
     1
 98
        1
 10
0.0
 20
0.0
450
        0
451
        0
460
0.0
461
0.0
452
        0
462
0.0
453
        0
470

  0
SPLINE
  5
CD
330
C6
100
AcDbEntity
  8
Livello 1
100
AcDbSpline
210
0.0
220
0.0
230
1.0
 70
    11
 71
     3
 72
    41
 73
    37
 74
     0
 42
0.000000001
 43
0.0000000001
 40
0.0
 40
0.0
 40
0.0
 40
0.0
 40
1.0
 40
1.0
 40
1.0
 40
2.0
 40
2.0
 40
2.0
 40
3.0
 40
3.0
 40
3.0
 40
4.0
 40
4.0
 40
4.0
 40
5.0
 40
5.0
 40
5.0
 40
6.0
 40
6.0
 40
6.0
 40
7.0
 40
7.0
 40
7.0
 40
8.0
 40
8.0
 40
8.0
 40
9.0
 40
9.0
 40
9.0
 40
10.0
 40
10.0
 40
10.0
 40
11.0
 40
11.0
 40
11.0
 40
12.0
 40
12.0
 40
12.0
 40
12.0
 10
14.78118217946442
 20
-16.24865505236144
 30
0.0
 10
14.78118217946442
 20
-16.24865505236144
 30
0.0
 10
14.66952663478748
 20
-16.24865505236144
 30
0.0
 10
14.66952663478748
 20
-16.24865505236144
 30
0.0
 10
14.67073241820731
 20
-16.19825330541224
 30
0.0
 10
14.72233994857636
 20
-16.18591986357505
 30
0.0
 10
14.75114094683305
 20
-16.1570844143635
 30
0.0
 10
14.76037380273352
 20
-16.14764485273392
 30
0.0
 10
14.76519693641287
 20
-16.13868760447227
 30
0.0
 10
14.76519693641287
 20
-16.12511392826039
 30
0.0
 10
14.76519693641287
 20
-16.10306531715479
 30
0.0
 10
14.7477647532575
 20
-16.09045626767876
 30
0.0
 10
14.72716308225571
 20
-16.09045626767876
 30
0.0
 10
14.69932671073489
 20
-16.09045626767876
 30
0.0
 10
14.68840575804664
 20
-16.11274603546834
 30
0.0
 10
14.68888807141458
 20
-16.13768852678155
 30
0.0
 10
14.68888807141458
 20
-16.13768852678155
 30
0.0
 10
14.67362629841492
 20
-16.13768852678155
 30
0.0
 10
14.67362629841492
 20
-16.13768852678155
 30
0.0
 10
14.67290282836302
 20
-16.10282416047082
 30
0.0
 10
14.69109293252514
 20
-16.07764051247364
 30
0.0
 10
14.72788655230761
 20
-16.07764051247364
 30
0.0
 10
14.75744547157105
 20
-16.07764051247364
 30
0.0
 10
14.78045870941252
 20
-16.09386691220917
 30
0.0
 10
14.78045870941252
 20
-16.12535508494435
 30
0.0
 10
14.78045870941252
 20
-16.15370822078796
 30
0.0
 10
14.75989148936558
 20
-16.17138156062729
 30
0.0
 10
14.73784287825998
 20
-16.18567870689108
 30
0.0
 10
14.72137532184049
 20
-16.19680636530843
 30
0.0
 10
14.69109293252514
 20
-16.21182698162412
 30
0.0
 10
14.68695881794284
 20
-16.23459906278162
 30
0.0
 10
14.68695881794284
 20
-16.23459906278162
 30
0.0
 10
14.78118217946442
 20
-16.23459906278162
 30
0.0
 10
14.78118217946442
 20
-16.23459906278162
 30
0.0
 10
14.78118217946442
 20
-16.23459906278162
 30
0.0
 10
14.78118217946442
 20
-16.24865505236144
 30
0.0
 10
14.78118217946442
 20
-16.24865505236144
 30
0.0
  0
HATCH
  5
CE
330
C6
100
AcDbEntity
  8
Livello 1
 62
    18
420
        0
440
 33554687
100
AcDbHatch
 10
0.0
 20
0.0
 30
0.0
210
0.0
220
0.0
230
1.0
  2
SOLID
 70
     1
 71
     1
 91
        1
 92
        1
 93
        1
 72
     4
 94
        3
 73
     0
 74
     0
 95
       41
 96
       37
 40
0.0
 40
0.0
 40
0.0
 40
0.0
 40
1.0
 40
1.0
 40
1.0
 40
2.0
 40
2.0
 40
2.0
 40
3.0
 40
3.0
 40
3.0
 40
4.0
 40
4.0
 40
4.0
 40
5.0
 40
5.0
 40
5.0
 40
6.0
 40
6.0
 40
6.0
 40
7.0
 40
7.0
 40
7.0
 40
8.0
 40
8.0
 40
8.0
 40
9.0
 40
9.0
 40
9.0
 40
10.0
 40
10.0
 40
10.0
 40
11.0
 40
11.0
 40
11.0
 40
12.0
 40
12.0
 40
12.0
 40
12.0
 10
14.78118217946442
 20
-16.24865505236144
 10
14.78118217946442
 20
-16.24865505236144
 10
14.66952663478748
 20
-16.24865505236144
 10
14.66952663478748
 20
-16.24865505236144
 10
14.67073241820731
 20
-16.19825330541224
 10
14.72233994857636
 20
-16.18591986357505
 10
14.75114094683305
 20
-16.1570844143635
 10
14.76037380273352
 20
-16.14764485273392
 10
14.76519693641287
 20
-16.13868760447227
 10
14.76519693641287
 20
-16.12511392826039
 10
14.76519693641287
 20
-16.10306531715479
 10
14.7477647532575
 20
-16.09045626767876
 10
14.72716308225571
 20
-16.09045626767876
 10
14.69932671073489
 20
-16.09045626767876
 10
14.68840575804664
 20
-16.11274603546834
 10
14.68888807141458
 20
-16.13768852678155
 10
14.68888807141458
 20
-16.13768852678155
 10
14.67362629841492
 20
-16.13768852678155
 10
14.67362629841492
 20
-16.13768852678155
 10
14.67290282836302
 20
-16.10282416047082
 10
14.69109293252514
 20
-16.07764051247364
 10
14.72788655230761
 20
-16.07764051247364
 10
14.75744547157105
 20
-16.07764051247364
 10
14.78045870941252
 20
-16.09386691220917
 10
14.78045870941252
 20
-16.12535508494435
 10
14.78045870941252
 20
-16.15370822078796
 10
14.75989148936558
 20
-16.17138156062729
 10
14.73784287825998
 20
-16.18567870689108
 10
14.72137532184049
 20
-16.19680636530843
 10
14.69109293252514
 20
-16.21182698162412
 10
14.68695881794284
 20
-16.23459906278162
 10
14.68695881794284
 20
-16.23459906278162
 10
14.78118217946442
 20
-16.23459906278162
 10
14.78118217946442
 20
-16.23459906278162
 10
14.78118217946442
 20
-16.23459906278162
 10
14.78118217946442
 20
-16.24865505236144
 10
14.78118217946442
 20
-16.24865505236144
 97
        0
 97
        1
330
CD
 75
     2
 76
     1
 98
        1
 10
0.0
 20
0.0
450
        0
451
        0
460
0.0
461
0.0
452
        0
462
0.0
453
        0
470

  0
ENDBLK
  5
C9
330
C6
100
AcDbEntity
  8
0
100
AcDbBlockEnd
  0
BLOCK
  5
D1
330
CF
100
AcDbEntity
  8
0
100
AcDbBlockBegin
  2
Block_12
 70
     0
 10
0.0
 20
0.0
 30
0.0
  3
Block_12
  1

  0
LINE
  5
D3
330
CF
100
AcDbEntity
  8
Livello 1
 62
    18
420
        0
370
     9
100
AcDbLine
 10
14.6557268377718
 20
-15.93614440091987
 30
0.0
 11
14.6557268377718
 21
-15.88343762913524
 31
0.0
  0
LWPOLYLINE
  5
D4
330
CF
100
AcDbEntity
  8
Livello 1
100
AcDbPolyline
 90
        3
 70
     1
 43
0.0
 10
14.65484975470033
 20
-15.62672485645197
 10
14.73982711126309
 20
-15.88162180919914
 10
14.57162656428051
 20
-15.88162180919914
  0
HATCH
  5
D5
330
CF
100
AcDbEntity
  8
Livello 1
 62
    18
420
        0
440
 33554687
100
AcDbHatch
 10
0.0
 20
0.0
 30
0.0
210
0.0
220
0.0
230
1.0
  2
SOLID
 70
     1
 71
     1
 91
        1
 92
        1
 93
        3
 72
     1
 10
14.65484975470033
 20
-15.62672485645197
 11
14.73982711126309
 21
-15.88162180919914
 72
     1
 10
14.73982711126309
 20
-15.88162180919914
 11
14.57162656428051
 21
-15.88162180919914
 72
     1
 10
14.57162656428051
 20
-15.88162180919914
 11
14.65484975470033
 21
-15.62672485645197
 97
        1
330
D4
 75
     0
 76
     1
 98
        1
 10
0.0
 20
0.0
450
        0
451
        0
460
0.0
461
0.0
452
        0
462
0.0
453
        0
470

  0
ENDBLK
  5
D2
330
CF
100
AcDbEntity
  8
0
100
AcDbBlockEnd
  0
BLOCK
  5
D8
330
D6
100
AcDbEntity
  8
0
100
AcDbBlockBegin
  2
Block_13
 70
     0
 10
0.0
 20
0.0
 30
0.0
  3
Block_13
  1

  0
LINE
  5
DA
330
D6
100
AcDbEntity
  8
Livello 1
 62
    18
420
        0
370
     9
100
AcDbLine
 10
14.6557268377718
 20
-16.3286436042935
 30
0.0
 11
14.6557268377718
 21
-16.37223117399683
 31
0.0
  0
LWPOLYLINE
  5
DB
330
D6
100
AcDbEntity
  8
Livello 1
100
AcDbPolyline
 90
        3
 70
     1
 43
0.0
 10
14.65660392084328
 20
-16.62894394668017
 10
14.57162656428051
 20
-16.37404699393293
 10
14.73982711126309
 20
-16.37404699393293
  0
HATCH
  5
DC
330
D6
100
AcDbEntity
  8
Livello 1
 62
    18
420
        0
440
 33554687
100
AcDbHatch
 10
0.0
 20
0.0
 30
0.0
210
0.0
220
0.0
230
1.0
  2
SOLID
 70
     1
 71
     1
 91
        1
 92
        1
 93
        3
 72
     1
 10
14.65660392084328
 20
-16.62894394668017
 11
14.57162656428051
 21
-16.37404699393293
 72
     1
 10
14.57162656428051
 20
-16.37404699393293
 11
14.73982711126309
 21
-16.37404699393293
 72
     1
 10
14.73982711126309
 20
-16.37404699393293
 11
14.65660392084328
 21
-16.62894394668017
 97
        1
330
DB
 75
     0
 76
     1
 98
        1
 10
0.0
 20
0.0
450
        0
451
        0
460
0.0
461
0.0
452
        0
462
0.0
453
        0
470

  0
ENDBLK
  5
D9
330
D6
100
AcDbEntity
  8
0
100
AcDbBlockEnd
  0
BLOCK
  5
1B0
330
1AC
100
AcDbEntity
  8
0
100
AcDbBlockBegin
  2
A$Cc3ebea15
 70
     0
 10
0.0
 20
0.0
 30
0.0
  3
A$Cc3ebea15
  1

  0
MTEXT
  5
1AD
330
1AC
100
AcDbEntity
  8
0
100
AcDbMText
 10
0.0
 20
0.1999999999999993
 30
0.0
 40
0.2
 41
1.582121192697599
 46
0.0
 71
     1
 72
     5
  1
450
 73
     1
 44
1.0
101
Embedded Object
 70
     1
 10
1.0
 20
0.0
 30
0.0
 11
0.0
 21
0.1999999999999993
 31
0.0
 40
1.582121192697599
 41
0.0
 42
0.5
 43
0.2
 71
     2
 72
     1
 44
1.582121192697599
 45
1.0
 73
     0
 74
     0
 46
0.0
  0
ENDBLK
  5
1B1
330
1AC
100
AcDbEntity
  8
0
100
AcDbBlockEnd
  0
ENDSEC
  0
SECTION
  2
ENTITIES
  0
LINE
  5
79
330
70
100
AcDbEntity
  8
Livello 1
370
     9
100
AcDbLine
 10
8.838470411842793
 20
-15.9060555942949
 30
0.0
 11
10.11834612378644
 21
-10.17597364324229
 31
0.0
  0
LINE
  5
7A
330
70
100
AcDbEntity
  8
Livello 1
370
     9
100
AcDbLine
 10
9.970593219090023
 20
-15.9060555942949
 30
0.0
 11
10.41907912743406
 21
-10.17597364324229
 31
0.0
  0
LINE
  5
7B
330
70
100
AcDbEntity
  8
Livello 1
370
     9
100
AcDbLine
 10
12.0256590794937
 20
-15.9060555942949
 30
0.0
 11
10.74578336755002
 21
-10.17597364324229
 31
0.0
  0
LINE
  5
DD
330
70
100
AcDbEntity
  8
Livello 1
370
     9
100
AcDbLine
 10
7.258583042366919
 20
-16.33992892229361
 30
0.0
 11
7.210184639844023
 21
-16.47939132515376
 31
0.0
  0
LINE
  5
DE
330
70
100
AcDbEntity
  8
Livello 1
370
     9
100
AcDbLine
 10
13.55297555264208
 20
-16.33992892229361
 30
0.0
 11
7.258583042366919
 21
-16.33992892229361
 31
0.0
  0
LINE
  5
DF
330
70
100
AcDbEntity
  8
Livello 1
370
     9
100
AcDbLine
 10
10.95847185419516
 20
-16.33992892229361
 30
0.0
 11
10.95173629542953
 21
-16.33992892229361
 31
0.0
  0
LINE
  5
E0
330
70
100
AcDbEntity
  8
Livello 1
370
     9
100
AcDbLine
 10
10.86275798039504
 20
-16.33992892229361
 30
0.0
 11
10.85366544186773
 21
-16.33992892229361
 31
0.0
  0
LINE
  5
E1
330
70
100
AcDbEntity
  8
Livello 1
370
     9
100
AcDbLine
 10
10.83219177249752
 20
-16.33992892229361
 30
0.0
 11
10.81617735269393
 21
-16.33992892229361
 31
0.0
  0
LINE
  5
E2
330
70
100
AcDbEntity
  8
Livello 1
370
     9
100
AcDbLine
 10
10.64386629470222
 20
-16.33992892229361
 30
0.0
 11
10.60583787024696
 21
-16.33992892229361
 31
0.0
  0
LINE
  5
E3
330
70
100
AcDbEntity
  8
Livello 1
370
     9
100
AcDbLine
 10
13.55297555264208
 20
-16.33992892229361
 30
0.0
 11
13.60137411539735
 21
-16.47939132515376
 31
0.0
  0
LINE
  5
E4
330
70
100
AcDbEntity
  8
Livello 1
370
     9
100
AcDbLine
 10
12.68686467729409
 20
-16.47211543092302
 30
0.0
 11
12.68686467729409
 21
-16.47484505577518
 31
0.0
  0
LINE
  5
E5
330
70
100
AcDbEntity
  8
Livello 1
370
     9
100
AcDbLine
 10
12.69014395348424
 20
-16.47029878639679
 30
0.0
 11
12.71033199752986
 21
-16.47029878639679
 31
0.0
  0
SPLINE
  5
E6
330
70
100
AcDbEntity
  8
Livello 1
370
     9
100
AcDbSpline
210
0.0
220
0.0
230
1.0
 70
     8
 71
     3
 72
     8
 73
     4
 74
     0
 42
0.000000001
 43
0.0000000001
 40
0.0
 40
0.0
 40
0.0
 40
0.0
 40
1.0
 40
1.0
 40
1.0
 40
1.0
 10
12.68686467729409
 20
-16.47211543092302
 30
0.0
 10
12.68686467729409
 20
-16.47148193437025
 30
0.0
 10
12.68741432870087
 20
-16.47083912169179
 30
0.0
 10
12.68868132177444
 20
-16.47029878639679
 30
0.0
  0
LINE
  5
E7
330
70
100
AcDbEntity
  8
Livello 1
370
     9
100
AcDbLine
 10
12.81750470574441
 20
-16.47029878639679
 30
0.0
 11
12.84006836180285
 21
-16.47029878639679
 31
0.0
  0
SPLINE
  5
E8
330
70
100
AcDbEntity
  8
Livello 1
370
     9
100
AcDbSpline
210
0.0
220
0.0
230
1.0
 70
     8
 71
     3
 72
     8
 73
     4
 74
     0
 42
0.000000001
 43
0.0000000001
 40
0.0
 40
0.0
 40
0.0
 40
0.0
 40
1.0
 40
1.0
 40
1.0
 40
1.0
 10
12.84006836180285
 20
-16.47029878639679
 30
0.0
 10
12.84153099351265
 20
-16.47083912169179
 30
0.0
 10
12.84189432240877
 20
-16.47138877311255
 30
0.0
 10
12.84189432240877
 20
-16.47211543092302
 30
0.0
  0
SPLINE
  5
E9
330
70
100
AcDbEntity
  8
Livello 1
370
     9
100
AcDbSpline
210
0.0
220
0.0
230
1.0
 70
     8
 71
     3
 72
     8
 73
     4
 74
     0
 42
0.000000001
 43
0.0000000001
 40
0.0
 40
0.0
 40
0.0
 40
0.0
 40
1.0
 40
1.0
 40
1.0
 40
1.0
 10
12.81477508096117
 20
-16.46957212858626
 30
0.0
 10
12.81605139016019
 20
-16.46957212858626
 30
0.0
 10
12.8167780479523
 20
-16.46993545749155
 30
0.0
 10
12.81750470574441
 20
-16.47029878639679
 30
0.0
  0
LINE
  5
EA
330
70
100
AcDbEntity
  8
Livello 1
370
     9
100
AcDbLine
 10
10.40569022914113
 20
-16.47484505577518
 30
0.0
 11
6.791871970837452
 21
-16.47484505577518
 31
0.0
  0
SPLINE
  5
EB
330
70
100
AcDbEntity
  8
Livello 1
370
     9
100
AcDbSpline
210
0.0
220
0.0
230
1.0
 70
    24
 71
     3
 72
    26
 73
    22
 74
     0
 42
0.000000001
 43
0.0000000001
 40
0.0
 40
0.0
 40
0.0
 40
0.0
 40
1.0
 40
1.0
 40
1.0
 40
2.0
 40
2.0
 40
2.0
 40
3.0
 40
3.0
 40
3.0
 40
4.0
 40
4.0
 40
4.0
 40
5.0
 40
5.0
 40
5.0
 40
6.0
 40
6.0
 40
6.0
 40
7.0
 40
7.0
 40
7.0
 40
7.0
 10
14.01987181634089
 20
-16.47484505577518
 30
0.0
 10
14.02114812553991
 20
-16.47484505577518
 30
0.0
 10
14.01841850075653
 20
-16.47484505577518
 30
0.0
 10
14.01786884934963
 20
-16.47484505577518
 30
0.0
 10
14.01240959978315
 20
-16.47484505577518
 30
0.0
 10
14.00713667272732
 20
-16.47484505577518
 30
0.0
 10
14.00185442954604
 20
-16.47484505577518
 30
0.0
 10
13.97583449091225
 20
-16.47484505577518
 30
0.0
 10
13.95000087478923
 20
-16.47484505577518
 30
0.0
 10
13.92415794254065
 20
-16.47484505577518
 30
0.0
 10
13.80588972880765
 20
-16.47484505577518
 30
0.0
 10
13.68798484397078
 20
-16.47484505577518
 30
0.0
 10
13.569893636623
 20
-16.47484505577518
 30
0.0
 10
13.41905753396958
 20
-16.47484505577518
 30
0.0
 10
13.2683958657652
 20
-16.47484505577518
 30
0.0
 10
13.11791248991411
 20
-16.47484505577518
 30
0.0
 10
12.81660104156709
 20
-16.47484505577518
 30
0.0
 10
12.51528027709436
 20
-16.47484505577518
 30
0.0
 10
12.21414583513255
 20
-16.47484505577518
 30
0.0
 10
11.61132729980215
 20
-16.47484505577518
 30
0.0
 10
11.00850998954413
 20
-16.47484505577518
 30
0.0
 10
10.40569022914113
 20
-16.47484505577518
 30
0.0
  0
LINE
  5
EC
330
70
100
AcDbEntity
  8
Livello 1
370
     9
100
AcDbLine
 10
13.81898820131722
 20
-16.47211543092302
 30
0.0
 11
13.81898820131722
 21
-16.47484505577518
 31
0.0
  0
LINE
  5
ED
330
70
100
AcDbEntity
  8
Livello 1
370
     9
100
AcDbLine
 10
13.66378154981733
 20
-16.47211543092302
 30
0.0
 11
13.66378154981733
 21
-16.47484505577518
 31
0.0
  0
SPLINE
  5
EE
330
70
100
AcDbEntity
  8
Livello 1
370
     9
100
AcDbSpline
210
0.0
220
0.0
230
1.0
 70
     8
 71
     3
 72
     8
 73
     4
 74
     0
 42
0.000000001
 43
0.0000000001
 40
0.0
 40
0.0
 40
0.0
 40
0.0
 40
1.0
 40
1.0
 40
1.0
 40
1.0
 10
13.68743519256388
 20
-16.47029878639679
 30
0.0
 10
13.688161850356
 20
-16.46974913497596
 30
0.0
 10
13.68889782427367
 20
-16.46957212858626
 30
0.0
 10
13.69035113985803
 20
-16.46957212858626
 30
0.0
  0
LINE
  5
EF
330
70
100
AcDbEntity
  8
Livello 1
370
     9
100
AcDbLine
 10
10.47719149266223
 20
-16.46957212858626
 30
0.0
 11
10.45863377058618
 21
-16.46957212858626
 31
0.0
  0
LINE
  5
F0
330
70
100
AcDbEntity
  8
Livello 1
370
     9
100
AcDbLine
 10
10.45626747469899
 20
-16.46957212858626
 30
0.0
 11
10.3552899899686
 21
-16.46957212858626
 31
0.0
  0
LINE
  5
F1
330
70
100
AcDbEntity
  8
Livello 1
370
     9
100
AcDbLine
 10
10.3520107137784
 20
-16.46957212858626
 30
0.0
 11
10.33945257655023
 21
-16.46957212858626
 31
0.0
  0
SPLINE
  5
F2
330
70
100
AcDbEntity
  8
Livello 1
370
     9
100
AcDbSpline
210
0.0
220
0.0
230
1.0
 70
     8
 71
     3
 72
     8
 73
     4
 74
     0
 42
0.000000001
 43
0.0000000001
 40
0.0
 40
0.0
 40
0.0
 40
0.0
 40
1.0
 40
1.0
 40
1.0
 40
1.0
 10
10.32999670912692
 20
-16.47029878639679
 30
0.0
 10
10.32872039992791
 20
-16.47083912169179
 30
0.0
 10
10.32835707103185
 20
-16.47138877311255
 30
0.0
 10
10.32835707103185
 20
-16.47211543092302
 30
0.0
  0
SPLINE
  5
F3
330
70
100
AcDbEntity
  8
Livello 1
370
     9
100
AcDbSpline
210
0.0
220
0.0
230
1.0
 70
    24
 71
     3
 72
    17
 73
    13
 74
     0
 42
0.000000001
 43
0.0000000001
 40
0.0
 40
0.0
 40
0.0
 40
0.0
 40
1.0
 40
1.0
 40
1.0
 40
2.0
 40
2.0
 40
2.0
 40
3.0
 40
3.0
 40
3.0
 40
4.0
 40
4.0
 40
4.0
 40
4.0
 10
13.66560751042325
 20
-16.47029878639679
 30
0.0
 10
13.66378154981733
 20
-16.47029878639679
 30
0.0
 10
13.66742544714609
 20
-16.47029878639679
 30
0.0
 10
13.66833713520649
 20
-16.47029878639679
 30
0.0
 10
13.66924079938382
 20
-16.47029878639679
 30
0.0
 10
13.67015377968684
 20
-16.47029878639679
 30
0.0
 10
13.67088043747896
 20
-16.47029878639679
 30
0.0
 10
13.67288340447008
 20
-16.47029878639679
 30
0.0
 10
13.67452304256522
 20
-16.47029878639679
 30
0.0
 10
13.67633968704557
 20
-16.47029878639679
 30
0.0
 10
13.68015929851705
 20
-16.47029878639679
 30
0.0
 10
13.6836155810924
 20
-16.47029878639679
 30
0.0
 10
13.68743519256388
 20
-16.47029878639679
 30
0.0
  0
SPLINE
  5
F4
330
70
100
AcDbEntity
  8
Livello 1
370
     9
100
AcDbSpline
210
0.0
220
0.0
230
1.0
 70
     8
 71
     3
 72
     8
 73
     4
 74
     0
 42
0.000000001
 43
0.0000000001
 40
0.0
 40
0.0
 40
0.0
 40
0.0
 40
1.0
 40
1.0
 40
1.0
 40
1.0
 10
10.48338671614652
 20
-16.47211543092302
 30
0.0
 10
10.48338671614652
 20
-16.47029878639679
 30
0.0
 10
10.4813837491554
 20
-16.46957212858626
 30
0.0
 10
10.47719149266223
 20
-16.46957212858626
 30
0.0
  0
LINE
  5
F5
330
70
100
AcDbEntity
  8
Livello 1
370
     9
100
AcDbLine
 10
10.48338671614652
 20
-16.47211543092302
 30
0.0
 11
10.48338671614652
 21
-16.47484505577518
 31
0.0
  0
LINE
  5
F6
330
70
100
AcDbEntity
  8
Livello 1
370
     9
100
AcDbLine
 10
10.32835707103185
 20
-16.47484505577518
 30
0.0
 11
10.32835707103185
 21
-16.47211543092302
 31
0.0
  0
LINE
  5
F7
330
70
100
AcDbEntity
  8
Livello 1
370
     9
100
AcDbLine
 10
8.09758286205144
 20
-16.46957212858626
 30
0.0
 11
7.996596061195487
 21
-16.46957212858626
 31
0.0
  0
LINE
  5
F8
330
70
100
AcDbEntity
  8
Livello 1
370
     9
100
AcDbLine
 10
7.994229765308365
 20
-16.46957212858626
 30
0.0
 11
7.977311681327318
 21
-16.46957212858626
 31
0.0
  0
SPLINE
  5
F9
330
70
100
AcDbEntity
  8
Livello 1
370
     9
100
AcDbSpline
210
0.0
220
0.0
230
1.0
 70
     8
 71
     3
 72
     8
 73
     4
 74
     0
 42
0.000000001
 43
0.0000000001
 40
0.0
 40
0.0
 40
0.0
 40
0.0
 40
1.0
 40
1.0
 40
1.0
 40
1.0
 10
13.66378154981733
 20
-16.47211543092302
 30
0.0
 10
13.66378154981733
 20
-16.47148193437025
 30
0.0
 10
13.66414487871333
 20
-16.47083912169179
 30
0.0
 10
13.66560751042325
 20
-16.47029878639679
 30
0.0
  0
LINE
  5
FA
330
70
100
AcDbEntity
  8
Livello 1
370
     9
100
AcDbLine
 10
13.79533585404437
 20
-16.47029878639679
 30
0.0
 11
13.81717155683687
 21
-16.47029878639679
 31
0.0
  0
SPLINE
  5
FB
330
70
100
AcDbEntity
  8
Livello 1
370
     9
100
AcDbSpline
210
0.0
220
0.0
230
1.0
 70
    24
 71
     3
 72
    20
 73
    16
 74
     0
 42
0.000000001
 43
0.0000000001
 40
0.0
 40
0.0
 40
0.0
 40
0.0
 40
1.0
 40
1.0
 40
1.0
 40
2.0
 40
2.0
 40
2.0
 40
3.0
 40
3.0
 40
3.0
 40
4.0
 40
4.0
 40
4.0
 40
5.0
 40
5.0
 40
5.0
 40
5.0
 10
8.117230570815731
 20
-16.46957212858626
 30
0.0
 10
8.117593899711852
 20
-16.46957212858626
 30
0.0
 10
8.118143551118686
 20
-16.46957212858626
 30
0.0
 10
8.118683886400024
 20
-16.46957212858626
 30
0.0
 10
8.119419860317702
 20
-16.46957212858626
 30
0.0
 10
8.117780222222631
 20
-16.46957212858626
 30
0.0
 10
8.11741689332651
 20
-16.46957212858626
 30
0.0
 10
8.116318742522523
 20
-16.46957212858626
 30
0.0
 10
8.115413926335381
 20
-16.46957212858626
 30
0.0
 10
8.114500946032487
 20
-16.46957212858626
 30
0.0
 10
8.112685453470126
 20
-16.46957212858626
 30
0.0
 10
8.110867657071789
 20
-16.46957212858626
 30
0.0
 10
8.108865841902073
 20
-16.46957212858626
 30
0.0
 10
8.105222084994396
 20
-16.46957212858626
 30
0.0
 10
8.101402473522918
 20
-16.46957212858626
 30
0.0
 10
8.09758286205144
 20
-16.46957212858626
 30
0.0
  0
SPLINE
  5
FC
330
70
100
AcDbEntity
  8
Livello 1
370
     9
100
AcDbSpline
210
0.0
220
0.0
230
1.0
 70
     8
 71
     3
 72
     8
 73
     4
 74
     0
 42
0.000000001
 43
0.0000000001
 40
0.0
 40
0.0
 40
0.0
 40
0.0
 40
1.0
 40
1.0
 40
1.0
 40
1.0
 10
13.79187827599519
 20
-16.46957212858626
 30
0.0
 10
13.7931545851942
 20
-16.46957212858626
 30
0.0
 10
13.7937042366011
 20
-16.46993545749155
 30
0.0
 10
13.79443089439322
 20
-16.47029878639679
 30
0.0
  0
SPLINE
  5
FD
330
70
100
AcDbEntity
  8
Livello 1
370
     9
100
AcDbSpline
210
0.0
220
0.0
230
1.0
 70
     8
 71
     3
 72
     8
 73
     4
 74
     0
 42
0.000000001
 43
0.0000000001
 40
0.0
 40
0.0
 40
0.0
 40
0.0
 40
1.0
 40
1.0
 40
1.0
 40
1.0
 10
13.81717155683687
 20
-16.47029878639679
 30
0.0
 10
13.81844786603589
 20
-16.47083912169179
 30
0.0
 10
13.81881249099889
 20
-16.47138877311255
 30
0.0
 10
13.81881249099889
 20
-16.47211543092302
 30
0.0
  0
LINE
  5
FE
330
70
100
AcDbEntity
  8
Livello 1
370
     9
100
AcDbLine
 10
7.070442756740892
 20
-16.46957212858626
 30
0.0
 11
7.000022163782392
 21
-16.46957212858626
 31
0.0
  0
LINE
  5
FF
330
70
100
AcDbEntity
  8
Livello 1
370
     9
100
AcDbLine
 10
6.992746269735557
 20
-16.47211543092302
 30
0.0
 11
6.992746269735557
 21
-16.47484505577518
 31
0.0
  0
LINE
  5
100
330
70
100
AcDbEntity
  8
Livello 1
370
     9
100
AcDbLine
 10
7.147775914850232
 20
-16.47211543092302
 30
0.0
 11
7.147775914850232
 21
-16.47484505577518
 31
0.0
  0
SPLINE
  5
101
330
70
100
AcDbEntity
  8
Livello 1
370
     9
100
AcDbSpline
210
0.0
220
0.0
230
1.0
 70
    24
 71
     3
 72
    20
 73
    16
 74
     0
 42
0.000000001
 43
0.0000000001
 40
0.0
 40
0.0
 40
0.0
 40
0.0
 40
1.0
 40
1.0
 40
1.0
 40
2.0
 40
2.0
 40
2.0
 40
3.0
 40
3.0
 40
3.0
 40
4.0
 40
4.0
 40
4.0
 40
5.0
 40
5.0
 40
5.0
 40
5.0
 10
7.14031369829249
 20
-16.46957212858626
 30
0.0
 10
7.140677027188547
 20
-16.46957212858626
 30
0.0
 10
7.141403684980724
 20
-16.46957212858626
 30
0.0
 10
7.141040356084602
 20
-16.46957212858626
 30
0.0
 10
7.138674060197355
 20
-16.46957212858626
 30
0.0
 10
7.136130757924891
 20
-16.46957212858626
 30
0.0
 10
7.133764462037706
 20
-16.46957212858626
 30
0.0
 10
7.13084851474362
 20
-16.46957212858626
 30
0.0
 10
7.127755561064256
 20
-16.46957212858626
 30
0.0
 10
7.124662607384892
 20
-16.46957212858626
 30
0.0
 10
7.118663022537071
 20
-16.46957212858626
 30
0.0
 10
7.112654121563557
 20
-16.46957212858626
 30
0.0
 10
7.106654536715737
 20
-16.46957212858626
 30
0.0
 10
7.094459728383559
 20
-16.46957212858626
 30
0.0
 10
7.082451242562226
 20
-16.46957212858626
 30
0.0
 10
7.070442756740892
 20
-16.46957212858626
 30
0.0
  0
LINE
  5
102
330
70
100
AcDbEntity
  8
Livello 1
370
     9
100
AcDbLine
 10
7.124122272103557
 20
-16.47029878639679
 30
0.0
 11
7.146137404256053
 21
-16.47029878639679
 31
0.0
  0
SPLINE
  5
103
330
70
100
AcDbEntity
  8
Livello 1
370
     9
100
AcDbSpline
210
0.0
220
0.0
230
1.0
 70
     8
 71
     3
 72
     8
 73
     4
 74
     0
 42
0.000000001
 43
0.0000000001
 40
0.0
 40
0.0
 40
0.0
 40
0.0
 40
1.0
 40
1.0
 40
1.0
 40
1.0
 10
7.120656673402634
 20
-16.46957212858626
 30
0.0
 10
7.122119305112492
 20
-16.46957212858626
 30
0.0
 10
7.122660767301596
 20
-16.46993545749155
 30
0.0
 10
7.123386298185877
 20
-16.47029878639679
 30
0.0
  0
SPLINE
  5
104
330
70
100
AcDbEntity
  8
Livello 1
370
     9
100
AcDbSpline
210
0.0
220
0.0
230
1.0
 70
    24
 71
     3
 72
    20
 73
    16
 74
     0
 42
0.000000001
 43
0.0000000001
 40
0.0
 40
0.0
 40
0.0
 40
0.0
 40
1.0
 40
1.0
 40
1.0
 40
2.0
 40
2.0
 40
2.0
 40
3.0
 40
3.0
 40
3.0
 40
4.0
 40
4.0
 40
4.0
 40
5.0
 40
5.0
 40
5.0
 40
5.0
 10
13.81153530088505
 20
-16.46957212858626
 30
0.0
 10
13.81171230727039
 20
-16.46957212858626
 30
0.0
 10
13.8124389650625
 20
-16.46957212858626
 30
0.0
 10
13.81207563616638
 20
-16.46957212858626
 30
0.0
 10
13.80953233389392
 20
-16.46957212858626
 30
0.0
 10
13.80734304439201
 20
-16.46957212858626
 30
0.0
 10
13.80479974211955
 20
-16.46957212858626
 30
0.0
 10
13.80170678844018
 20
-16.46957212858626
 30
0.0
 10
13.79879084114603
 20
-16.46957212858626
 30
0.0
 10
13.79588420997758
 20
-16.46957212858626
 30
0.0
 10
13.78969830261885
 20
-16.46957212858626
 30
0.0
 10
13.78351239526012
 20
-16.46957212858626
 30
0.0
 10
13.77768981679751
 20
-16.46957212858626
 30
0.0
 10
13.7654950084654
 20
-16.46957212858626
 30
0.0
 10
13.75348652264406
 20
-16.46957212858626
 30
0.0
 10
13.7413023245462
 20
-16.46957212858626
 30
0.0
  0
SPLINE
  5
105
330
70
100
AcDbEntity
  8
Livello 1
370
     9
100
AcDbSpline
210
0.0
220
0.0
230
1.0
 70
     8
 71
     3
 72
     8
 73
     4
 74
     0
 42
0.000000001
 43
0.0000000001
 40
0.0
 40
0.0
 40
0.0
 40
0.0
 40
1.0
 40
1.0
 40
1.0
 40
1.0
 10
7.146137404256053
 20
-16.47029878639679
 30
0.0
 10
7.147226263443331
 20
-16.47083912169179
 30
0.0
 10
7.147775914850232
 20
-16.47138877311255
 30
0.0
 10
7.147775914850232
 20
-16.47211543092302
 30
0.0
  0
SPLINE
  5
106
330
70
100
AcDbEntity
  8
Livello 1
370
     9
100
AcDbSpline
210
0.0
220
0.0
230
1.0
 70
     8
 71
     3
 72
     8
 73
     4
 74
     0
 42
0.000000001
 43
0.0000000001
 40
0.0
 40
0.0
 40
0.0
 40
0.0
 40
1.0
 40
1.0
 40
1.0
 40
1.0
 10
7.016222906096889
 20
-16.47029878639679
 30
0.0
 10
7.017126570274218
 20
-16.46974913497596
 30
0.0
 10
7.01785435232658
 20
-16.46957212858626
 30
0.0
 10
7.019315859776191
 20
-16.46957212858626
 30
0.0
  0
LINE
  5
107
330
70
100
AcDbEntity
  8
Livello 1
370
     9
100
AcDbLine
 10
13.7413023245462
 20
-16.46957212858626
 30
0.0
 11
13.67105873619842
 21
-16.46957212858626
 31
0.0
  0
SPLINE
  5
108
330
70
100
AcDbEntity
  8
Livello 1
370
     9
100
AcDbSpline
210
0.0
220
0.0
230
1.0
 70
    24
 71
     3
 72
    17
 73
    13
 74
     0
 42
0.000000001
 43
0.0000000001
 40
0.0
 40
0.0
 40
0.0
 40
0.0
 40
1.0
 40
1.0
 40
1.0
 40
2.0
 40
2.0
 40
2.0
 40
3.0
 40
3.0
 40
3.0
 40
4.0
 40
4.0
 40
4.0
 40
4.0
 10
6.994385907830564
 20
-16.47029878639679
 30
0.0
 10
6.992746269735557
 20
-16.47029878639679
 30
0.0
 10
6.996202552310913
 20
-16.47029878639679
 30
0.0
 10
6.99729253899915
 20
-16.47029878639679
 30
0.0
 10
6.998205519302042
 20
-16.47029878639679
 30
0.0
 10
6.99893217709422
 20
-16.47029878639679
 30
0.0
 10
7.000022163782392
 20
-16.47029878639679
 30
0.0
 10
7.001661801877464
 20
-16.47029878639679
 30
0.0
 10
7.003478446357878
 20
-16.47029878639679
 30
0.0
 10
7.005481413349006
 20
-16.47029878639679
 30
0.0
 10
7.008937695924362
 20
-16.47029878639679
 30
0.0
 10
7.012580301010626
 20
-16.47029878639679
 30
0.0
 10
7.016222906096889
 20
-16.47029878639679
 30
0.0
  0
SPLINE
  5
109
330
70
100
AcDbEntity
  8
Livello 1
370
     9
100
AcDbSpline
210
0.0
220
0.0
230
1.0
 70
     8
 71
     3
 72
     8
 73
     4
 74
     0
 42
0.000000001
 43
0.0000000001
 40
0.0
 40
0.0
 40
0.0
 40
0.0
 40
1.0
 40
1.0
 40
1.0
 40
1.0
 10
6.992746269735557
 20
-16.47211543092302
 30
0.0
 10
6.992746269735557
 20
-16.47148193437025
 30
0.0
 10
6.993295921142456
 20
-16.47083912169179
 30
0.0
 10
6.994385907830564
 20
-16.47029878639679
 30
0.0
  0
SPLINE
  5
10A
330
70
100
AcDbEntity
  8
Livello 1
370
     9
100
AcDbSpline
210
0.0
220
0.0
230
1.0
 70
    24
 71
     3
 72
    20
 73
    16
 74
     0
 42
0.000000001
 43
0.0000000001
 40
0.0
 40
0.0
 40
0.0
 40
0.0
 40
1.0
 40
1.0
 40
1.0
 40
2.0
 40
2.0
 40
2.0
 40
3.0
 40
3.0
 40
3.0
 40
4.0
 40
4.0
 40
4.0
 40
5.0
 40
5.0
 40
5.0
 40
5.0
 10
12.83424578334025
 20
-16.46957212858626
 30
0.0
 10
12.83460911223624
 20
-16.46957212858626
 30
0.0
 10
12.83515876364314
 20
-16.46957212858626
 30
0.0
 10
12.83588542143525
 20
-16.46957212858626
 30
0.0
 10
12.83643507284216
 20
-16.46957212858626
 30
0.0
 10
12.83497244113236
 20
-16.46957212858626
 30
0.0
 10
12.83460911223624
 20
-16.46957212858626
 30
0.0
 10
12.8340687769549
 20
-16.46957212858626
 30
0.0
 10
12.83315579665201
 20
-16.46957212858626
 30
0.0
 10
12.83206580996378
 20
-16.46957212858626
 30
0.0
 10
12.83061249437955
 20
-16.46957212858626
 30
0.0
 10
12.82878780483043
 20
-16.46957212858626
 30
0.0
 10
12.82715621180406
 20
-16.46957212858626
 30
0.0
 10
12.82387693561392
 20
-16.46957212858626
 30
0.0
 10
12.82059765942378
 20
-16.46957212858626
 30
0.0
 10
12.81714264761093
 20
-16.46957212858626
 30
0.0
  0
LINE
  5
10B
330
70
100
AcDbEntity
  8
Livello 1
370
     9
100
AcDbLine
 10
12.81477508096117
 20
-16.46957212858626
 30
0.0
 11
12.71379759623078
 21
-16.46957212858626
 31
0.0
  0
LINE
  5
10C
330
70
100
AcDbEntity
  8
Livello 1
370
     9
100
AcDbLine
 10
7.969663142258798
 20
-16.47211543092302
 30
0.0
 11
7.969663142258798
 21
-16.47484505577518
 31
0.0
  0
LINE
  5
10D
330
70
100
AcDbEntity
  8
Livello 1
370
     9
100
AcDbLine
 10
8.124692787373472
 20
-16.47211543092302
 30
0.0
 11
8.124692787373472
 21
-16.47484505577518
 31
0.0
  0
LINE
  5
10E
330
70
100
AcDbEntity
  8
Livello 1
370
     9
100
AcDbLine
 10
12.71070464255142
 20
-16.46957212858626
 30
0.0
 11
12.69450390023705
 21
-16.46957212858626
 31
0.0
  0
SPLINE
  5
10F
330
70
100
AcDbEntity
  8
Livello 1
370
     9
100
AcDbSpline
210
0.0
220
0.0
230
1.0
 70
     8
 71
     3
 72
     8
 73
     4
 74
     0
 42
0.000000001
 43
0.0000000001
 40
0.0
 40
0.0
 40
0.0
 40
0.0
 40
1.0
 40
1.0
 40
1.0
 40
1.0
 10
8.123053149278337
 20
-16.47029878639679
 30
0.0
 10
8.124330610689559
 20
-16.47083912169179
 30
0.0
 10
8.124692787373472
 20
-16.47138877311255
 30
0.0
 10
8.124692787373472
 20
-16.47211543092302
 30
0.0
  0
LINE
  5
110
330
70
100
AcDbEntity
  8
Livello 1
370
     9
100
AcDbLine
 10
8.101040296250694
 20
-16.47029878639679
 30
0.0
 11
8.121413511183328
 21
-16.47029878639679
 31
0.0
  0
SPLINE
  5
111
330
70
100
AcDbEntity
  8
Livello 1
370
     9
100
AcDbSpline
210
0.0
220
0.0
230
1.0
 70
     8
 71
     3
 72
     8
 73
     4
 74
     0
 42
0.000000001
 43
0.0000000001
 40
0.0
 40
0.0
 40
0.0
 40
0.0
 40
1.0
 40
1.0
 40
1.0
 40
1.0
 10
6.790958990534559
 20
-16.47484505577518
 30
0.0
 10
6.786589727656181
 20
-16.47484505577518
 30
0.0
 10
6.784773083175831
 20
-16.47557171358577
 30
0.0
 10
6.784773083175831
 20
-16.47748151936964
 30
0.0
  0
SPLINE
  5
112
330
70
100
AcDbEntity
  8
Livello 1
370
     9
100
AcDbSpline
210
0.0
220
0.0
230
1.0
 70
     8
 71
     3
 72
     8
 73
     4
 74
     0
 42
0.000000001
 43
0.0000000001
 40
0.0
 40
0.0
 40
0.0
 40
0.0
 40
1.0
 40
1.0
 40
1.0
 40
1.0
 10
14.02059977529742
 20
-16.47484505577518
 30
0.0
 10
14.0251447433966
 20
-16.47484505577518
 30
0.0
 10
14.02697070400251
 20
-16.47557171358577
 30
0.0
 10
14.02697070400251
 20
-16.47748151936964
 30
0.0
  0
LINE
  5
113
330
70
100
AcDbEntity
  8
Livello 1
370
     9
100
AcDbLine
 10
10.32999670912692
 20
-16.47029878639679
 30
0.0
 11
10.35182439126762
 21
-16.47029878639679
 31
0.0
  0
SPLINE
  5
114
330
70
100
AcDbEntity
  8
Livello 1
370
     9
100
AcDbSpline
210
0.0
220
0.0
230
1.0
 70
     8
 71
     3
 72
     8
 73
     4
 74
     0
 42
0.000000001
 43
0.0000000001
 40
0.0
 40
0.0
 40
0.0
 40
0.0
 40
1.0
 40
1.0
 40
1.0
 40
1.0
 10
10.45626747469899
 20
-16.46957212858626
 30
0.0
 10
10.45754378389794
 20
-16.46957212858626
 30
0.0
 10
10.45809343530484
 20
-16.46974913497596
 30
0.0
 10
10.45899709948223
 20
-16.47029878639679
 30
0.0
  0
LINE
  5
115
330
70
100
AcDbEntity
  8
Livello 1
370
     9
100
AcDbLine
 10
10.45899709948223
 20
-16.47029878639679
 30
0.0
 11
10.48156075554061
 21
-16.47029878639679
 31
0.0
  0
SPLINE
  5
116
330
70
100
AcDbEntity
  8
Livello 1
370
     9
100
AcDbSpline
210
0.0
220
0.0
230
1.0
 70
     8
 71
     3
 72
     8
 73
     4
 74
     0
 42
0.000000001
 43
0.0000000001
 40
0.0
 40
0.0
 40
0.0
 40
0.0
 40
1.0
 40
1.0
 40
1.0
 40
1.0
 10
10.35182439126762
 20
-16.47029878639679
 30
0.0
 10
10.35256157368734
 20
-16.46974913497596
 30
0.0
 10
10.35346402936276
 20
-16.46957212858626
 30
0.0
 10
10.35474033856177
 20
-16.46947896732856
 30
0.0
  0
SPLINE
  5
117
330
70
100
AcDbEntity
  8
Livello 1
370
     9
100
AcDbSpline
210
0.0
220
0.0
230
1.0
 70
     8
 71
     3
 72
     8
 73
     4
 74
     0
 42
0.000000001
 43
0.0000000001
 40
0.0
 40
0.0
 40
0.0
 40
0.0
 40
1.0
 40
1.0
 40
1.0
 40
1.0
 10
7.969663142258798
 20
-16.47211543092302
 30
0.0
 10
7.969663142258798
 20
-16.47148193437025
 30
0.0
 10
7.970212793665697
 20
-16.47083912169179
 30
0.0
 10
7.971489102864646
 20
-16.47029878639679
 30
0.0
  0
SPLINE
  5
118
330
70
100
AcDbEntity
  8
Livello 1
370
     9
100
AcDbSpline
210
0.0
220
0.0
230
1.0
 70
    24
 71
     3
 72
    17
 73
    13
 74
     0
 42
0.000000001
 43
0.0000000001
 40
0.0
 40
0.0
 40
0.0
 40
0.0
 40
1.0
 40
1.0
 40
1.0
 40
2.0
 40
2.0
 40
2.0
 40
3.0
 40
3.0
 40
3.0
 40
4.0
 40
4.0
 40
4.0
 40
4.0
 10
7.971489102864646
 20
-16.47029878639679
 30
0.0
 10
7.969663142258798
 20
-16.47029878639679
 30
0.0
 10
7.973305747344997
 20
-16.47029878639679
 30
0.0
 10
7.974218727647955
 20
-16.47029878639679
 30
0.0
 10
7.975122391825347
 20
-16.47029878639679
 30
0.0
 10
7.976035372128304
 20
-16.47029878639679
 30
0.0
 10
7.976949500920202
 20
-16.47029878639679
 30
0.0
 10
7.978764996911547
 20
-16.47029878639679
 30
0.0
 10
7.980404635006682
 20
-16.47029878639679
 30
0.0
 10
7.982398285872245
 20
-16.47029878639679
 30
0.0
 10
7.985863884573167
 20
-16.47029878639679
 30
0.0
 10
7.989497173533867
 20
-16.47029878639679
 30
0.0
 10
7.993316785005344
 20
-16.47029878639679
 30
0.0
  0
SPLINE
  5
119
330
70
100
AcDbEntity
  8
Livello 1
370
     9
100
AcDbSpline
210
0.0
220
0.0
230
1.0
 70
     8
 71
     3
 72
     8
 73
     4
 74
     0
 42
0.000000001
 43
0.0000000001
 40
0.0
 40
0.0
 40
0.0
 40
0.0
 40
1.0
 40
1.0
 40
1.0
 40
1.0
 10
7.993503107516187
 20
-16.47011246388119
 30
0.0
 10
7.994229765308365
 20
-16.46974913497596
 30
0.0
 10
7.99514274561126
 20
-16.46947896732856
 30
0.0
 10
7.996409738684708
 20
-16.46947896732856
 30
0.0
  0
LINE
  5
11A
330
70
100
AcDbEntity
  8
Livello 1
370
     9
100
AcDbLine
 10
12.84189432240877
 20
-16.47211543092302
 30
0.0
 11
12.84189432240877
 21
-16.47484505577518
 31
0.0
  0
LINE
  5
11B
330
70
100
AcDbEntity
  8
Livello 1
370
     9
100
AcDbLine
 10
12.70942833335241
 20
-16.47211543092302
 30
0.0
 11
12.68831799287832
 21
-16.47211543092302
 31
0.0
  0
SPLINE
  5
11C
330
70
100
AcDbEntity
  8
Livello 1
370
     9
100
AcDbSpline
210
0.0
220
0.0
230
1.0
 70
    24
 71
     3
 72
    23
 73
    19
 74
     0
 42
0.000000001
 43
0.0000000001
 40
0.0
 40
0.0
 40
0.0
 40
0.0
 40
1.0
 40
1.0
 40
1.0
 40
2.0
 40
2.0
 40
2.0
 40
3.0
 40
3.0
 40
3.0
 40
4.0
 40
4.0
 40
4.0
 40
5.0
 40
5.0
 40
5.0
 40
6.0
 40
6.0
 40
6.0
 40
6.0
 10
12.84025468431363
 20
-16.47211543092302
 30
0.0
 10
12.84098134210575
 20
-16.47211543092302
 30
0.0
 10
12.84298430909688
 20
-16.47211543092302
 30
0.0
 10
12.84189432240877
 20
-16.47211543092302
 30
0.0
 10
12.84134467100187
 20
-16.47211543092302
 30
0.0
 10
12.84079501959497
 20
-16.47211543092302
 30
0.0
 10
12.83989135541751
 20
-16.47211543092302
 30
0.0
 10
12.83570841505004
 20
-16.47211543092302
 30
0.0
 10
12.83133915217166
 20
-16.47211543092302
 30
0.0
 10
12.82678356678251
 20
-16.47211543092302
 30
0.0
 10
12.82114858169432
 20
-16.47211543092302
 30
0.0
 10
12.81568806126406
 20
-16.47211543092302
 30
0.0
 10
12.81005180531224
 20
-16.47211543092302
 30
0.0
 10
12.79894698366836
 20
-16.47211543092302
 30
0.0
 10
12.78766515563914
 20
-16.47211543092302
 30
0.0
 10
12.7765696501207
 20
-16.47211543092302
 30
0.0
 10
12.75419231657316
 20
-16.47211543092302
 30
0.0
 10
12.73180693550673
 20
-16.47211543092302
 30
0.0
 10
12.70942833335241
 20
-16.47211543092302
 30
0.0
  0
SPLINE
  5
11D
330
70
100
AcDbEntity
  8
Livello 1
370
     9
100
AcDbSpline
210
0.0
220
0.0
230
1.0
 70
     8
 71
     3
 72
     8
 73
     4
 74
     0
 42
0.000000001
 43
0.0000000001
 40
0.0
 40
0.0
 40
0.0
 40
0.0
 40
1.0
 40
1.0
 40
1.0
 40
1.0
 10
12.71379759623078
 20
-16.46957212858626
 30
0.0
 10
12.71033199752986
 20
-16.46974913497596
 30
0.0
 10
12.70906500445641
 20
-16.47056895404432
 30
0.0
 10
12.70942833335241
 20
-16.47211543092302
 30
0.0
  0
LINE
  5
11E
330
70
100
AcDbEntity
  8
Livello 1
370
     9
100
AcDbLine
 10
13.7413023245462
 20
-16.47484505577518
 30
0.0
 11
13.7413023245462
 21
-16.47211543092302
 31
0.0
  0
LINE
  5
11F
330
70
100
AcDbEntity
  8
Livello 1
370
     9
100
AcDbLine
 10
13.7413023245462
 20
-16.47211543092302
 30
0.0
 11
13.66505785901635
 21
-16.47211543092302
 31
0.0
  0
LINE
  5
121
330
70
100
AcDbEntity
  8
Livello 1
370
     9
100
AcDbLine
 10
13.7413023245462
 20
-16.46957212858626
 30
0.0
 11
13.7413023245462
 21
-16.47211543092302
 31
0.0
  0
LINE
  5
122
330
70
100
AcDbEntity
  8
Livello 1
370
     9
100
AcDbLine
 10
7.070442756740892
 20
-16.47211543092302
 30
0.0
 11
7.070442756740892
 21
-16.47484505577518
 31
0.0
  0
SPLINE
  5
123
330
70
100
AcDbEntity
  8
Livello 1
370
     9
100
AcDbSpline
210
0.0
220
0.0
230
1.0
 70
    24
 71
     3
 72
    20
 73
    16
 74
     0
 42
0.000000001
 43
0.0000000001
 40
0.0
 40
0.0
 40
0.0
 40
0.0
 40
1.0
 40
1.0
 40
1.0
 40
2.0
 40
2.0
 40
2.0
 40
3.0
 40
3.0
 40
3.0
 40
4.0
 40
4.0
 40
4.0
 40
5.0
 40
5.0
 40
5.0
 40
5.0
 10
7.146676612036432
 20
-16.47211543092302
 30
0.0
 10
7.14686293454721
 20
-16.47211543092302
 30
0.0
 10
7.147589592339388
 20
-16.47211543092302
 30
0.0
 10
7.147226263443331
 20
-16.47211543092302
 30
0.0
 10
7.144496638660025
 20
-16.47211543092302
 30
0.0
 10
7.141953336387563
 20
-16.47211543092302
 30
0.0
 10
7.139400717989532
 20
-16.47211543092302
 30
0.0
 10
7.136130757924891
 20
-16.47211543092302
 30
0.0
 10
7.132674475349534
 20
-16.47211543092302
 30
0.0
 10
7.129395199159391
 20
-16.47211543092302
 30
0.0
 10
7.122847089817121
 20
-16.47211543092302
 30
0.0
 10
7.116296726649822
 20
-16.47211543092302
 30
0.0
 10
7.109747490395037
 20
-16.47211543092302
 30
0.0
 10
7.096639701759968
 20
-16.47211543092302
 30
0.0
 10
7.083364222865181
 20
-16.47211543092302
 30
0.0
 10
7.070442756740892
 20
-16.47211543092302
 30
0.0
  0
LINE
  5
124
330
70
100
AcDbEntity
  8
Livello 1
370
     9
100
AcDbLine
 10
7.070442756740892
 20
-16.47211543092302
 30
0.0
 11
7.070442756740892
 21
-16.46957212858626
 31
0.0
  0
LINE
  5
125
330
70
100
AcDbEntity
  8
Livello 1
370
     9
100
AcDbLine
 10
7.070442756740892
 20
-16.47211543092302
 30
0.0
 11
6.994022578934571
 21
-16.47211543092302
 31
0.0
  0
LINE
  5
126
330
70
100
AcDbEntity
  8
Livello 1
370
     9
100
AcDbLine
 10
8.102129131315031
 20
-16.47211543092302
 30
0.0
 11
8.102129131315031
 21
-16.47484505577518
 31
0.0
  0
SPLINE
  5
127
330
70
100
AcDbEntity
  8
Livello 1
370
     9
100
AcDbSpline
210
0.0
220
0.0
230
1.0
 70
    24
 71
     3
 72
    20
 73
    16
 74
     0
 42
0.000000001
 43
0.0000000001
 40
0.0
 40
0.0
 40
0.0
 40
0.0
 40
1.0
 40
1.0
 40
1.0
 40
2.0
 40
2.0
 40
2.0
 40
3.0
 40
3.0
 40
3.0
 40
4.0
 40
4.0
 40
4.0
 40
5.0
 40
5.0
 40
5.0
 40
5.0
 10
8.12323947178918
 20
-16.47211543092302
 30
0.0
 10
8.123779807070516
 20
-16.47211543092302
 30
0.0
 10
8.124144288174031
 20
-16.47211543092302
 30
0.0
 10
8.124692787373472
 20
-16.47211543092302
 30
0.0
 10
8.125782774061644
 20
-16.47211543092302
 30
0.0
 10
8.123966129581356
 20
-16.47211543092302
 30
0.0
 10
8.123416478174457
 20
-16.47211543092302
 30
0.0
 10
8.122326491486223
 20
-16.47211543092302
 30
0.0
 10
8.121413511183328
 20
-16.47211543092302
 30
0.0
 10
8.120510999121441
 20
-16.47211543092302
 30
0.0
 10
8.118506880014745
 20
-16.47211543092302
 30
0.0
 10
8.116318742522523
 20
-16.47211543092302
 30
0.0
 10
8.11432393964721
 20
-16.47211543092302
 30
0.0
 10
8.110318005664886
 20
-16.47211543092302
 30
0.0
 10
8.106135065297351
 20
-16.47211543092302
 30
0.0
 10
8.102129131315031
 20
-16.47211543092302
 30
0.0
  0
SPLINE
  5
128
330
70
100
AcDbEntity
  8
Livello 1
370
     9
100
AcDbSpline
210
0.0
220
0.0
230
1.0
 70
     8
 71
     3
 72
     8
 73
     4
 74
     0
 42
0.000000001
 43
0.0000000001
 40
0.0
 40
0.0
 40
0.0
 40
0.0
 40
1.0
 40
1.0
 40
1.0
 40
1.0
 10
8.102129131315031
 20
-16.47211543092302
 30
0.0
 10
8.102678782721932
 20
-16.47056895404432
 30
0.0
 10
8.101402473522918
 20
-16.46974913497596
 30
0.0
 10
8.09758286205144
 20
-16.46957212858626
 30
0.0
  0
LINE
  5
129
330
70
100
AcDbEntity
  8
Livello 1
370
     9
100
AcDbLine
 10
8.102129131315031
 20
-16.47211543092302
 30
0.0
 11
7.97112577396859
 21
-16.47211543092302
 31
0.0
  0
LINE
  5
12A
330
70
100
AcDbEntity
  8
Livello 1
370
     9
100
AcDbLine
 10
10.48338671614652
 20
-16.47211543092302
 30
0.0
 11
10.32835707103185
 21
-16.47211543092302
 31
0.0
  0
LINE
  5
12B
330
70
100
AcDbEntity
  8
Livello 1
370
     9
100
AcDbLine
 10
10.40569022914113
 20
-16.47748151936964
 30
0.0
 11
10.40569022914113
 21
-16.47484505577518
 31
0.0
  0
LINE
  5
12C
330
70
100
AcDbEntity
  8
Livello 1
370
     9
100
AcDbLine
 10
10.40569022914113
 20
-16.47748151936964
 30
0.0
 11
6.785676747353226
 21
-16.47748151936964
 31
0.0
  0
SPLINE
  5
12D
330
70
100
AcDbEntity
  8
Livello 1
370
     9
100
AcDbSpline
210
0.0
220
0.0
230
1.0
 70
    24
 71
     3
 72
    26
 73
    22
 74
     0
 42
0.000000001
 43
0.0000000001
 40
0.0
 40
0.0
 40
0.0
 40
0.0
 40
1.0
 40
1.0
 40
1.0
 40
2.0
 40
2.0
 40
2.0
 40
3.0
 40
3.0
 40
3.0
 40
4.0
 40
4.0
 40
4.0
 40
5.0
 40
5.0
 40
5.0
 40
6.0
 40
6.0
 40
6.0
 40
7.0
 40
7.0
 40
7.0
 40
7.0
 10
14.02587140118871
 20
-16.47748151936964
 30
0.0
 10
14.02733403289851
 20
-16.47748151936964
 30
0.0
 10
14.02478141450048
 20
-16.47748151936964
 30
0.0
 10
14.02424107921914
 20
-16.47748151936964
 30
0.0
 10
14.01878182965266
 20
-16.47748151936964
 30
0.0
 10
14.01332258008604
 20
-16.47748151936964
 30
0.0
 10
14.00804033690477
 20
-16.47748151936964
 30
0.0
 10
13.98202039827097
 20
-16.47748151936964
 30
0.0
 10
13.95618678214796
 20
-16.47748151936964
 30
0.0
 10
13.93016684351416
 20
-16.47748151936964
 30
0.0
 10
13.81189862978117
 20
-16.47748151936964
 30
0.0
 10
13.69362109992261
 20
-16.47748151936964
 30
0.0
 10
13.5751758798044
 20
-16.47748151936964
 30
0.0
 10
13.4243291750572
 20
-16.47748151936964
 30
0.0
 10
13.27349178643569
 20
-16.47748151936964
 30
0.0
 10
13.12246807530327
 20
-16.47748151936964
 30
0.0
 10
12.82078398193456
 20
-16.47748151936964
 30
0.0
 10
12.51892288218063
 20
-16.47748151936964
 30
0.0
 10
12.21723878881191
 20
-16.47748151936964
 30
0.0
 10
11.61350727317849
 20
-16.47748151936964
 30
0.0
 10
11.00959875115986
 20
-16.47748151936964
 30
0.0
 10
10.40569022914113
 20
-16.47748151936964
 30
0.0
  0
SPLINE
  5
12E
330
70
100
AcDbEntity
  8
Livello 1
370
     9
100
AcDbSpline
210
0.0
220
0.0
230
1.0
 70
    24
 71
     3
 72
    26
 73
    22
 74
     0
 42
0.000000001
 43
0.0000000001
 40
0.0
 40
0.0
 40
0.0
 40
0.0
 40
1.0
 40
1.0
 40
1.0
 40
2.0
 40
2.0
 40
2.0
 40
3.0
 40
3.0
 40
3.0
 40
4.0
 40
4.0
 40
4.0
 40
5.0
 40
5.0
 40
5.0
 40
6.0
 40
6.0
 40
6.0
 40
7.0
 40
7.0
 40
7.0
 40
7.0
 10
6.791871970837452
 20
-16.6444264932677
 30
0.0
 10
6.790595661638438
 20
-16.6444264932677
 30
0.0
 10
6.793138963910902
 20
-16.6444264932677
 30
0.0
 10
6.793688615317802
 20
-16.6444264932677
 30
0.0
 10
6.798961542373572
 20
-16.6444264932677
 30
0.0
 10
6.804421910808494
 20
-16.6444264932677
 30
0.0
 10
6.809703035121393
 20
-16.6444264932677
 30
0.0
 10
6.835537770898863
 20
-16.6444264932677
 30
0.0
 10
6.861556589878208
 20
-16.6444264932677
 30
0.0
 10
6.887390206001228
 20
-16.6444264932677
 30
0.0
 10
7.005667735859785
 20
-16.6444264932677
 30
0.0
 10
7.123758943207563
 20
-16.6444264932677
 30
0.0
 10
7.241840834429712
 20
-16.6444264932677
 30
0.0
 10
7.392501216666009
 20
-16.6444264932677
 30
0.0
 10
7.542984592517028
 20
-16.6444264932677
 30
0.0
 10
7.693635658627824
 20
-16.6444264932677
 30
0.0
 10
7.99514274561126
 20
-16.6444264932677
 30
0.0
 10
8.296090865062295
 20
-16.6444264932677
 30
0.0
 10
8.597411629534887
 20
-16.6444264932677
 30
0.0
 10
9.200230164865416
 20
-16.6444264932677
 30
0.0
 10
9.803048700195942
 20
-16.6444264932677
 30
0.0
 10
10.40586723552641
 20
-16.6444264932677
 30
0.0
  0
LINE
  5
12F
330
70
100
AcDbEntity
  8
Livello 1
370
     9
100
AcDbLine
 10
10.40569022914113
 20
-16.6444264932677
 30
0.0
 11
14.01987181634089
 21
-16.6444264932677
 31
0.0
  0
SPLINE
  5
130
330
70
100
AcDbEntity
  8
Livello 1
370
     9
100
AcDbSpline
210
0.0
220
0.0
230
1.0
 70
     8
 71
     3
 72
     8
 73
     4
 74
     0
 42
0.000000001
 43
0.0000000001
 40
0.0
 40
0.0
 40
0.0
 40
0.0
 40
1.0
 40
1.0
 40
1.0
 40
1.0
 10
6.784773083175831
 20
-16.64333650655193
 30
0.0
 10
6.784773083175831
 20
-16.64415632562023
 30
0.0
 10
6.786412721270903
 20
-16.6444264932677
 30
0.0
 10
6.790958990534559
 20
-16.6444264932677
 30
0.0
  0
SPLINE
  5
131
330
70
100
AcDbEntity
  8
Livello 1
370
     9
100
AcDbSpline
210
0.0
220
0.0
230
1.0
 70
     8
 71
     3
 72
     8
 73
     4
 74
     0
 42
0.000000001
 43
0.0000000001
 40
0.0
 40
0.0
 40
0.0
 40
0.0
 40
1.0
 40
1.0
 40
1.0
 40
1.0
 10
14.02697070400251
 20
-16.64333650655193
 30
0.0
 10
14.02697070400251
 20
-16.64415632562023
 30
0.0
 10
14.0251447433966
 20
-16.6444264932677
 30
0.0
 10
14.02059977529742
 20
-16.6444264932677
 30
0.0
  0
LINE
  5
132
330
70
100
AcDbEntity
  8
Livello 1
370
     9
100
AcDbLine
 10
14.02697070400251
 20
-16.47748151936964
 30
0.0
 11
14.02697070400251
 21
-16.64333650655193
 31
0.0
  0
LINE
  5
133
330
70
100
AcDbEntity
  8
Livello 1
370
     9
100
AcDbLine
 10
6.784773083175831
 20
-16.47748151936964
 30
0.0
 11
6.784773083175831
 21
-16.64333650655193
 31
0.0
  0
SPLINE
  5
134
330
70
100
AcDbEntity
  8
Livello 1
370
     9
100
AcDbSpline
210
0.0
220
0.0
230
1.0
 70
    24
 71
     3
 72
    26
 73
    22
 74
     0
 42
0.000000001
 43
0.0000000001
 40
0.0
 40
0.0
 40
0.0
 40
0.0
 40
1.0
 40
1.0
 40
1.0
 40
2.0
 40
2.0
 40
2.0
 40
3.0
 40
3.0
 40
3.0
 40
4.0
 40
4.0
 40
4.0
 40
5.0
 40
5.0
 40
5.0
 40
6.0
 40
6.0
 40
6.0
 40
7.0
 40
7.0
 40
7.0
 40
7.0
 10
14.02587140118871
 20
-16.64333650655193
 30
0.0
 10
14.02733403289851
 20
-16.64333650655193
 30
0.0
 10
14.02478141450048
 20
-16.64333650655193
 30
0.0
 10
14.02424107921914
 20
-16.64333650655193
 30
0.0
 10
14.01878182965266
 20
-16.64333650655193
 30
0.0
 10
14.01332258008604
 20
-16.64333650655193
 30
0.0
 10
14.00804033690477
 20
-16.64333650655193
 30
0.0
 10
13.98202039827097
 20
-16.64333650655193
 30
0.0
 10
13.95618678214796
 20
-16.64333650655193
 30
0.0
 10
13.93016684351416
 20
-16.64333650655193
 30
0.0
 10
13.81189862978117
 20
-16.64333650655193
 30
0.0
 10
13.69362109992261
 20
-16.64333650655193
 30
0.0
 10
13.5751758798044
 20
-16.64333650655193
 30
0.0
 10
13.4243291750572
 20
-16.64333650655193
 30
0.0
 10
13.27349178643569
 20
-16.64333650655193
 30
0.0
 10
13.12246807530327
 20
-16.64333650655193
 30
0.0
 10
12.82078398193456
 20
-16.64333650655193
 30
0.0
 10
12.51892288218063
 20
-16.64333650655193
 30
0.0
 10
12.21723878881191
 20
-16.64333650655193
 30
0.0
 10
11.61350727317849
 20
-16.64333650655193
 30
0.0
 10
11.00959875115986
 20
-16.64333650655193
 30
0.0
 10
10.40569022914113
 20
-16.64333650655193
 30
0.0
  0
LINE
  5
135
330
70
100
AcDbEntity
  8
Livello 1
370
     9
100
AcDbLine
 10
10.40569022914113
 20
-16.64333650655193
 30
0.0
 11
6.785676747353226
 21
-16.64333650655193
 31
0.0
  0
LINE
  5
136
330
70
100
AcDbEntity
  8
Livello 1
370
     9
100
AcDbLine
 10
10.40569022914113
 20
-16.6444264932677
 30
0.0
 11
10.40569022914113
 21
-16.64333650655193
 31
0.0
  0
LINE
  5
137
330
70
100
AcDbEntity
  8
Livello 1
370
     9
100
AcDbLine
 10
12.70942833335241
 20
-16.47484505577518
 30
0.0
 11
12.70942833335241
 21
-16.47211543092302
 31
0.0
  0
LINE
  5
138
330
70
100
AcDbEntity
  8
Livello 1
370
     9
100
AcDbLine
 10
12.32987074659308
 20
-15.93626119243873
 30
0.0
 11
12.33332702916857
 21
-16.33501000788417
 31
0.0
  0
LINE
  5
139
330
70
100
AcDbEntity
  8
Livello 1
370
     9
100
AcDbLine
 10
8.480596731386187
 20
-16.33501000788417
 30
0.0
 11
8.484416342857665
 21
-15.93634503757074
 31
0.0
  0
SPLINE
  5
13A
330
70
100
AcDbEntity
  8
Livello 1
370
     9
100
AcDbSpline
210
0.0
220
0.0
230
1.0
 70
    24
 71
     3
 72
    23
 73
    19
 74
     0
 42
0.000000001
 43
0.0000000001
 40
0.0
 40
0.0
 40
0.0
 40
0.0
 40
1.0
 40
1.0
 40
1.0
 40
2.0
 40
2.0
 40
2.0
 40
3.0
 40
3.0
 40
3.0
 40
4.0
 40
4.0
 40
4.0
 40
5.0
 40
5.0
 40
5.0
 40
6.0
 40
6.0
 40
6.0
 40
6.0
 10
12.32004223414822
 20
-15.9265258410033
 30
0.0
 10
12.32567849010004
 20
-15.9265258410033
 30
0.0
 10
12.31421965568561
 20
-15.9265258410033
 30
0.0
 10
12.31130370839146
 20
-15.9265258410033
 30
0.0
 10
12.30057153176914
 20
-15.9265258410033
 30
0.0
 10
12.28965303263604
 20
-15.9265258410033
 30
0.0
 10
12.27873453350294
 20
-15.9265258410033
 30
0.0
 10
12.23234022831261
 20
-15.9265258410033
 30
0.0
 10
12.18575960061163
 20
-15.9265258410033
 30
0.0
 10
12.13917897291052
 20
-15.9265258410033
 30
0.0
 10
12.07858689239695
 20
-15.9265258410033
 30
0.0
 10
12.0183581407795
 20
-15.9265258410033
 30
0.0
 10
11.95795238277684
 20
-15.9265258410033
 30
0.0
 10
11.83694522813491
 20
-15.9265258410033
 30
0.0
 10
11.71613371212945
 20
-15.9265258410033
 30
0.0
 10
11.59512655748765
 20
-15.9265258410033
 30
0.0
 10
11.35349420935117
 20
-15.9265258410033
 30
0.0
 10
11.11167553870392
 20
-15.9265258410033
 30
0.0
 10
10.86985686805666
 20
-15.9265258410033
 30
0.0
  0
LINE
  5
13B
330
70
100
AcDbEntity
  8
Livello 1
370
     9
100
AcDbLine
 10
10.86985686805666
 20
-15.9265258410033
 30
0.0
 11
8.494244855302593
 21
-15.9265258410033
 31
0.0
  0
LINE
  5
13C
330
70
100
AcDbEntity
  8
Livello 1
370
     9
100
AcDbLine
 10
10.84529146595643
 20
-16.33501000788417
 30
0.0
 11
10.8401943243366
 21
-16.33501000788417
 31
0.0
  0
LINE
  5
13D
330
70
100
AcDbEntity
  8
Livello 1
370
     9
100
AcDbLine
 10
10.76941971860761
 20
-16.33501000788417
 30
0.0
 11
10.76232083094599
 21
-16.33501000788417
 31
0.0
  0
LINE
  5
13E
330
70
100
AcDbEntity
  8
Livello 1
370
     9
100
AcDbLine
 10
10.74521642445416
 20
-16.33501000788417
 30
0.0
 11
10.73248128084071
 21
-16.33501000788417
 31
0.0
  0
LINE
  5
13F
330
70
100
AcDbEntity
  8
Livello 1
370
     9
100
AcDbLine
 10
10.59583235141688
 20
-16.33501000788417
 30
0.0
 11
10.56562947241548
 21
-16.33501000788417
 31
0.0
  0
SPLINE
  5
140
330
70
100
AcDbEntity
  8
Livello 1
370
     9
100
AcDbSpline
210
0.0
220
0.0
230
1.0
 70
     8
 71
     3
 72
     8
 73
     4
 74
     0
 42
0.000000001
 43
0.0000000001
 40
0.0
 40
0.0
 40
0.0
 40
0.0
 40
1.0
 40
1.0
 40
1.0
 40
1.0
 10
12.32022049874264
 20
-15.9265258410033
 30
0.0
 10
12.32349851672357
 20
-15.928072317882
 30
0.0
 10
12.32622814150694
 20
-15.93007528492382
 30
0.0
 10
12.32877144377941
 20
-15.93298191616575
 30
0.0
  0
SPLINE
  5
141
330
70
100
AcDbEntity
  8
Livello 1
370
     9
100
AcDbSpline
210
0.0
220
0.0
230
1.0
 70
     8
 71
     3
 72
     8
 73
     4
 74
     0
 42
0.000000001
 43
0.0000000001
 40
0.0
 40
0.0
 40
0.0
 40
0.0
 40
1.0
 40
1.0
 40
1.0
 40
1.0
 10
8.484239336472386
 20
-15.93626119243873
 30
0.0
 10
8.486242303463516
 20
-15.93134227802922
 30
0.0
 10
8.488963773544734
 20
-15.92843564678729
 30
0.0
 10
8.494058532791813
 20
-15.9265258410033
 30
0.0
  0
LINE
  5
142
330
70
100
AcDbEntity
  8
Livello 1
370
     9
100
AcDbLine
 10
12.29329689525144
 20
-15.9153371739468
 30
0.0
 11
12.29329689525144
 21
-15.9264326797456
 31
0.0
  0
LINE
  5
143
330
70
100
AcDbEntity
  8
Livello 1
370
     9
100
AcDbLine
 10
8.520805129217725
 20
-15.9265258410033
 30
0.0
 11
8.520991451728502
 21
-15.9153371739468
 31
0.0
  0
LINE
  5
144
330
70
100
AcDbEntity
  8
Livello 1
370
     9
100
AcDbLine
 10
10.87240139196341
 20
-15.93626119243873
 30
0.0
 11
8.484416342857665
 21
-15.93626119243873
 31
0.0
  0
SPLINE
  5
145
330
70
100
AcDbEntity
  8
Livello 1
370
     9
100
AcDbSpline
210
0.0
220
0.0
230
1.0
 70
     8
 71
     3
 72
     8
 73
     4
 74
     0
 42
0.000000001
 43
0.0000000001
 40
0.0
 40
0.0
 40
0.0
 40
0.0
 40
1.0
 40
1.0
 40
1.0
 40
1.0
 10
10.86985686805666
 20
-15.9265258410033
 30
0.0
 10
10.87240139196341
 20
-15.92961879476069
 30
0.0
 10
10.87294982173601
 20
-15.93244158087074
 30
0.0
 10
10.87222316394378
 20
-15.93626119243873
 30
0.0
  0
SPLINE
  5
146
330
70
100
AcDbEntity
  8
Livello 1
370
     9
100
AcDbSpline
210
0.0
220
0.0
230
1.0
 70
    24
 71
     3
 72
    23
 73
    19
 74
     0
 42
0.000000001
 43
0.0000000001
 40
0.0
 40
0.0
 40
0.0
 40
0.0
 40
1.0
 40
1.0
 40
1.0
 40
2.0
 40
2.0
 40
2.0
 40
3.0
 40
3.0
 40
3.0
 40
4.0
 40
4.0
 40
4.0
 40
5.0
 40
5.0
 40
5.0
 40
6.0
 40
6.0
 40
6.0
 40
6.0
 10
12.32987074659308
 20
-15.93626119243873
 30
0.0
 10
12.33550700254491
 20
-15.93626119243873
 30
0.0
 10
12.32404816813047
 20
-15.93626119243873
 30
0.0
 10
12.32113222083645
 20
-15.93626119243873
 30
0.0
 10
12.31021372170322
 20
-15.93626119243873
 30
0.0
 10
12.29929522257013
 20
-15.93626119243873
 30
0.0
 10
12.28838603956259
 20
-15.93626119243873
 30
0.0
 10
12.24161908935071
 20
-15.93626119243873
 30
0.0
 10
12.19485213913882
 20
-15.93626119243873
 30
0.0
 10
12.1480945050525
 20
-15.93626119243873
 30
0.0
 10
12.08713909564293
 20
-15.93626119243873
 30
0.0
 10
12.02654701512936
 20
-15.93626119243873
 30
0.0
 10
11.96595493461579
 20
-15.93626119243873
 30
0.0
 10
11.84440744469265
 20
-15.93626119243873
 30
0.0
 10
11.72285995476952
 20
-15.93626119243873
 30
0.0
 10
11.60132178097194
 20
-15.93626119243873
 30
0.0
 10
11.35822680112567
 20
-15.93626119243873
 30
0.0
 10
11.11531814379018
 20
-15.93626119243873
 30
0.0
 10
10.87240139196341
 20
-15.93626119243873
 30
0.0
  0
SPLINE
  5
147
330
70
100
AcDbEntity
  8
Livello 1
370
     9
100
AcDbSpline
210
0.0
220
0.0
230
1.0
 70
     8
 71
     3
 72
     8
 73
     4
 74
     0
 42
0.000000001
 43
0.0000000001
 40
0.0
 40
0.0
 40
0.0
 40
0.0
 40
1.0
 40
1.0
 40
1.0
 40
1.0
 10
12.37576053286992
 20
-15.93358536028126
 30
0.0
 10
12.37903049293449
 20
-15.93513183716015
 30
0.0
 10
12.38176011771774
 20
-15.93712548807602
 30
0.0
 10
12.38412641360499
 20
-15.93985511292831
 30
0.0
  0
SPLINE
  5
148
330
70
100
AcDbEntity
  8
Livello 1
370
     9
100
AcDbSpline
210
0.0
220
0.0
230
1.0
 70
     8
 71
     3
 72
     8
 73
     4
 74
     0
 42
0.000000001
 43
0.0000000001
 40
0.0
 40
0.0
 40
0.0
 40
0.0
 40
1.0
 40
1.0
 40
1.0
 40
1.0
 10
8.539771312683182
 20
-15.94332071171676
 30
0.0
 10
8.541587957163532
 20
-15.93840179730725
 30
0.0
 10
8.544503904457616
 20
-15.93549516606532
 30
0.0
 10
8.549599825128106
 20
-15.93358536028126
 30
0.0
  0
LINE
  5
149
330
70
100
AcDbEntity
  8
Livello 1
370
     9
100
AcDbLine
 10
12.3488276139331
 20
-15.92238737709913
 30
0.0
 11
12.34901393644388
 21
-15.93358536028126
 31
0.0
  0
LINE
  5
14A
330
70
100
AcDbEntity
  8
Livello 1
370
     9
100
AcDbLine
 10
8.576346421554083
 20
-15.93358536028126
 30
0.0
 11
8.57652342793933
 21
-15.92238737709913
 31
0.0
  0
LINE
  5
18E
330
70
100
AcDbEntity
  8
Livello 1
370
     9
100
AcDbLine
 10
9.880838672915386
 20
-9.780436177229946
 30
0.0
 11
10.9571941493599
 21
-9.780436177229946
 31
0.0
  0
LINE
  5
18F
330
70
100
AcDbEntity
  8
Livello 1
370
     9
100
AcDbLine
 10
10.9571941493599
 20
-9.780436177229946
 30
0.0
 11
10.9571941493599
 21
-10.17597364324229
 31
0.0
  0
LINE
  5
190
330
70
100
AcDbEntity
  8
Livello 1
370
     9
100
AcDbLine
 10
10.9571941493599
 20
-10.17597364324229
 30
0.0
 11
9.880838672915386
 21
-10.17597364324229
 31
0.0
  0
LINE
  5
191
330
70
100
AcDbEntity
  8
Livello 1
370
     9
100
AcDbLine
 10
9.880838672915386
 20
-10.17597364324229
 30
0.0
 11
9.880838672915386
 21
-9.780436177229946
 31
0.0
  0
SPLINE
  5
19F
330
70
100
AcDbEntity
  8
Livello 1
370
     9
100
AcDbSpline
210
0.0
220
0.0
230
1.0
 70
    24
 71
     3
 72
     8
 73
     4
 74
     0
 42
0.000000001
 43
0.0000000001
 40
0.0
 40
0.0
 40
0.0
 40
0.0
 40
1.0
 40
1.0
 40
1.0
 40
1.0
 10
13.817534885733
 20
-16.47211543092302
 30
0.0
 10
13.81844786603589
 20
-16.47211543092302
 30
0.0
 10
13.81881249099889
 20
-16.47211543092302
 30
0.0
 10
13.81881249099889
 20
-16.47211543092302
 30
0.0
  0
SPLINE
  5
1A0
330
70
100
AcDbEntity
  8
Livello 1
370
     9
100
AcDbSpline
210
0.0
220
0.0
230
1.0
 70
    24
 71
     3
 72
     8
 73
     4
 74
     0
 42
0.000000001
 43
0.0000000001
 40
1.0
 40
1.0
 40
1.0
 40
1.0
 40
2.0
 40
2.0
 40
2.0
 40
2.0
 10
13.81881249099889
 20
-16.47211543092302
 30
0.0
 10
13.81881249099889
 20
-16.47211543092302
 30
0.0
 10
13.7867823553247
 20
-16.47211543092302
 30
0.0
 10
13.7413023245462
 20
-16.47211543092302
 30
0.0
  0
LINE
  5
1A8
330
70
100
AcDbEntity
  8
0
100
AcDbLine
 10
6.791871970837452
 20
-17.37321573292299
 30
0.0
 11
14.01987181634089
 21
-17.37321573292299
 31
0.0
  0
MTEXT
  5
1AA
330
70
100
AcDbEntity
  8
0
100
AcDbMText
 10
10.17835808485187
 20
-17.556683935842
 30
0.0
 40
0.2
 41
1.582121192697599
 46
0.0
 71
     1
 72
     5
  1
450
 73
     1
 44
1.0
101
Embedded Object
 70
     1
 10
1.0
 20
0.0
 30
0.0
 11
10.17835808485187
 21
-17.556683935842
 31
0.0
 40
1.582121192697599
 41
0.0
 42
0.5
 43
0.2
 71
     2
 72
     1
 44
1.582121192697599
 45
1.0
 73
     0
 74
     0
 46
0.0
  0
LINE
  5
1B2
330
70
100
AcDbEntity
  8
0
100
AcDbLine
 10
6.659535716049157
 20
-16.47748151936964
 30
0.0
 11
6.659535716049157
 21
-16.64333650655193
 31
0.0
  0
LINE
  5
1B3
330
70
100
AcDbEntity
  8
0
100
AcDbLine
 10
14.22857377626388
 20
-16.64333650655193
 30
0.0
 11
14.22857377626388
 21
-9.780436177229946
 31
0.0
  0
MTEXT
  5
1BB
330
70
100
AcDbEntity
  8
0
100
AcDbMText
 10
6.249021140320872
 20
-16.46252221135305
 30
0.0
 40
0.2
 41
1.582121192697599
 46
0.0
 71
     1
 72
     5
  1
45
 73
     1
 44
1.0
101
Embedded Object
 70
     1
 10
1.0
 20
0.0
 30
0.0
 11
6.249021140320872
 21
-16.46252221135305
 31
0.0
 40
1.582121192697599
 41
0.0
 42
0.3333333333333333
 43
0.2
 71
     2
 72
     1
 44
1.582121192697599
 45
1.0
 73
     0
 74
     0
 46
0.0
  0
MTEXT
  5
1C3
330
70
100
AcDbEntity
  8
0
100
AcDbMText
 10
14.68702220469199
 20
-12.89460869227236
 30
0.0
 40
0.2
 41
1.582121192697599
 46
0.0
 71
     1
 72
     5
  1
1.311
 73
     1
 44
1.0
101
Embedded Object
 70
     1
 10
1.0
 20
0.0
 30
0.0
 11
14.68702220469199
 21
-12.89460869227236
 31
0.0
 40
1.582121192697599
 41
0.0
 42
0.6
 43
0.2000000000000001
 71
     2
 72
     1
 44
1.582121192697599
 45
1.0
 73
     0
 74
     0
 46
0.0
  0
ENDSEC
  0
SECTION
  2
OBJECTS
  0
DICTIONARY
  5
C
330
0
100
AcDbDictionary
281
     1
  3
ACAD_CIP_PREVIOUS_PRODUCT_INFO
350
18B
  3
ACAD_COLOR
350
63
  3
ACAD_DETAILVIEWSTYLE
350
6A
  3
ACAD_GROUP
350
D
  3
ACAD_LAYOUT
350
62
  3
ACAD_MATERIAL
350
10
  3
ACAD_MLEADERSTYLE
350
66
  3
ACAD_MLINESTYLE
350
5F
  3
ACAD_PLOTSETTINGS
350
61
  3
ACAD_PLOTSTYLENAME
350
E
  3
ACAD_SCALELIST
350
42
  3
ACAD_SECTIONVIEWSTYLE
350
68
  3
ACAD_TABLESTYLE
350
64
  3
ACAD_VISUALSTYLE
350
29
  3
ACDB_RECOMPOSE_DATA
350
1D3
  3
AcDbVariableDictionary
350
181
  0
DICTIONARY
  5
18C
330
70
100
AcDbDictionary
280
     1
281
     1
  3
ACAD_SORTENTS
360
18D
  0
DICTIONARY
  5
1AE
330
1AC
100
AcDbDictionary
280
     1
281
     1
  3
ACAD_SORTENTS
360
1AF
  0
XRECORD
  5
18B
102
{ACAD_REACTORS
330
C
102
}
330
C
100
AcDbXrecord
280
     1
300
ACD
300
2022
300

  0
DICTIONARY
  5
63
102
{ACAD_REACTORS
330
C
102
}
330
C
100
AcDbDictionary
281
     1
  0
DICTIONARY
  5
6A
102
{ACAD_REACTORS
330
C
102
}
330
C
100
AcDbDictionary
281
     1
  3
Imperial24
350
6B
  0
DICTIONARY
  5
D
102
{ACAD_REACTORS
330
C
102
}
330
C
100
AcDbDictionary
281
     1
  0
DICTIONARY
  5
62
102
{ACAD_REACTORS
330
C
102
}
330
C
100
AcDbDictionary
281
     1
  3
Layout1
350
6F
  3
Layout2
350
77
  3
Model
350
73
  0
DICTIONARY
  5
10
102
{ACAD_REACTORS
330
C
102
}
330
C
100
AcDbDictionary
281
     1
  3
ByBlock
350
19
  3
ByLayer
350
11
  3
Global
350
21
  0
DICTIONARY
  5
66
102
{ACAD_REACTORS
330
C
102
}
330
C
100
AcDbDictionary
281
     1
  3
Standard
350
67
  0
DICTIONARY
  5
5F
102
{ACAD_REACTORS
330
C
102
}
330
C
100
AcDbDictionary
281
     1
  3
Standard
350
60
  0
DICTIONARY
  5
61
102
{ACAD_REACTORS
330
C
102
}
330
C
100
AcDbDictionary
281
     1
  0
ACDBDICTIONARYWDFLT
  5
E
102
{ACAD_REACTORS
330
C
102
}
330
C
100
AcDbDictionary
281
     1
  3
Normal
350
F
100
AcDbDictionaryWithDefault
340
F
  0
DICTIONARY
  5
42
102
{ACAD_REACTORS
330
C
102
}
330
C
100
AcDbDictionary
281
     1
  3
A0
350
43
  3
A1
350
44
  3
A2
350
45
  3
A3
350
46
  3
A4
350
47
  3
A5
350
48
  3
A6
350
49
  3
A7
350
4A
  3
A8
350
4B
  3
A9
350
4C
  3
B0
350
4D
  3
B1
350
4E
  3
B2
350
4F
  3
B3
350
50
  3
B4
350
51
  3
B5
350
52
  3
B6
350
53
  0
DICTIONARY
  5
68
102
{ACAD_REACTORS
330
C
102
}
330
C
100
AcDbDictionary
281
     1
  3
Imperial24
350
69
  0
DICTIONARY
  5
64
102
{ACAD_REACTORS
330
C
102
}
330
C
100
AcDbDictionary
281
     1
  3
Standard
350
65
  0
DICTIONARY
  5
29
102
{ACAD_REACTORS
330
C
102
}
330
C
100
AcDbDictionary
281
     1
  3
2dWireframe
350
2F
  3
Basic
350
2E
  3
Brighten
350
35
  3
ColorChange
350
39
  3
Conceptual
350
32
  3
Dim
350
34
  3
EdgeColorOff
350
41
  3
Facepattern
350
38
  3
Flat
350
2A
  3
FlatWithEdges
350
2B
  3
Gouraud
350
2C
  3
GouraudWithEdges
350
2D
  3
Hidden
350
31
  3
JitterOff
350
3F
  3
Linepattern
350
37
  3
OverhangOff
350
40
  3
Realistic
350
33
  3
Shaded
350
3E
  3
Shaded with edges
350
3D
  3
Shades of Gray
350
3A
  3
Sketchy
350
3B
  3
Thicken
350
36
  3
Wireframe
350
30
  3
X-Ray
350
3C
  0
XRECORD
  5
1D3
102
{ACAD_REACTORS
330
C
102
}
330
C
100
AcDbXrecord
280
     1
 90
        1
330
65
  0
DICTIONARY
  5
181
102
{ACAD_REACTORS
330
C
102
}
330
C
100
AcDbDictionary
281
     1
  3
CANNOSCALE
350
186
  3
CMLEADERSTYLE
350
183
  3
CTABLESTYLE
350
182
  3
CVIEWDETAILSTYLE
350
184
  3
CVIEWSECTIONSTYLE
350
185
  0
SORTENTSTABLE
  5
18D
102
{ACAD_REACTORS
330
18C
102
}
330
18C
100
AcDbSortentsTable
330
70
331
DD
  5
F6
331
DE
  5
F7
331
DF
  5
F8
331
E0
  5
FA
331
E1
  5
FE
331
E2
  5
FF
331
E3
  5
100
331
E4
  5
102
331
E5
  5
107
331
E7
  5
10B
331
EA
  5
10C
331
EC
  5
10D
331
ED
  5
10E
331
EF
  5
110
331
F0
  5
113
331
F1
  5
115
331
F5
  5
11A
331
F6
  5
11B
331
F7
  5
11E
331
F8
  5
11F
331
FA
  5
121
331
FE
  5
122
331
FF
  5
124
331
100
  5
125
331
102
  5
126
331
107
  5
129
331
10B
  5
12A
331
10C
  5
12B
331
10D
  5
12C
331
10E
  5
12F
331
110
  5
132
331
113
  5
133
331
115
  5
135
331
11A
  5
136
331
11B
  5
137
331
11E
  5
138
331
11F
  5
139
331
121
  5
13D
331
122
  5
13E
331
124
  5
13F
331
125
  5
142
331
126
  5
143
331
129
  5
144
331
12A
  5
149
331
12B
  5
14A
331
12C
  5
18E
331
12F
  5
18F
331
132
  5
190
331
133
  5
191
331
135
  5
192
331
136
  5
193
331
137
  5
194
331
138
  5
195
331
139
  5
196
331
13B
  5
197
331
13C
  5
198
331
13D
  5
199
331
13E
  5
19A
331
13F
  5
19B
331
142
  5
19C
331
143
  5
19D
331
144
  5
19E
331
149
  5
19F
331
14A
  5
1A0
331
18E
  5
DD
331
18F
  5
DE
331
190
  5
DF
331
191
  5
E0
331
19F
  5
13B
331
1A0
  5
13C
  0
SORTENTSTABLE
  5
1AF
102
{ACAD_REACTORS
330
1AE
102
}
330
1AE
100
AcDbSortentsTable
330
1AC
  0
ACDBDETAILVIEWSTYLE
  5
6B
102
{ACAD_REACTORS
330
6A
102
}
330
6A
100
AcDbModelDocViewStyle
 70
     0
  3
Imperial24
290
     0
300
Imperial24
 90
        0
100
AcDbDetailViewStyle
 70
     0
 71
     0
 90
        3
 71
     1
340
55
 62
   256
 40
0.24
340
0
 62
   256
 40
0.24
300

 40
0.36
280
     3
 71
     2
340
5D
 90
       25
 62
   256
 71
     3
340
55
 62
   256
 40
0.24
 90
        1
 40
0.75
 90
        1
300
%<\AcVar ViewType \f "%tc1">% %<\AcVar ViewDetailId>%\PSCALE %<\AcVar ViewScale \f "%sn">%
 71
     4
340
5D
 90
       25
 62
   256
340
5D
 90
       25
 62
   256
280
     0
  0
LAYOUT
  5
6F
102
{ACAD_REACTORS
330
62
102
}
330
62
100
AcDbPlotSettings
  1

  2

  4

  6

 40
0.0
 41
0.0
 42
0.0
 43
0.0
 44
0.0
 45
0.0
 46
0.0
 47
0.0
 48
0.0
 49
0.0
140
0.0
141
0.0
142
1.0
143
1.0
 70
   688
 72
     0
 73
     0
 74
     5
  7

 75
    16
147
1.0
 76
     0
 77
     2
 78
   300
148
0.0
149
0.0
100
AcDbLayout
  1
Layout1
 70
     1
 71
     1
 10
0.0
 20
0.0
 11
12.0
 21
9.0
 12
0.0
 22
0.0
 32
0.0
 14
1.000000000000000E+20
 24
1.000000000000000E+20
 34
1.000000000000000E+20
 15
-1.000000000000000E+20
 25
-1.000000000000000E+20
 35
-1.000000000000000E+20
146
0.0
 13
0.0
 23
0.0
 33
0.0
 16
1.0
 26
0.0
 36
0.0
 17
0.0
 27
1.0
 37
0.0
 76
     0
330
6C
  0
LAYOUT
  5
77
102
{ACAD_REACTORS
330
62
102
}
330
62
100
AcDbPlotSettings
  1

  2

  4

  6

 40
0.0
 41
0.0
 42
0.0
 43
0.0
 44
0.0
 45
0.0
 46
0.0
 47
0.0
 48
0.0
 49
0.0
140
0.0
141
0.0
142
1.0
143
1.0
 70
   688
 72
     0
 73
     0
 74
     5
  7

 75
    16
147
1.0
 76
     0
 77
     2
 78
   300
148
0.0
149
0.0
100
AcDbLayout
  1
Layout2
 70
     1
 71
     2
 10
0.0
 20
0.0
 11
12.0
 21
9.0
 12
0.0
 22
0.0
 32
0.0
 14
0.0
 24
0.0
 34
0.0
 15
0.0
 25
0.0
 35
0.0
146
0.0
 13
0.0
 23
0.0
 33
0.0
 16
1.0
 26
0.0
 36
0.0
 17
0.0
 27
1.0
 37
0.0
 76
     0
330
74
  0
LAYOUT
  5
73
102
{ACAD_REACTORS
330
62
102
}
330
62
100
AcDbPlotSettings
  1

  2

  4

  6

 40
0.0
 41
0.0
 42
0.0
 43
0.0
 44
0.0
 45
0.0
 46
0.0
 47
0.0
 48
0.0
 49
0.0
140
0.0
141
0.0
142
1.0
143
1.0
 70
  1712
 72
     0
 73
     0
 74
     0
  7

 75
     0
147
1.0
 76
     0
 77
     2
 78
   300
148
0.0
149
0.0
100
AcDbLayout
  1
Model
 70
     1
 71
     0
 10
0.0
 20
0.0
 11
12.0
 21
9.0
 12
0.0
 22
0.0
 32
0.0
 14
0.0
 24
0.0
 34
0.0
 15
0.0
 25
0.0
 35
0.0
146
0.0
 13
0.0
 23
0.0
 33
0.0
 16
1.0
 26
0.0
 36
0.0
 17
0.0
 27
1.0
 37
0.0
 76
     0
330
70
331
57
  0
MATERIAL
  5
19
102
{ACAD_XDICTIONARY
360
1A
102
}
102
{ACAD_REACTORS
330
10
102
}
330
10
100
AcDbMaterial
  1
ByBlock
 72
     0
 43
0.0208333333333333
 43
0.0
 43
0.0
 43
0.0
 43
0.0
 43
0.0208333333333333
 43
0.0
 43
0.0
 43
0.0
 43
0.0
 43
1.0
 43
0.0
 43
0.0
 43
0.0
 43
0.0
 43
1.0
 77
     0
 47
0.0208333333333333
 47
0.0
 47
0.0
 47
0.0
 47
0.0
 47
0.0208333333333333
 47
0.0
 47
0.0
 47
0.0
 47
0.0
 47
1.0
 47
0.0
 47
0.0
 47
0.0
 47
0.0
 47
1.0
171
     0
 49
0.0208333333333333
 49
0.0
 49
0.0
 49
0.0
 49
0.0
 49
0.0208333333333333
 49
0.0
 49
0.0
 49
0.0
 49
0.0
 49
1.0
 49
0.0
 49
0.0
 49
0.0
 49
0.0
 49
1.0
175
     0
142
0.0208333333333333
142
0.0
142
0.0
142
0.0
142
0.0
142
0.0208333333333333
142
0.0
142
0.0
142
0.0
142
0.0
142
1.0
142
0.0
142
0.0
142
0.0
142
0.0
142
1.0
179
     0
144
0.0208333333333333
144
0.0
144
0.0
144
0.0
144
0.0
144
0.0208333333333333
144
0.0
144
0.0
144
0.0
144
0.0
144
1.0
144
0.0
144
0.0
144
0.0
144
0.0
144
1.0
147
0.0208333333333333
147
0.0
147
0.0
147
0.0
147
0.0
147
0.0208333333333333
147
0.0
147
0.0
147
0.0
147
0.0
147
1.0
147
0.0
147
0.0
147
0.0
147
0.0
147
1.0
  0
MATERIAL
  5
11
102
{ACAD_XDICTIONARY
360
12
102
}
102
{ACAD_REACTORS
330
10
102
}
330
10
100
AcDbMaterial
  1
ByLayer
 72
     0
 43
0.0208333333333333
 43
0.0
 43
0.0
 43
0.0
 43
0.0
 43
0.0208333333333333
 43
0.0
 43
0.0
 43
0.0
 43
0.0
 43
1.0
 43
0.0
 43
0.0
 43
0.0
 43
0.0
 43
1.0
 77
     0
 47
0.0208333333333333
 47
0.0
 47
0.0
 47
0.0
 47
0.0
 47
0.0208333333333333
 47
0.0
 47
0.0
 47
0.0
 47
0.0
 47
1.0
 47
0.0
 47
0.0
 47
0.0
 47
0.0
 47
1.0
171
     0
 49
0.0208333333333333
 49
0.0
 49
0.0
 49
0.0
 49
0.0
 49
0.0208333333333333
 49
0.0
 49
0.0
 49
0.0
 49
0.0
 49
1.0
 49
0.0
 49
0.0
 49
0.0
 49
0.0
 49
1.0
175
     0
142
0.0208333333333333
142
0.0
142
0.0
142
0.0
142
0.0
142
0.0208333333333333
142
0.0
142
0.0
142
0.0
142
0.0
142
1.0
142
0.0
142
0.0
142
0.0
142
0.0
142
1.0
179
     0
144
0.0208333333333333
144
0.0
144
0.0
144
0.0
144
0.0
144
0.0208333333333333
144
0.0
144
0.0
144
0.0
144
0.0
144
1.0
144
0.0
144
0.0
144
0.0
144
0.0
144
1.0
147
0.0208333333333333
147
0.0
147
0.0
147
0.0
147
0.0
147
0.0208333333333333
147
0.0
147
0.0
147
0.0
147
0.0
147
1.0
147
0.0
147
0.0
147
0.0
147
0.0
147
1.0
  0
MATERIAL
  5
21
102
{ACAD_XDICTIONARY
360
22
102
}
102
{ACAD_REACTORS
330
10
102
}
330
10
100
AcDbMaterial
  1
Global
 72
     0
 43
0.0208333333333333
 43
0.0
 43
0.0
 43
0.0
 43
0.0
 43
0.0208333333333333
 43
0.0
 43
0.0
 43
0.0
 43
0.0
 43
1.0
 43
0.0
 43
0.0
 43
0.0
 43
0.0
 43
1.0
 77
     0
 47
0.0208333333333333
 47
0.0
 47
0.0
 47
0.0
 47
0.0
 47
0.0208333333333333
 47
0.0
 47
0.0
 47
0.0
 47
0.0
 47
1.0
 47
0.0
 47
0.0
 47
0.0
 47
0.0
 47
1.0
171
     0
 49
0.0208333333333333
 49
0.0
 49
0.0
 49
0.0
 49
0.0
 49
0.0208333333333333
 49
0.0
 49
0.0
 49
0.0
 49
0.0
 49
1.0
 49
0.0
 49
0.0
 49
0.0
 49
0.0
 49
1.0
175
     0
142
0.0208333333333333
142
0.0
142
0.0
142
0.0
142
0.0
142
0.0208333333333333
142
0.0
142
0.0
142
0.0
142
0.0
142
1.0
142
0.0
142
0.0
142
0.0
142
0.0
142
1.0
179
     0
144
0.0208333333333333
144
0.0
144
0.0
144
0.0
144
0.0
144
0.0208333333333333
144
0.0
144
0.0
144
0.0
144
0.0
144
1.0
144
0.0
144
0.0
144
0.0
144
0.0
144
1.0
147
0.0208333333333333
147
0.0
147
0.0
147
0.0
147
0.0
147
0.0208333333333333
147
0.0
147
0.0
147
0.0
147
0.0
147
1.0
147
0.0
147
0.0
147
0.0
147
0.0
147
1.0
  0
MLEADERSTYLE
  5
67
102
{ACAD_REACTORS
330
66
102
}
330
66
100
AcDbMLeaderStyle
179
     2
170
     2
171
     1
172
     0
 90
        2
 40
0.0
 41
0.0
173
     1
 91
-1056964608
340
5B
 92
       -2
290
     1
 42
0.09
291
     1
 43
0.36
  3
Standard
 44
0.18
300

342
55
174
     1
178
     6
175
     1
176
     0
 93
-1056964608
 45
0.18
292
     0
297
     0
 46
0.18
 94
-1056964608
 47
1.0
 49
1.0
140
1.0
293
     1
141
0.0
294
     1
177
     0
142
1.0
295
     0
296
     0
143
0.125
271
     0
272
     9
273
     9
298
     1
  0
MLINESTYLE
  5
60
102
{ACAD_REACTORS
330
5F
102
}
330
5F
100
AcDbMlineStyle
  2
STANDARD
 70
     0
  3

 62
   256
 51
90.0
 52
90.0
 71
     2
 49
0.5
 62
   256
  6
BYLAYER
 49
-0.5
 62
   256
  6
BYLAYER
  0
ACDBPLACEHOLDER
  5
F
102
{ACAD_REACTORS
330
E
102
}
330
E
  0
SCALE
  5
43
102
{ACAD_REACTORS
330
42
102
}
330
42
100
AcDbScale
 70
     0
300
1:1
140
1.0
141
1.0
290
     1
  0
SCALE
  5
44
102
{ACAD_REACTORS
330
42
102
}
330
42
100
AcDbScale
 70
     0
300
1/128" = 1'-0"
140
0.0078125
141
12.0
290
     0
  0
SCALE
  5
45
102
{ACAD_REACTORS
330
42
102
}
330
42
100
AcDbScale
 70
     0
300
1/64" = 1'-0"
140
0.015625
141
12.0
290
     0
  0
SCALE
  5
46
102
{ACAD_REACTORS
330
42
102
}
330
42
100
AcDbScale
 70
     0
300
1/32" = 1'-0"
140
0.03125
141
12.0
290
     0
  0
SCALE
  5
47
102
{ACAD_REACTORS
330
42
102
}
330
42
100
AcDbScale
 70
     0
300
1/16" = 1'-0"
140
0.0625
141
12.0
290
     0
  0
SCALE
  5
48
102
{ACAD_REACTORS
330
42
102
}
330
42
100
AcDbScale
 70
     0
300
3/32" = 1'-0"
140
0.09375
141
12.0
290
     0
  0
SCALE
  5
49
102
{ACAD_REACTORS
330
42
102
}
330
42
100
AcDbScale
 70
     0
300
1/8" = 1'-0"
140
0.125
141
12.0
290
     0
  0
SCALE
  5
4A
102
{ACAD_REACTORS
330
42
102
}
330
42
100
AcDbScale
 70
     0
300
3/16" = 1'-0"
140
0.1875
141
12.0
290
     0
  0
SCALE
  5
4B
102
{ACAD_REACTORS
330
42
102
}
330
42
100
AcDbScale
 70
     0
300
1/4" = 1'-0"
140
0.25
141
12.0
290
     0
  0
SCALE
  5
4C
102
{ACAD_REACTORS
330
42
102
}
330
42
100
AcDbScale
 70
     0
300
3/8" = 1'-0"
140
0.375
141
12.0
290
     0
  0
SCALE
  5
4D
102
{ACAD_REACTORS
330
42
102
}
330
42
100
AcDbScale
 70
     0
300
1/2" = 1'-0"
140
0.5
141
12.0
290
     0
  0
SCALE
  5
4E
102
{ACAD_REACTORS
330
42
102
}
330
42
100
AcDbScale
 70
     0
300
3/4" = 1'-0"
140
0.75
141
12.0
290
     0
  0
SCALE
  5
4F
102
{ACAD_REACTORS
330
42
102
}
330
42
100
AcDbScale
 70
     0
300
1" = 1'-0"
140
1.0
141
12.0
290
     0
  0
SCALE
  5
50
102
{ACAD_REACTORS
330
42
102
}
330
42
100
AcDbScale
 70
     0
300
1-1/2" = 1'-0"
140
1.5
141
12.0
290
     0
  0
SCALE
  5
51
102
{ACAD_REACTORS
330
42
102
}
330
42
100
AcDbScale
 70
     0
300
3" = 1'-0"
140
3.0
141
12.0
290
     0
  0
SCALE
  5
52
102
{ACAD_REACTORS
330
42
102
}
330
42
100
AcDbScale
 70
     0
300
6" = 1'-0"
140
6.0
141
12.0
290
     0
  0
SCALE
  5
53
102
{ACAD_REACTORS
330
42
102
}
330
42
100
AcDbScale
 70
     0
300
1'-0" = 1'-0"
140
12.0
141
12.0
290
     0
  0
ACDBSECTIONVIEWSTYLE
  5
69
102
{ACAD_REACTORS
330
68
102
}
330
68
100
AcDbModelDocViewStyle
 70
     0
  3
Imperial24
290
     0
300
Imperial24
 90
        0
100
AcDbSectionViewStyle
 70
     0
 71
     0
 90
       78
 71
     1
340
55
 62
   256
 40
0.24
340
0
340
0
 62
   256
 40
0.24
300
I, O, Q, S, X, Z
 40
0.48
 90
        3
 40
0.18
 90
        1
 71
     2
340
5D
 90
       25
 62
   256
340
5D
 90
       50
 62
   256
 40
0.24
 40
0.0
 40
0.24
 71
     3
340
55
 62
   256
 40
0.24
 90
        1
 40
0.75
 90
        1
300
%<\AcVar ViewType \f "%tc1">% %<\AcVar ViewSectionStartId>%-%<\AcVar ViewSectionEndId>%\PSCALE %<\AcVar ViewScale \f "%sn">%
 71
     4
 62
   256
 62
   257
300
ANSI31
 40
1.0
 90
        0
290
     0
290
     0
 90
        6
 40
0.0
 40
1.570796326794896
 40
0.2617993877991494
 40
1.308996938995747
 40
-0.2617993877991494
 40
1.832595714594045
  0
TABLESTYLE
  5
65
102
{ACAD_XDICTIONARY
360
1C4
102
}
102
{ACAD_REACTORS
330
64
102
}
330
64
100
AcDbTableStyle
280
     0
  3
Standard
 70
     0
 71
     0
 40
0.06
 41
0.06
280
     0
281
     0
  7
Standard
140
0.18
170
     2
 62
     0
 63
     7
283
     0
 90
      512
 91
        0
  1

274
    -2
284
     1
 64
     0
275
    -2
285
     1
 65
     0
276
    -2
286
     1
 66
     0
277
    -2
287
     1
 67
     0
278
    -2
288
     1
 68
     0
279
    -2
289
     1
 69
     0
  7
Standard
140
0.25
170
     5
 62
     0
 63
     7
283
     0
 90
      512
 91
        0
  1

274
    -2
284
     1
 64
     0
275
    -2
285
     1
 65
     0
276
    -2
286
     1
 66
     0
277
    -2
287
     1
 67
     0
278
    -2
288
     1
 68
     0
279
    -2
289
     1
 69
     0
  7
Standard
140
0.18
170
     5
 62
     0
 63
     7
283
     0
 90
      512
 91
        0
  1

274
    -2
284
     1
 64
     0
275
    -2
285
     1
 65
     0
276
    -2
286
     1
 66
     0
277
    -2
287
     1
 67
     0
278
    -2
288
     1
 68
     0
279
    -2
289
     1
 69
     0
  0
VISUALSTYLE
  5
2F
102
{ACAD_REACTORS
330
29
102
}
330
29
100
AcDbVisualStyle
  2
2dWireframe
 70
     4
177
     3
291
     0
 70
    58
 90
        0
176
     1
 90
        2
176
     1
 90
        0
176
     1
 90
        0
176
     1
 40
0.6
176
     1
 40
30.0
176
     1
 62
     7
420
 16777215
176
     1
 90
        1
176
     1
 90
        4
176
     1
 62
     7
176
     1
 62
   257
176
     1
 90
        1
176
     1
 90
        1
176
     1
 40
1.0
176
     1
 90
        0
176
     1
 62
   257
176
     1
 40
1.0
176
     1
 90
        1
176
     1
 90
        6
176
     1
 90
        2
176
     1
 62
     7
176
     1
 90
        5
176
     1
 90
        0
176
     1
 90
        0
176
     1
290
     0
176
     1
 90
        1
176
     1
 40
0.0
176
     1
 90
        0
176
     1
290
     1
176
     1
290
     1
176
     1
290
     0
176
     1
290
     0
176
     1
290
     0
176
     1
290
     0
176
     1
290
     0
176
     1
290
     0
176
     1
290
     0
176
     1
 90
       50
176
     1
 40
0.0
176
     1
 40
1.0
176
     1
 90
        0
176
     1
 62
    18
176
     1
 90
       50
176
     1
 90
        3
176
     1
 62
     5
420
      255
176
     1
290
     0
176
     1
 90
       50
176
     1
 90
       50
176
     1
 90
       50
176
     1
290
     0
176
     1
 90
       50
176
     1
 62
   256
176
     0
 40
1.0
176
     0
 90
        2
176
     1
  1
strokes_ogs.tif
176
     1
290
     0
176
     1
 40
1.0
176
     1
 40
1.0
176
     1
1001
ACAD
1000
AcDbSavedByObjectVersion
1070
     0
  0
VISUALSTYLE
  5
2E
102
{ACAD_REACTORS
330
29
102
}
330
29
100
AcDbVisualStyle
  2
Basic
 70
     7
177
     3
291
     1
 70
    58
 90
        1
176
     1
 90
        0
176
     1
 90
        1
176
     1
 90
        0
176
     1
 40
0.6
176
     1
 40
30.0
176
     1
 62
     7
420
 16777215
176
     1
 90
        0
176
     1
 90
        4
176
     1
 62
     7
176
     1
 62
   257
176
     1
 90
        1
176
     1
 90
        1
176
     1
 40
1.0
176
     1
 90
        8
176
     1
 62
     7
176
     1
 40
1.0
176
     1
 90
        1
176
     1
 90
        6
176
     1
 90
        2
176
     1
 62
     7
176
     1
 90
        5
176
     1
 90
        0
176
     1
 90
        0
176
     1
290
     0
176
     1
 90
        1
176
     1
 40
0.0
176
     1
 90
        0
176
     1
290
     0
176
     1
290
     1
176
     1
290
     1
176
     1
290
     0
176
     1
290
     0
176
     1
290
     0
176
     1
290
     0
176
     1
290
     0
176
     1
290
     0
176
     1
 90
       50
176
     1
 40
0.0
176
     1
 40
1.0
176
     1
 90
        0
176
     1
 62
    18
176
     1
 90
       50
176
     1
 90
        3
176
     1
 62
     5
420
      255
176
     1
290
     0
176
     1
 90
       50
176
     1
 90
       50
176
     1
 90
       50
176
     1
290
     0
176
     1
 90
       50
176
     1
 62
   256
176
     0
 40
1.0
176
     0
 90
        2
176
     1
  1
strokes_ogs.tif
176
     1
290
     0
176
     1
 40
1.0
176
     1
 40
1.0
176
     1
1001
ACAD
1000
AcDbSavedByObjectVersion
1070
     0
  0
VISUALSTYLE
  5
35
102
{ACAD_REACTORS
330
29
102
}
330
29
100
AcDbVisualStyle
  2
Brighten
 70
    12
177
     3
291
     1
 70
    58
 90
        2
176
     1
 90
        2
176
     1
 90
        0
176
     1
 90
        0
176
     1
 40
0.6
176
     1
 40
30.0
176
     1
 62
     7
420
 16777215
176
     1
 90
        1
176
     1
 90
        4
176
     1
 62
     7
176
     1
 62
   257
176
     1
 90
        1
176
     1
 90
        1
176
     1
 40
1.0
176
     1
 90
        8
176
     1
 62
     7
176
     1
 40
1.0
176
     1
 90
        1
176
     1
 90
        6
176
     1
 90
        2
176
     1
 62
     7
176
     1
 90
        5
176
     1
 90
        0
176
     1
 90
        0
176
     1
290
     0
176
     1
 90
        1
176
     1
 40
50.0
176
     1
 90
        0
176
     1
290
     0
176
     1
290
     1
176
     1
290
     1
176
     1
290
     0
176
     1
290
     0
176
     1
290
     0
176
     1
290
     0
176
     1
290
     0
176
     1
290
     0
176
     1
 90
       50
176
     1
 40
0.0
176
     1
 40
1.0
176
     1
 90
        0
176
     1
 62
    18
176
     1
 90
       50
176
     1
 90
        3
176
     1
 62
     5
420
      255
176
     1
290
     0
176
     1
 90
       50
176
     1
 90
       50
176
     1
 90
       50
176
     1
290
     0
176
     1
 90
       50
176
     1
 62
   256
176
     0
 40
1.0
176
     0
 90
        2
176
     1
  1
strokes_ogs.tif
176
     1
290
     0
176
     1
 40
1.0
176
     1
 40
1.0
176
     1
1001
ACAD
1000
AcDbSavedByObjectVersion
1070
     0
  0
VISUALSTYLE
  5
39
102
{ACAD_REACTORS
330
29
102
}
330
29
100
AcDbVisualStyle
  2
ColorChange
 70
    16
177
     3
291
     1
 70
    58
 90
        2
176
     1
 90
        2
176
     1
 90
        3
176
     1
 90
        0
176
     1
 40
0.6
176
     1
 40
30.0
176
     1
 62
     8
420
  8421504
176
     1
 90
        1
176
     1
 90
        4
176
     1
 62
     7
176
     1
 62
   257
176
     1
 90
        1
176
     1
 90
        1
176
     1
 40
1.0
176
     1
 90
        8
176
     1
 62
     8
420
  8421504
176
     1
 40
1.0
176
     1
 90
        1
176
     1
 90
        6
176
     1
 90
        2
176
     1
 62
     7
176
     1
 90
        5
176
     1
 90
        0
176
     1
 90
        0
176
     1
290
     0
176
     1
 90
        1
176
     1
 40
0.0
176
     1
 90
        0
176
     1
290
     0
176
     1
290
     1
176
     1
290
     1
176
     1
290
     0
176
     1
290
     0
176
     1
290
     0
176
     1
290
     0
176
     1
290
     0
176
     1
290
     0
176
     1
 90
       50
176
     1
 40
0.0
176
     1
 40
1.0
176
     1
 90
        0
176
     1
 62
    18
176
     1
 90
       50
176
     1
 90
        3
176
     1
 62
     5
420
      255
176
     1
290
     0
176
     1
 90
       50
176
     1
 90
       50
176
     1
 90
       50
176
     1
290
     0
176
     1
 90
       50
176
     1
 62
   256
176
     0
 40
1.0
176
     0
 90
        2
176
     1
  1
strokes_ogs.tif
176
     1
290
     0
176
     1
 40
1.0
176
     1
 40
1.0
176
     1
1001
ACAD
1000
AcDbSavedByObjectVersion
1070
     0
  0
VISUALSTYLE
  5
32
102
{ACAD_REACTORS
330
29
102
}
330
29
100
AcDbVisualStyle
  2
Conceptual
 70
     9
177
     3
291
     0
 70
    58
 90
        3
176
     1
 90
        2
176
     1
 90
        0
176
     1
 90
        0
176
     1
 40
0.6
176
     1
 40
30.0
176
     1
 62
     7
420
 16777215
176
     1
 90
        2
176
     1
 90
        2
176
     1
 62
     7
176
     1
 62
   257
176
     1
 90
        1
176
     1
 90
        1
176
     1
 40
179.0
176
     1
 90
        8
176
     1
 62
     7
176
     1
 40
1.0
176
     1
 90
        1
176
     1
 90
        6
176
     1
 90
        2
176
     1
 62
     7
176
     1
 90
        3
176
     1
 90
        0
176
     1
 90
        0
176
     1
290
     0
176
     1
 90
        1
176
     1
 40
0.0
176
     1
 90
        0
176
     1
290
     0
176
     1
290
     1
176
     1
290
     1
176
     1
290
     0
176
     1
290
     0
176
     1
290
     0
176
     1
290
     0
176
     1
290
     0
176
     1
290
     0
176
     1
 90
       50
176
     1
 40
0.0
176
     1
 40
1.0
176
     1
 90
        0
176
     1
 62
    18
176
     1
 90
       50
176
     1
 90
        3
176
     1
 62
     5
420
      255
176
     1
290
     0
176
     1
 90
       50
176
     1
 90
       50
176
     1
 90
       50
176
     1
290
     0
176
     1
 90
       50
176
     1
 62
   256
176
     0
 40
1.0
176
     0
 90
        2
176
     1
  1
strokes_ogs.tif
176
     1
290
     0
176
     1
 40
1.0
176
     1
 40
1.0
176
     1
1001
ACAD
1000
AcDbSavedByObjectVersion
1070
     0
  0
VISUALSTYLE
  5
34
102
{ACAD_REACTORS
330
29
102
}
330
29
100
AcDbVisualStyle
  2
Dim
 70
    11
177
     3
291
     1
 70
    58
 90
        2
176
     1
 90
        2
176
     1
 90
        0
176
     1
 90
        0
176
     1
 40
0.6
176
     1
 40
30.0
176
     1
 62
     7
420
 16777215
176
     1
 90
        1
176
     1
 90
        4
176
     1
 62
     7
176
     1
 62
   257
176
     1
 90
        1
176
     1
 90
        1
176
     1
 40
1.0
176
     1
 90
        8
176
     1
 62
     7
176
     1
 40
1.0
176
     1
 90
        1
176
     1
 90
        6
176
     1
 90
        2
176
     1
 62
     7
176
     1
 90
        5
176
     1
 90
        0
176
     1
 90
        0
176
     1
290
     0
176
     1
 90
        1
176
     1
 40
-50.0
176
     1
 90
        0
176
     1
290
     0
176
     1
290
     1
176
     1
290
     1
176
     1
290
     0
176
     1
290
     0
176
     1
290
     0
176
     1
290
     0
176
     1
290
     0
176
     1
290
     0
176
     1
 90
       50
176
     1
 40
0.0
176
     1
 40
1.0
176
     1
 90
        0
176
     1
 62
    18
176
     1
 90
       50
176
     1
 90
        3
176
     1
 62
     5
420
      255
176
     1
290
     0
176
     1
 90
       50
176
     1
 90
       50
176
     1
 90
       50
176
     1
290
     0
176
     1
 90
       50
176
     1
 62
   256
176
     0
 40
1.0
176
     0
 90
        2
176
     1
  1
strokes_ogs.tif
176
     1
290
     0
176
     1
 40
1.0
176
     1
 40
1.0
176
     1
1001
ACAD
1000
AcDbSavedByObjectVersion
1070
     0
  0
VISUALSTYLE
  5
41
102
{ACAD_REACTORS
330
29
102
}
330
29
100
AcDbVisualStyle
  2
EdgeColorOff
 70
    22
177
     3
291
     1
 70
    58
 90
        2
176
     0
 90
        2
176
     0
 90
        0
176
     0
 90
        0
176
     0
 40
0.6
176
     0
 40
30.0
176
     0
 62
     7
420
 16777215
176
     0
 90
        1
176
     0
 90
        4
176
     0
 62
     7
176
     0
 62
   257
176
     0
 90
        1
176
     0
 90
        1
176
     0
 40
1.0
176
     0
 90
        8
176
     2
 62
     7
176
     0
 40
1.0
176
     0
 90
        1
176
     0
 90
        6
176
     0
 90
        2
176
     0
 62
     7
176
     0
 90
        5
176
     0
 90
        0
176
     0
 90
        0
176
     0
290
     0
176
     0
 90
        1
176
     0
 40
0.0
176
     0
 90
        0
176
     0
290
     0
176
     0
290
     1
176
     0
290
     1
176
     0
290
     0
176
     0
290
     0
176
     0
290
     0
176
     0
290
     0
176
     0
290
     0
176
     0
290
     0
176
     0
 90
       50
176
     0
 40
0.0
176
     0
 40
1.0
176
     0
 90
        0
176
     0
 62
    18
176
     0
 90
       50
176
     0
 90
        3
176
     0
 62
     5
420
      255
176
     0
290
     0
176
     0
 90
       50
176
     0
 90
       50
176
     0
 90
       50
176
     0
290
     0
176
     0
 90
       50
176
     0
 62
   256
176
     0
 40
1.0
176
     0
 90
        2
176
     0
  1
strokes_ogs.tif
176
     0
290
     0
176
     0
 40
1.0
176
     0
 40
1.0
176
     0
1001
ACAD
1000
AcDbSavedByObjectVersion
1070
     0
  0
VISUALSTYLE
  5
38
102
{ACAD_REACTORS
330
29
102
}
330
29
100
AcDbVisualStyle
  2
Facepattern
 70
    15
177
     3
291
     1
 70
    58
 90
        2
176
     1
 90
        2
176
     1
 90
        0
176
     1
 90
        0
176
     1
 40
0.6
176
     1
 40
30.0
176
     1
 62
     7
420
 16777215
176
     1
 90
        1
176
     1
 90
        4
176
     1
 62
     7
176
     1
 62
   257
176
     1
 90
        1
176
     1
 90
        1
176
     1
 40
1.0
176
     1
 90
        8
176
     1
 62
     7
176
     1
 40
1.0
176
     1
 90
        1
176
     1
 90
        6
176
     1
 90
        2
176
     1
 62
     7
176
     1
 90
        5
176
     1
 90
        0
176
     1
 90
        0
176
     1
290
     0
176
     1
 90
        1
176
     1
 40
0.0
176
     1
 90
        0
176
     1
290
     0
176
     1
290
     1
176
     1
290
     1
176
     1
290
     0
176
     1
290
     0
176
     1
290
     0
176
     1
290
     0
176
     1
290
     0
176
     1
290
     0
176
     1
 90
       50
176
     1
 40
0.0
176
     1
 40
1.0
176
     1
 90
        0
176
     1
 62
    18
176
     1
 90
       50
176
     1
 90
        3
176
     1
 62
     5
420
      255
176
     1
290
     0
176
     1
 90
       50
176
     1
 90
       50
176
     1
 90
       50
176
     1
290
     0
176
     1
 90
       50
176
     1
 62
   256
176
     0
 40
1.0
176
     0
 90
        2
176
     1
  1
strokes_ogs.tif
176
     1
290
     0
176
     1
 40
1.0
176
     1
 40
1.0
176
     1
1001
ACAD
1000
AcDbSavedByObjectVersion
1070
     0
  0
VISUALSTYLE
  5
2A
102
{ACAD_REACTORS
330
29
102
}
330
29
100
AcDbVisualStyle
  2
Flat
 70
     0
177
     3
291
     1
 70
    58
 90
        2
176
     1
 90
        1
176
     1
 90
        1
176
     1
 90
        2
176
     1
 40
0.6
176
     1
 40
30.0
176
     1
 62
     7
420
 16777215
176
     1
 90
        0
176
     1
 90
        0
176
     1
 62
     7
176
     1
 62
   257
176
     1
 90
        1
176
     1
 90
        1
176
     1
 40
1.0
176
     1
 90
        8
176
     1
 62
     7
176
     1
 40
1.0
176
     1
 90
        1
176
     1
 90
        6
176
     1
 90
        2
176
     1
 62
     7
176
     1
 90
        5
176
     1
 90
        0
176
     1
 90
        0
176
     1
290
     0
176
     1
 90
       13
176
     1
 40
0.0
176
     1
 90
        0
176
     1
290
     0
176
     1
290
     1
176
     1
290
     1
176
     1
290
     0
176
     1
290
     0
176
     1
290
     0
176
     1
290
     0
176
     1
290
     0
176
     1
290
     0
176
     1
 90
       50
176
     1
 40
0.0
176
     1
 40
1.0
176
     1
 90
        0
176
     1
 62
    18
176
     1
 90
       50
176
     1
 90
        3
176
     1
 62
     5
420
      255
176
     1
290
     0
176
     1
 90
       50
176
     1
 90
       50
176
     1
 90
       50
176
     1
290
     0
176
     1
 90
       50
176
     1
 62
   256
176
     0
 40
1.0
176
     0
 90
        2
176
     1
  1
strokes_ogs.tif
176
     1
290
     0
176
     1
 40
1.0
176
     1
 40
1.0
176
     1
1001
ACAD
1000
AcDbSavedByObjectVersion
1070
     0
  0
VISUALSTYLE
  5
2B
102
{ACAD_REACTORS
330
29
102
}
330
29
100
AcDbVisualStyle
  2
FlatWithEdges
 70
     1
177
     3
291
     1
 70
    58
 90
        2
176
     1
 90
        1
176
     1
 90
        1
176
     1
 90
        2
176
     1
 40
0.6
176
     1
 40
30.0
176
     1
 62
     7
420
 16777215
176
     1
 90
        1
176
     1
 90
        0
176
     1
 62
     7
176
     1
 62
   257
176
     1
 90
        1
176
     1
 90
        1
176
     1
 40
1.0
176
     1
 90
        0
176
     1
 62
   257
176
     1
 40
1.0
176
     1
 90
        1
176
     1
 90
        6
176
     1
 90
        2
176
     1
 62
     7
176
     1
 90
        5
176
     1
 90
        0
176
     1
 90
        0
176
     1
290
     0
176
     1
 90
       13
176
     1
 40
0.0
176
     1
 90
        0
176
     1
290
     0
176
     1
290
     1
176
     1
290
     1
176
     1
290
     0
176
     1
290
     0
176
     1
290
     0
176
     1
290
     0
176
     1
290
     0
176
     1
290
     0
176
     1
 90
       50
176
     1
 40
0.0
176
     1
 40
1.0
176
     1
 90
        0
176
     1
 62
    18
176
     1
 90
       50
176
     1
 90
        3
176
     1
 62
     5
420
      255
176
     1
290
     0
176
     1
 90
       50
176
     1
 90
       50
176
     1
 90
       50
176
     1
290
     0
176
     1
 90
       50
176
     1
 62
   256
176
     0
 40
1.0
176
     0
 90
        2
176
     1
  1
strokes_ogs.tif
176
     1
290
     0
176
     1
 40
1.0
176
     1
 40
1.0
176
     1
1001
ACAD
1000
AcDbSavedByObjectVersion
1070
     0
  0
VISUALSTYLE
  5
2C
102
{ACAD_REACTORS
330
29
102
}
330
29
100
AcDbVisualStyle
  2
Gouraud
 70
     2
177
     3
291
     1
 70
    58
 90
        2
176
     1
 90
        2
176
     1
 90
        1
176
     1
 90
        2
176
     1
 40
0.6
176
     1
 40
30.0
176
     1
 62
     7
420
 16777215
176
     1
 90
        0
176
     1
 90
        0
176
     1
 62
     7
176
     1
 62
   257
176
     1
 90
        1
176
     1
 90
        1
176
     1
 40
1.0
176
     1
 90
        0
176
     1
 62
     7
176
     1
 40
1.0
176
     1
 90
        1
176
     1
 90
        6
176
     1
 90
        2
176
     1
 62
     7
176
     1
 90
        5
176
     1
 90
        0
176
     1
 90
        0
176
     1
290
     0
176
     1
 90
       13
176
     1
 40
0.0
176
     1
 90
        0
176
     1
290
     0
176
     1
290
     1
176
     1
290
     1
176
     1
290
     0
176
     1
290
     0
176
     1
290
     0
176
     1
290
     0
176
     1
290
     0
176
     1
290
     0
176
     1
 90
       50
176
     1
 40
0.0
176
     1
 40
1.0
176
     1
 90
        0
176
     1
 62
    18
176
     1
 90
       50
176
     1
 90
        3
176
     1
 62
     5
420
      255
176
     1
290
     0
176
     1
 90
       50
176
     1
 90
       50
176
     1
 90
       50
176
     1
290
     0
176
     1
 90
       50
176
     1
 62
   256
176
     0
 40
1.0
176
     0
 90
        2
176
     1
  1
strokes_ogs.tif
176
     1
290
     0
176
     1
 40
1.0
176
     1
 40
1.0
176
     1
1001
ACAD
1000
AcDbSavedByObjectVersion
1070
     0
  0
VISUALSTYLE
  5
2D
102
{ACAD_REACTORS
330
29
102
}
330
29
100
AcDbVisualStyle
  2
GouraudWithEdges
 70
     3
177
     3
291
     1
 70
    58
 90
        2
176
     1
 90
        2
176
     1
 90
        1
176
     1
 90
        2
176
     1
 40
0.6
176
     1
 40
30.0
176
     1
 62
     7
420
 16777215
176
     1
 90
        1
176
     1
 90
        0
176
     1
 62
     7
176
     1
 62
   257
176
     1
 90
        1
176
     1
 90
        1
176
     1
 40
1.0
176
     1
 90
        0
176
     1
 62
   257
176
     1
 40
1.0
176
     1
 90
        1
176
     1
 90
        6
176
     1
 90
        2
176
     1
 62
     7
176
     1
 90
        5
176
     1
 90
        0
176
     1
 90
        0
176
     1
290
     0
176
     1
 90
       13
176
     1
 40
0.0
176
     1
 90
        0
176
     1
290
     0
176
     1
290
     1
176
     1
290
     1
176
     1
290
     0
176
     1
290
     0
176
     1
290
     0
176
     1
290
     0
176
     1
290
     0
176
     1
290
     0
176
     1
 90
       50
176
     1
 40
0.0
176
     1
 40
1.0
176
     1
 90
        0
176
     1
 62
    18
176
     1
 90
       50
176
     1
 90
        3
176
     1
 62
     5
420
      255
176
     1
290
     0
176
     1
 90
       50
176
     1
 90
       50
176
     1
 90
       50
176
     1
290
     0
176
     1
 90
       50
176
     1
 62
   256
176
     0
 40
1.0
176
     0
 90
        2
176
     1
  1
strokes_ogs.tif
176
     1
290
     0
176
     1
 40
1.0
176
     1
 40
1.0
176
     1
1001
ACAD
1000
AcDbSavedByObjectVersion
1070
     0
  0
VISUALSTYLE
  5
31
102
{ACAD_REACTORS
330
29
102
}
330
29
100
AcDbVisualStyle
  2
Hidden
 70
     6
177
     3
291
     0
 70
    58
 90
        1
176
     1
 90
        2
176
     1
 90
        2
176
     1
 90
        0
176
     1
 40
0.6
176
     1
 40
30.0
176
     1
 62
     7
420
 16777215
176
     1
 90
        2
176
     1
 90
        2
176
     1
 62
     7
176
     1
 62
   257
176
     1
 90
        2
176
     1
 90
        1
176
     1
 40
40.0
176
     1
 90
        0
176
     1
 62
   257
176
     1
 40
1.0
176
     1
 90
        1
176
     1
 90
        6
176
     1
 90
        2
176
     1
 62
     7
176
     1
 90
        3
176
     1
 90
        0
176
     1
 90
        0
176
     1
290
     0
176
     1
 90
        1
176
     1
 40
0.0
176
     1
 90
        0
176
     1
290
     0
176
     1
290
     1
176
     1
290
     1
176
     1
290
     0
176
     1
290
     0
176
     1
290
     0
176
     1
290
     0
176
     1
290
     0
176
     1
290
     0
176
     1
 90
       50
176
     1
 40
0.0
176
     1
 40
1.0
176
     1
 90
        0
176
     1
 62
    18
176
     1
 90
       50
176
     1
 90
        3
176
     1
 62
     5
420
      255
176
     1
290
     0
176
     1
 90
       50
176
     1
 90
       50
176
     1
 90
       50
176
     1
290
     0
176
     1
 90
       50
176
     1
 62
   256
176
     0
 40
1.0
176
     0
 90
        2
176
     1
  1
strokes_ogs.tif
176
     1
290
     0
176
     1
 40
1.0
176
     1
 40
1.0
176
     1
1001
ACAD
1000
AcDbSavedByObjectVersion
1070
     0
  0
VISUALSTYLE
  5
3F
102
{ACAD_REACTORS
330
29
102
}
330
29
100
AcDbVisualStyle
  2
JitterOff
 70
    20
177
     3
291
     1
 70
    58
 90
        2
176
     0
 90
        2
176
     0
 90
        0
176
     0
 90
        0
176
     0
 40
0.6
176
     0
 40
30.0
176
     0
 62
     7
420
 16777215
176
     0
 90
        1
176
     0
 90
        4
176
     0
 62
     7
176
     0
 62
   257
176
     0
 90
        1
176
     0
 90
        1
176
     0
 40
1.0
176
     0
 90
       10
176
     2
 62
     7
176
     0
 40
1.0
176
     0
 90
        1
176
     0
 90
        6
176
     0
 90
        2
176
     0
 62
     7
176
     0
 90
        5
176
     0
 90
        0
176
     0
 90
        0
176
     0
290
     0
176
     0
 90
        1
176
     0
 40
0.0
176
     0
 90
        0
176
     0
290
     0
176
     0
290
     1
176
     0
290
     1
176
     0
290
     0
176
     0
290
     0
176
     0
290
     0
176
     0
290
     0
176
     0
290
     0
176
     0
290
     0
176
     0
 90
       50
176
     0
 40
0.0
176
     0
 40
1.0
176
     0
 90
        0
176
     0
 62
    18
176
     0
 90
       50
176
     0
 90
        3
176
     0
 62
     5
420
      255
176
     0
290
     0
176
     0
 90
       50
176
     0
 90
       50
176
     0
 90
       50
176
     0
290
     0
176
     0
 90
       50
176
     0
 62
   256
176
     0
 40
1.0
176
     0
 90
        2
176
     0
  1
strokes_ogs.tif
176
     0
290
     0
176
     0
 40
1.0
176
     0
 40
1.0
176
     0
1001
ACAD
1000
AcDbSavedByObjectVersion
1070
     0
  0
VISUALSTYLE
  5
37
102
{ACAD_REACTORS
330
29
102
}
330
29
100
AcDbVisualStyle
  2
Linepattern
 70
    14
177
     3
291
     1
 70
    58
 90
        2
176
     1
 90
        2
176
     1
 90
        0
176
     1
 90
        0
176
     1
 40
0.6
176
     1
 40
30.0
176
     1
 62
     7
420
 16777215
176
     1
 90
        1
176
     1
 90
        4
176
     1
 62
     7
176
     1
 62
   257
176
     1
 90
        7
176
     1
 90
        7
176
     1
 40
1.0
176
     1
 90
        8
176
     1
 62
     7
176
     1
 40
1.0
176
     1
 90
        1
176
     1
 90
        6
176
     1
 90
        2
176
     1
 62
     7
176
     1
 90
        5
176
     1
 90
        0
176
     1
 90
        0
176
     1
290
     0
176
     1
 90
        1
176
     1
 40
0.0
176
     1
 90
        0
176
     1
290
     0
176
     1
290
     1
176
     1
290
     1
176
     1
290
     0
176
     1
290
     0
176
     1
290
     0
176
     1
290
     0
176
     1
290
     0
176
     1
290
     0
176
     1
 90
       50
176
     1
 40
0.0
176
     1
 40
1.0
176
     1
 90
        0
176
     1
 62
    18
176
     1
 90
       50
176
     1
 90
        3
176
     1
 62
     5
420
      255
176
     1
290
     0
176
     1
 90
       50
176
     1
 90
       50
176
     1
 90
       50
176
     1
290
     0
176
     1
 90
       50
176
     1
 62
   256
176
     0
 40
1.0
176
     0
 90
        2
176
     1
  1
strokes_ogs.tif
176
     1
290
     0
176
     1
 40
1.0
176
     1
 40
1.0
176
     1
1001
ACAD
1000
AcDbSavedByObjectVersion
1070
     0
  0
VISUALSTYLE
  5
40
102
{ACAD_REACTORS
330
29
102
}
330
29
100
AcDbVisualStyle
  2
OverhangOff
 70
    21
177
     3
291
     1
 70
    58
 90
        2
176
     0
 90
        2
176
     0
 90
        0
176
     0
 90
        0
176
     0
 40
0.6
176
     0
 40
30.0
176
     0
 62
     7
420
 16777215
176
     0
 90
        1
176
     0
 90
        4
176
     0
 62
     7
176
     0
 62
   257
176
     0
 90
        1
176
     0
 90
        1
176
     0
 40
1.0
176
     0
 90
        9
176
     2
 62
     7
176
     0
 40
1.0
176
     0
 90
        1
176
     0
 90
        6
176
     0
 90
        2
176
     0
 62
     7
176
     0
 90
        5
176
     0
 90
        0
176
     0
 90
        0
176
     0
290
     0
176
     0
 90
        1
176
     0
 40
0.0
176
     0
 90
        0
176
     0
290
     0
176
     0
290
     1
176
     0
290
     1
176
     0
290
     0
176
     0
290
     0
176
     0
290
     0
176
     0
290
     0
176
     0
290
     0
176
     0
290
     0
176
     0
 90
       50
176
     0
 40
0.0
176
     0
 40
1.0
176
     0
 90
        0
176
     0
 62
    18
176
     0
 90
       50
176
     0
 90
        3
176
     0
 62
     5
420
      255
176
     0
290
     0
176
     0
 90
       50
176
     0
 90
       50
176
     0
 90
       50
176
     0
290
     0
176
     0
 90
       50
176
     0
 62
   256
176
     0
 40
1.0
176
     0
 90
        2
176
     0
  1
strokes_ogs.tif
176
     0
290
     0
176
     0
 40
1.0
176
     0
 40
1.0
176
     0
1001
ACAD
1000
AcDbSavedByObjectVersion
1070
     0
  0
VISUALSTYLE
  5
33
102
{ACAD_REACTORS
330
29
102
}
330
29
100
AcDbVisualStyle
  2
Realistic
 70
     8
177
     3
291
     0
 70
    58
 90
        2
176
     1
 90
        3
176
     1
 90
        0
176
     1
 90
        2
176
     1
 40
0.6
176
     1
 40
30.0
176
     1
 62
     7
420
 16777215
176
     1
 90
        0
176
     1
 90
        0
176
     1
 62
     7
176
     1
 62
   257
176
     1
 90
        1
176
     1
 90
        1
176
     1
 40
1.0
176
     1
 90
        8
176
     1
 62
   257
176
     1
 40
1.0
176
     1
 90
        1
176
     1
 90
        6
176
     1
 90
        2
176
     1
 62
     7
176
     1
 90
        3
176
     1
 90
        0
176
     1
 90
        0
176
     1
290
     0
176
     1
 90
       13
176
     1
 40
0.0
176
     1
 90
        0
176
     1
290
     0
176
     1
290
     1
176
     1
290
     1
176
     1
290
     0
176
     1
290
     0
176
     1
290
     0
176
     1
290
     0
176
     1
290
     0
176
     1
290
     0
176
     1
 90
       50
176
     1
 40
0.0
176
     1
 40
1.0
176
     1
 90
        0
176
     1
 62
    18
176
     1
 90
       50
176
     1
 90
        3
176
     1
 62
     5
420
      255
176
     1
290
     0
176
     1
 90
       50
176
     1
 90
       50
176
     1
 90
       50
176
     1
290
     0
176
     1
 90
       50
176
     1
 62
   256
176
     0
 40
1.0
176
     0
 90
        2
176
     1
  1
strokes_ogs.tif
176
     1
290
     0
176
     1
 40
1.0
176
     1
 40
1.0
176
     1
1001
ACAD
1000
AcDbSavedByObjectVersion
1070
     0
  0
VISUALSTYLE
  5
3E
102
{ACAD_REACTORS
330
29
102
}
330
29
100
AcDbVisualStyle
  2
Shaded
 70
    27
177
     3
291
     0
 70
    58
 90
        2
176
     1
 90
        2
176
     1
 90
        1
176
     1
 90
        2
176
     1
 40
0.6
176
     1
 40
30.0
176
     1
 62
     7
420
 16777215
176
     1
 90
        0
176
     1
 90
        4
176
     1
 62
     7
176
     1
 62
   257
176
     1
 90
        1
176
     1
 90
        1
176
     1
 40
1.0
176
     1
 90
        8
176
     1
 62
   257
176
     1
 40
1.0
176
     1
 90
        1
176
     1
 90
        6
176
     1
 90
        2
176
     1
 62
     8
420
  7895160
176
     1
 90
        3
176
     1
 90
        0
176
     1
 90
        0
176
     1
290
     0
176
     1
 90
        5
176
     1
 40
0.0
176
     1
 90
        0
176
     1
290
     0
176
     1
290
     1
176
     1
290
     1
176
     1
290
     0
176
     1
290
     0
176
     1
290
     0
176
     1
290
     0
176
     1
290
     0
176
     1
290
     0
176
     1
 90
       50
176
     1
 40
0.0
176
     1
 40
1.0
176
     1
 90
        0
176
     1
 62
    18
176
     1
 90
       50
176
     1
 90
        3
176
     1
 62
     5
420
      255
176
     1
290
     0
176
     1
 90
       50
176
     1
 90
       50
176
     1
 90
       50
176
     1
290
     0
176
     1
 90
       50
176
     1
 62
   256
176
     0
 40
1.0
176
     0
 90
        2
176
     1
  1
strokes_ogs.tif
176
     1
290
     0
176
     1
 40
1.0
176
     1
 40
1.0
176
     1
1001
ACAD
1000
AcDbSavedByObjectVersion
1070
     0
  0
VISUALSTYLE
  5
3D
102
{ACAD_REACTORS
330
29
102
}
330
29
100
AcDbVisualStyle
  2
Shaded with edges
 70
    26
177
     3
291
     0
 70
    58
 90
        2
176
     1
 90
        2
176
     1
 90
        1
176
     1
 90
        2
176
     1
 40
0.6
176
     1
 40
30.0
176
     1
 62
     7
420
 16777215
176
     1
 90
        1
176
     1
 90
        2
176
     1
 62
     7
176
     1
 62
   257
176
     1
 90
        2
176
     1
 90
        1
176
     1
 40
1.0
176
     1
 90
        8
176
     1
 62
   257
176
     1
 40
1.0
176
     1
 90
        1
176
     1
 90
        6
176
     1
 90
        2
176
     1
 62
     7
176
     1
 90
        3
176
     1
 90
        0
176
     1
 90
        0
176
     1
290
     0
176
     1
 90
        5
176
     1
 40
0.0
176
     1
 90
        0
176
     1
290
     0
176
     1
290
     1
176
     1
290
     1
176
     1
290
     0
176
     1
290
     0
176
     1
290
     0
176
     1
290
     0
176
     1
290
     0
176
     1
290
     0
176
     1
 90
       50
176
     1
 40
0.0
176
     1
 40
1.0
176
     1
 90
        0
176
     1
 62
    18
176
     1
 90
       50
176
     1
 90
        3
176
     1
 62
     5
420
      255
176
     1
290
     0
176
     1
 90
       50
176
     1
 90
       50
176
     1
 90
       50
176
     1
290
     0
176
     1
 90
       50
176
     1
 62
   256
176
     0
 40
1.0
176
     0
 90
        2
176
     1
  1
strokes_ogs.tif
176
     1
290
     0
176
     1
 40
1.0
176
     1
 40
1.0
176
     1
1001
ACAD
1000
AcDbSavedByObjectVersion
1070
     0
  0
VISUALSTYLE
  5
3A
102
{ACAD_REACTORS
330
29
102
}
330
29
100
AcDbVisualStyle
  2
Shades of Gray
 70
    23
177
     3
291
     0
 70
    58
 90
        2
176
     1
 90
        2
176
     1
 90
        3
176
     1
 90
        0
176
     1
 40
0.6
176
     1
 40
30.0
176
     1
 62
     7
420
 16777215
176
     1
 90
        2
176
     1
 90
        2
176
     1
 62
     7
176
     1
 62
     7
176
     1
 90
        1
176
     1
 90
        1
176
     1
 40
40.0
176
     1
 90
        8
176
     1
 62
     7
176
     1
 40
1.0
176
     1
 90
        1
176
     1
 90
        6
176
     1
 90
        2
176
     1
 62
     7
176
     1
 90
        3
176
     1
 90
        0
176
     1
 90
        0
176
     1
290
     0
176
     1
 90
        1
176
     1
 40
0.0
176
     1
 90
        0
176
     1
290
     0
176
     1
290
     1
176
     1
290
     1
176
     1
290
     0
176
     1
290
     0
176
     1
290
     0
176
     1
290
     0
176
     1
290
     0
176
     1
290
     0
176
     1
 90
       50
176
     1
 40
0.0
176
     1
 40
1.0
176
     1
 90
        0
176
     1
 62
    18
176
     1
 90
       50
176
     1
 90
        3
176
     1
 62
     5
420
      255
176
     1
290
     0
176
     1
 90
       50
176
     1
 90
       50
176
     1
 90
       50
176
     1
290
     0
176
     1
 90
       50
176
     1
 62
   256
176
     0
 40
1.0
176
     0
 90
        2
176
     1
  1
strokes_ogs.tif
176
     1
290
     0
176
     1
 40
1.0
176
     1
 40
1.0
176
     1
1001
ACAD
1000
AcDbSavedByObjectVersion
1070
     0
  0
VISUALSTYLE
  5
3B
102
{ACAD_REACTORS
330
29
102
}
330
29
100
AcDbVisualStyle
  2
Sketchy
 70
    24
177
     3
291
     0
 70
    58
 90
        1
176
     1
 90
        2
176
     1
 90
        2
176
     1
 90
        0
176
     1
 40
0.6
176
     1
 40
30.0
176
     1
 62
     7
420
 16777215
176
     1
 90
        2
176
     1
 90
        2
176
     1
 62
     7
176
     1
 62
     7
176
     1
 90
        1
176
     1
 90
        1
176
     1
 40
40.0
176
     1
 90
       11
176
     1
 62
     7
176
     1
 40
1.0
176
     1
 90
        1
176
     1
 90
        6
176
     1
 90
        2
176
     1
 62
     7
176
     1
 90
        6
176
     1
 90
        0
176
     1
 90
        0
176
     1
290
     0
176
     1
 90
        1
176
     1
 40
0.0
176
     1
 90
        0
176
     1
290
     0
176
     1
290
     1
176
     1
290
     1
176
     1
290
     0
176
     1
290
     0
176
     1
290
     0
176
     1
290
     0
176
     1
290
     0
176
     1
290
     0
176
     1
 90
       50
176
     1
 40
0.0
176
     1
 40
1.0
176
     1
 90
        0
176
     1
 62
    18
176
     1
 90
       50
176
     1
 90
        3
176
     1
 62
     5
420
      255
176
     1
290
     0
176
     1
 90
       50
176
     1
 90
       50
176
     1
 90
       50
176
     1
290
     0
176
     1
 90
       50
176
     1
 62
   256
176
     0
 40
1.0
176
     0
 90
        2
176
     1
  1
strokes_ogs.tif
176
     1
290
     0
176
     1
 40
1.0
176
     1
 40
1.0
176
     1
1001
ACAD
1000
AcDbSavedByObjectVersion
1070
     0
  0
VISUALSTYLE
  5
36
102
{ACAD_REACTORS
330
29
102
}
330
29
100
AcDbVisualStyle
  2
Thicken
 70
    13
177
     3
291
     1
 70
    58
 90
        2
176
     1
 90
        2
176
     1
 90
        0
176
     1
 90
        0
176
     1
 40
0.6
176
     1
 40
30.0
176
     1
 62
     7
420
 16777215
176
     1
 90
        1
176
     1
 90
        4
176
     1
 62
     7
176
     1
 62
   257
176
     1
 90
        1
176
     1
 90
        1
176
     1
 40
1.0
176
     1
 90
       12
176
     1
 62
     7
176
     1
 40
1.0
176
     1
 90
        1
176
     1
 90
        6
176
     1
 90
        2
176
     1
 62
     7
176
     1
 90
        5
176
     1
 90
        0
176
     1
 90
        0
176
     1
290
     0
176
     1
 90
        1
176
     1
 40
0.0
176
     1
 90
        0
176
     1
290
     0
176
     1
290
     1
176
     1
290
     1
176
     1
290
     0
176
     1
290
     0
176
     1
290
     0
176
     1
290
     0
176
     1
290
     0
176
     1
290
     0
176
     1
 90
       50
176
     1
 40
0.0
176
     1
 40
1.0
176
     1
 90
        0
176
     1
 62
    18
176
     1
 90
       50
176
     1
 90
        3
176
     1
 62
     5
420
      255
176
     1
290
     0
176
     1
 90
       50
176
     1
 90
       50
176
     1
 90
       50
176
     1
290
     0
176
     1
 90
       50
176
     1
 62
   256
176
     0
 40
1.0
176
     0
 90
        2
176
     1
  1
strokes_ogs.tif
176
     1
290
     0
176
     1
 40
1.0
176
     1
 40
1.0
176
     1
1001
ACAD
1000
AcDbSavedByObjectVersion
1070
     0
  0
VISUALSTYLE
  5
30
102
{ACAD_REACTORS
330
29
102
}
330
29
100
AcDbVisualStyle
  2
Wireframe
 70
     5
177
     3
291
     0
 70
    58
 90
        0
176
     1
 90
        2
176
     1
 90
        0
176
     1
 90
        0
176
     1
 40
0.6
176
     1
 40
30.0
176
     1
 62
     7
420
 16777215
176
     1
 90
        1
176
     1
 90
        4
176
     1
 62
     7
176
     1
 62
   257
176
     1
 90
        1
176
     1
 90
        1
176
     1
 40
1.0
176
     1
 90
        0
176
     1
 62
   257
176
     1
 40
1.0
176
     1
 90
        1
176
     1
 90
        6
176
     1
 90
        2
176
     1
 62
     7
176
     1
 90
        3
176
     1
 90
        0
176
     1
 90
        0
176
     1
290
     0
176
     1
 90
        1
176
     1
 40
0.0
176
     1
 90
        0
176
     1
290
     0
176
     1
290
     1
176
     1
290
     1
176
     1
290
     0
176
     1
290
     0
176
     1
290
     0
176
     1
290
     0
176
     1
290
     0
176
     1
290
     0
176
     1
 90
       50
176
     1
 40
0.0
176
     1
 40
1.0
176
     1
 90
        0
176
     1
 62
    18
176
     1
 90
       50
176
     1
 90
        3
176
     1
 62
     5
420
      255
176
     1
290
     0
176
     1
 90
       50
176
     1
 90
       50
176
     1
 90
       50
176
     1
290
     0
176
     1
 90
       50
176
     1
 62
   256
176
     0
 40
1.0
176
     0
 90
        2
176
     1
  1
strokes_ogs.tif
176
     1
290
     0
176
     1
 40
1.0
176
     1
 40
1.0
176
     1
1001
ACAD
1000
AcDbSavedByObjectVersion
1070
     0
  0
VISUALSTYLE
  5
3C
102
{ACAD_REACTORS
330
29
102
}
330
29
100
AcDbVisualStyle
  2
X-Ray
 70
    25
177
     3
291
     0
 70
    58
 90
        2
176
     1
 90
        2
176
     1
 90
        1
176
     1
 90
        1
176
     1
 40
0.5
176
     1
 40
30.0
176
     1
 62
     7
420
 16777215
176
     1
 90
        1
176
     1
 90
        0
176
     1
 62
     7
176
     1
 62
   257
176
     1
 90
        1
176
     1
 90
        1
176
     1
 40
1.0
176
     1
 90
        8
176
     1
 62
     7
176
     1
 40
1.0
176
     1
 90
        1
176
     1
 90
        6
176
     1
 90
        2
176
     1
 62
     7
176
     1
 90
        3
176
     1
 90
        0
176
     1
 90
        0
176
     1
290
     0
176
     1
 90
       13
176
     1
 40
0.0
176
     1
 90
        0
176
     1
290
     0
176
     1
290
     1
176
     1
290
     1
176
     1
290
     0
176
     1
290
     0
176
     1
290
     0
176
     1
290
     0
176
     1
290
     0
176
     1
290
     0
176
     1
 90
       50
176
     1
 40
0.0
176
     1
 40
1.0
176
     1
 90
        0
176
     1
 62
    18
176
     1
 90
       50
176
     1
 90
        3
176
     1
 62
     5
420
      255
176
     1
290
     0
176
     1
 90
       50
176
     1
 90
       50
176
     1
 90
       50
176
     1
290
     0
176
     1
 90
       50
176
     1
 62
   256
176
     0
 40
1.0
176
     0
 90
        2
176
     1
  1
strokes_ogs.tif
176
     1
290
     0
176
     1
 40
1.0
176
     1
 40
1.0
176
     1
1001
ACAD
1000
AcDbSavedByObjectVersion
1070
     0
  0
DICTIONARYVAR
  5
186
102
{ACAD_REACTORS
330
181
102
}
330
181
100
DictionaryVariables
280
     0
  1
1:1
  0
DICTIONARYVAR
  5
183
102
{ACAD_REACTORS
330
181
102
}
330
181
100
DictionaryVariables
280
     0
  1
STANDARD
  0
DICTIONARYVAR
  5
182
102
{ACAD_REACTORS
330
181
102
}
330
181
100
DictionaryVariables
280
     0
  1
STANDARD
  0
DICTIONARYVAR
  5
184
102
{ACAD_REACTORS
330
181
102
}
330
181
100
DictionaryVariables
280
     0
  1
Imperial24
  0
DICTIONARYVAR
  5
185
102
{ACAD_REACTORS
330
181
102
}
330
181
100
DictionaryVariables
280
     0
  1
Imperial24
  0
DICTIONARY
  5
1A
330
19
100
AcDbDictionary
280
     1
281
     1
  3
BUMPTILE
360
1C
  3
DIFFUSETILE
360
1B
  3
OPACITYTILE
360
1F
  3
REFLECTIONTILE
360
1E
  3
REFRACTIONTILE
360
20
  3
SPECULARTILE
360
1D
  0
DICTIONARY
  5
12
330
11
100
AcDbDictionary
280
     1
281
     1
  3
BUMPTILE
360
14
  3
DIFFUSETILE
360
13
  3
OPACITYTILE
360
17
  3
REFLECTIONTILE
360
16
  3
REFRACTIONTILE
360
18
  3
SPECULARTILE
360
15
  0
DICTIONARY
  5
22
330
21
100
AcDbDictionary
280
     1
281
     1
  3
BUMPTILE
360
24
  3
DIFFUSETILE
360
23
  3
OPACITYTILE
360
27
  3
REFLECTIONTILE
360
26
  3
REFRACTIONTILE
360
28
  3
SPECULARTILE
360
25
  0
DICTIONARY
  5
1C4
330
65
100
AcDbDictionary
280
     1
281
     1
  3
ACAD_ROUNDTRIP_2008_TABLESTYLE_CELLSTYLEMAP
360
1D2
  0
XRECORD
  5
1C
102
{ACAD_REACTORS
330
1A
102
}
330
1A
100
AcDbXrecord
280
     1
270
     1
271
     1
  0
XRECORD
  5
1B
102
{ACAD_REACTORS
330
1A
102
}
330
1A
100
AcDbXrecord
280
     1
270
     1
271
     1
  0
XRECORD
  5
1F
102
{ACAD_REACTORS
330
1A
102
}
330
1A
100
AcDbXrecord
280
     1
270
     1
271
     1
  0
XRECORD
  5
1E
102
{ACAD_REACTORS
330
1A
102
}
330
1A
100
AcDbXrecord
280
     1
270
     1
271
     1
  0
XRECORD
  5
20
102
{ACAD_REACTORS
330
1A
102
}
330
1A
100
AcDbXrecord
280
     1
270
     1
271
     1
  0
XRECORD
  5
1D
102
{ACAD_REACTORS
330
1A
102
}
330
1A
100
AcDbXrecord
280
     1
270
     1
271
     1
  0
XRECORD
  5
14
102
{ACAD_REACTORS
330
12
102
}
330
12
100
AcDbXrecord
280
     1
270
     1
271
     1
  0
XRECORD
  5
13
102
{ACAD_REACTORS
330
12
102
}
330
12
100
AcDbXrecord
280
     1
270
     1
271
     1
  0
XRECORD
  5
17
102
{ACAD_REACTORS
330
12
102
}
330
12
100
AcDbXrecord
280
     1
270
     1
271
     1
  0
XRECORD
  5
16
102
{ACAD_REACTORS
330
12
102
}
330
12
100
AcDbXrecord
280
     1
270
     1
271
     1
  0
XRECORD
  5
18
102
{ACAD_REACTORS
330
12
102
}
330
12
100
AcDbXrecord
280
     1
270
     1
271
     1
  0
XRECORD
  5
15
102
{ACAD_REACTORS
330
12
102
}
330
12
100
AcDbXrecord
280
     1
270
     1
271
     1
  0
XRECORD
  5
24
102
{ACAD_REACTORS
330
22
102
}
330
22
100
AcDbXrecord
280
     1
270
     1
271
     1
  0
XRECORD
  5
23
102
{ACAD_REACTORS
330
22
102
}
330
22
100
AcDbXrecord
280
     1
270
     1
271
     1
  0
XRECORD
  5
27
102
{ACAD_REACTORS
330
22
102
}
330
22
100
AcDbXrecord
280
     1
270
     1
271
     1
  0
XRECORD
  5
26
102
{ACAD_REACTORS
330
22
102
}
330
22
100
AcDbXrecord
280
     1
270
     1
271
     1
  0
XRECORD
  5
28
102
{ACAD_REACTORS
330
22
102
}
330
22
100
AcDbXrecord
280
     1
270
     1
271
     1
  0
XRECORD
  5
25
102
{ACAD_REACTORS
330
22
102
}
330
22
100
AcDbXrecord
280
     1
270
     1
271
     1
  0
CELLSTYLEMAP
  5
1D2
102
{ACAD_REACTORS
330
1C4
102
}
330
1C4
100
AcDbCellStyleMap
 90
        3
300
CELLSTYLE
  1
TABLEFORMAT_BEGIN
 90
        5
170
     1
 91
        0
 92
    32768
 62
   257
 93
        1
300
CONTENTFORMAT
  1
CONTENTFORMAT_BEGIN
 90
        0
 91
        0
 92
      512
 93
        0
300

 40
0.0
140
1.0
 94
        5
 62
     0
340
55
144
0.25
309
CONTENTFORMAT_END
171
     1
301
MARGIN
  1
CELLMARGIN_BEGIN
 40
0.06
 40
0.06
 40
0.06
 40
0.06
 40
0.18
 40
0.18
309
CELLMARGIN_END
 94
        6
 95
        1
302
GRIDFORMAT
  1
GRIDFORMAT_BEGIN
 90
        0
 91
        1
 62
     0
 92
       -2
340
0
 93
        0
 40
0.045
309
GRIDFORMAT_END
 95
        2
302
GRIDFORMAT
  1
GRIDFORMAT_BEGIN
 90
        0
 91
        1
 62
     0
 92
       -2
340
0
 93
        0
 40
0.045
309
GRIDFORMAT_END
 95
        4
302
GRIDFORMAT
  1
GRIDFORMAT_BEGIN
 90
        0
 91
        1
 62
     0
 92
       -2
340
0
 93
        0
 40
0.045
309
GRIDFORMAT_END
 95
        8
302
GRIDFORMAT
  1
GRIDFORMAT_BEGIN
 90
        0
 91
        1
 62
     0
 92
       -2
340
0
 93
        0
 40
0.045
309
GRIDFORMAT_END
 95
       16
302
GRIDFORMAT
  1
GRIDFORMAT_BEGIN
 90
        0
 91
        1
 62
     0
 92
       -2
340
0
 93
        0
 40
0.045
309
GRIDFORMAT_END
 95
       32
302
GRIDFORMAT
  1
GRIDFORMAT_BEGIN
 90
        0
 91
        1
 62
     0
 92
       -2
340
0
 93
        0
 40
0.045
309
GRIDFORMAT_END
309
TABLEFORMAT_END
  1
CELLSTYLE_BEGIN
 90
        1
 91
        1
300
_TITLE
309
CELLSTYLE_END
300
CELLSTYLE
  1
TABLEFORMAT_BEGIN
 90
        5
170
     1
 91
        0
 92
        0
 62
   257
 93
        1
300
CONTENTFORMAT
  1
CONTENTFORMAT_BEGIN
 90
        0
 91
        0
 92
      512
 93
        0
300

 40
0.0
140
1.0
 94
        5
 62
     0
340
55
144
0.18
309
CONTENTFORMAT_END
171
     1
301
MARGIN
  1
CELLMARGIN_BEGIN
 40
0.06
 40
0.06
 40
0.06
 40
0.06
 40
0.18
 40
0.18
309
CELLMARGIN_END
 94
        6
 95
        1
302
GRIDFORMAT
  1
GRIDFORMAT_BEGIN
 90
        0
 91
        1
 62
     0
 92
       -2
340
0
 93
        0
 40
0.045
309
GRIDFORMAT_END
 95
        2
302
GRIDFORMAT
  1
GRIDFORMAT_BEGIN
 90
        0
 91
        1
 62
     0
 92
       -2
340
0
 93
        0
 40
0.045
309
GRIDFORMAT_END
 95
        4
302
GRIDFORMAT
  1
GRIDFORMAT_BEGIN
 90
        0
 91
        1
 62
     0
 92
       -2
340
0
 93
        0
 40
0.045
309
GRIDFORMAT_END
 95
        8
302
GRIDFORMAT
  1
GRIDFORMAT_BEGIN
 90
        0
 91
        1
 62
     0
 92
       -2
340
0
 93
        0
 40
0.045
309
GRIDFORMAT_END
 95
       16
302
GRIDFORMAT
  1
GRIDFORMAT_BEGIN
 90
        0
 91
        1
 62
     0
 92
       -2
340
0
 93
        0
 40
0.045
309
GRIDFORMAT_END
 95
       32
302
GRIDFORMAT
  1
GRIDFORMAT_BEGIN
 90
        0
 91
        1
 62
     0
 92
       -2
340
0
 93
        0
 40
0.045
309
GRIDFORMAT_END
309
TABLEFORMAT_END
  1
CELLSTYLE_BEGIN
 90
        2
 91
        1
300
_HEADER
309
CELLSTYLE_END
300
CELLSTYLE
  1
TABLEFORMAT_BEGIN
 90
        5
170
     1
 91
        0
 92
        0
 62
   257
 93
        1
300
CONTENTFORMAT
  1
CONTENTFORMAT_BEGIN
 90
        0
 91
        0
 92
      512
 93
        0
300

 40
0.0
140
1.0
 94
        2
 62
     0
340
55
144
0.18
309
CONTENTFORMAT_END
171
     1
301
MARGIN
  1
CELLMARGIN_BEGIN
 40
0.06
 40
0.06
 40
0.06
 40
0.06
 40
0.18
 40
0.18
309
CELLMARGIN_END
 94
        6
 95
        1
302
GRIDFORMAT
  1
GRIDFORMAT_BEGIN
 90
        0
 91
        1
 62
     0
 92
       -2
340
0
 93
        0
 40
0.045
309
GRIDFORMAT_END
 95
        2
302
GRIDFORMAT
  1
GRIDFORMAT_BEGIN
 90
        0
 91
        1
 62
     0
 92
       -2
340
0
 93
        0
 40
0.045
309
GRIDFORMAT_END
 95
        4
302
GRIDFORMAT
  1
GRIDFORMAT_BEGIN
 90
        0
 91
        1
 62
     0
 92
       -2
340
0
 93
        0
 40
0.045
309
GRIDFORMAT_END
 95
        8
302
GRIDFORMAT
  1
GRIDFORMAT_BEGIN
 90
        0
 91
        1
 62
     0
 92
       -2
340
0
 93
        0
 40
0.045
309
GRIDFORMAT_END
 95
       16
302
GRIDFORMAT
  1
GRIDFORMAT_BEGIN
 90
        0
 91
        1
 62
     0
 92
       -2
340
0
 93
        0
 40
0.045
309
GRIDFORMAT_END
 95
       32
302
GRIDFORMAT
  1
GRIDFORMAT_BEGIN
 90
        0
 91
        1
 62
     0
 92
       -2
340
0
 93
        0
 40
0.045
309
GRIDFORMAT_END
309
TABLEFORMAT_END
  1
CELLSTYLE_BEGIN
 90
        3
 91
        2
300
_DATA
309
CELLSTYLE_END
  0
ENDSEC
  0
EOF
