  0
SECTION
  2
HEADER
  9
$ACADVER
  1
AC1027
  9
$ACADMAINTVER
 70
   125
  9
$DWGCODEPAGE
  3
ANSI_1252
  9
$LASTSAVEDBY
  1
ufficio.tecnico
  9
$REQUIREDVERSIONS
160
                 0
  9
$INSBASE
 10
0.0
 20
0.0
 30
0.0
  9
$EXTMIN
 10
3.423511962034746
 20
-17.92213919714519
 30
0.0
  9
$EXTMAX
 10
17.55939410169134
 20
-9.780436177229947
 30
0.0
  9
$LIMMIN
 10
0.0
 20
0.0
  9
$LIMMAX
 10
12.0
 20
9.0
  9
$ORTHOMODE
 70
     1
  9
$REGENMODE
 70
     1
  9
$FILLMODE
 70
     1
  9
$QTEXTMODE
 70
     0
  9
$MIRRTEXT
 70
     0
  9
$LTSCALE
 40
1.0
  9
$ATTMODE
 70
     1
  9
$TEXTSIZE
 40
0.2
  9
$TRACEWID
 40
0.05
  9
$TEXTSTYLE
  7
Standard
  9
$CLAYER
  8
0
  9
$CELTYPE
  6
ByLayer
  9
$CECOLOR
 62
   256
  9
$CELTSCALE
 40
1.0
  9
$DISPSILH
 70
     0
  9
$DIMSCALE
 40
1.0
  9
$DIMASZ
 40
0.18
  9
$DIMEXO
 40
0.0625
  9
$DIMDLI
 40
0.38
  9
$DIMRND
 40
0.0
  9
$DIMDLE
 40
0.0
  9
$DIMEXE
 40
0.18
  9
$DIMTP
 40
0.0
  9
$DIMTM
 40
0.0
  9
$DIMTXT
 40
0.18
  9
$DIMCEN
 40
0.09
  9
$DIMTSZ
 40
0.0
  9
$DIMTOL
 70
     0
  9
$DIMLIM
 70
     0
  9
$DIMTIH
 70
     1
  9
$DIMTOH
 70
     1
  9
$DIMSE1
 70
     0
  9
$DIMSE2
 70
     0
  9
$DIMTAD
 70
     0
  9
$DIMZIN
 70
     0
  9
$DIMBLK
  1

  9
$DIMASO
 70
     1
  9
$DIMSHO
 70
     1
  9
$DIMPOST
  1

  9
$DIMAPOST
  1

  9
$DIMALT
 70
     0
  9
$DIMALTD
 70
     2
  9
$DIMALTF
 40
25.4
  9
$DIMLFAC
 40
1.0
  9
$DIMTOFL
 70
     0
  9
$DIMTVP
 40
0.0
  9
$DIMTIX
 70
     0
  9
$DIMSOXD
 70
     0
  9
$DIMSAH
 70
     0
  9
$DIMBLK1
  1

  9
$DIMBLK2
  1

  9
$DIMSTYLE
  2
Standard
  9
$DIMCLRD
 70
     0
  9
$DIMCLRE
 70
     0
  9
$DIMCLRT
 70
     0
  9
$DIMTFAC
 40
1.0
  9
$DIMGAP
 40
0.09
  9
$DIMJUST
 70
     0
  9
$DIMSD1
 70
     0
  9
$DIMSD2
 70
     0
  9
$DIMTOLJ
 70
     1
  9
$DIMTZIN
 70
     0
  9
$DIMALTZ
 70
     0
  9
$DIMALTTZ
 70
     0
  9
$DIMUPT
 70
     0
  9
$DIMDEC
 70
     4
  9
$DIMTDEC
 70
     4
  9
$DIMALTU
 70
     2
  9
$DIMALTTD
 70
     2
  9
$DIMTXSTY
  7
Standard
  9
$DIMAUNIT
 70
     0
  9
$DIMADEC
 70
     0
  9
$DIMALTRND
 40
0.0
  9
$DIMAZIN
 70
     0
  9
$DIMDSEP
 70
    46
  9
$DIMATFIT
 70
     3
  9
$DIMFRAC
 70
     0
  9
$DIMLDRBLK
  1

  9
$DIMLUNIT
 70
     2
  9
$DIMLWD
 70
    -2
  9
$DIMLWE
 70
    -2
  9
$DIMTMOVE
 70
     0
  9
$DIMFXL
 40
1.0
  9
$DIMFXLON
 70
     0
  9
$DIMJOGANG
 40
0.7853981633974483
  9
$DIMTFILL
 70
     0
  9
$DIMTFILLCLR
 70
     0
  9
$DIMARCSYM
 70
     0
  9
$DIMLTYPE
  6

  9
$DIMLTEX1
  6

  9
$DIMLTEX2
  6

  9
$DIMTXTDIRECTION
 70
     0
  9
$LUNITS
 70
     2
  9
$LUPREC
 70
     4
  9
$SKETCHINC
 40
0.1
  9
$FILLETRAD
 40
0.0
  9
$AUNITS
 70
     0
  9
$AUPREC
 70
     0
  9
$MENU
  1
.
  9
$ELEVATION
 40
0.0
  9
$PELEVATION
 40
0.0
  9
$THICKNESS
 40
0.0
  9
$LIMCHECK
 70
     0
  9
$CHAMFERA
 40
0.0
  9
$CHAMFERB
 40
0.0
  9
$CHAMFERC
 40
0.0
  9
$CHAMFERD
 40
0.0
  9
$SKPOLY
 70
     0
  9
$TDCREATE
 40
2459858.681944445
  9
$TDUCREATE
 40
2459858.598611111
  9
$TDUPDATE
 40
2459864.615347223
  9
$TDUUPDATE
 40
2459864.532013889
  9
$TDINDWG
 40
0.0013657407
  9
$TDUSRTIMER
 40
0.0013657407
  9
$USRTIMER
 70
     1
  9
$ANGBASE
 50
0.0
  9
$ANGDIR
 70
     0
  9
$PDMODE
 70
     0
  9
$PDSIZE
 40
0.0
  9
$PLINEWID
 40
0.0
  9
$SPLFRAME
 70
     0
  9
$SPLINETYPE
 70
     6
  9
$SPLINESEGS
 70
     8
  9
$HANDSEED
  5
1D3
  9
$SURFTAB1
 70
     6
  9
$SURFTAB2
 70
     6
  9
$SURFTYPE
 70
     6
  9
$SURFU
 70
     6
  9
$SURFV
 70
     6
  9
$UCSBASE
  2

  9
$UCSNAME
  2

  9
$UCSORG
 10
0.0
 20
0.0
 30
0.0
  9
$UCSXDIR
 10
1.0
 20
0.0
 30
0.0
  9
$UCSYDIR
 10
0.0
 20
1.0
 30
0.0
  9
$UCSORTHOREF
  2

  9
$UCSORTHOVIEW
 70
     0
  9
$UCSORGTOP
 10
0.0
 20
0.0
 30
0.0
  9
$UCSORGBOTTOM
 10
0.0
 20
0.0
 30
0.0
  9
$UCSORGLEFT
 10
0.0
 20
0.0
 30
0.0
  9
$UCSORGRIGHT
 10
0.0
 20
0.0
 30
0.0
  9
$UCSORGFRONT
 10
0.0
 20
0.0
 30
0.0
  9
$UCSORGBACK
 10
0.0
 20
0.0
 30
0.0
  9
$PUCSBASE
  2

  9
$PUCSNAME
  2

  9
$PUCSORG
 10
0.0
 20
0.0
 30
0.0
  9
$PUCSXDIR
 10
1.0
 20
0.0
 30
0.0
  9
$PUCSYDIR
 10
0.0
 20
1.0
 30
0.0
  9
$PUCSORTHOREF
  2

  9
$PUCSORTHOVIEW
 70
     0
  9
$PUCSORGTOP
 10
0.0
 20
0.0
 30
0.0
  9
$PUCSORGBOTTOM
 10
0.0
 20
0.0
 30
0.0
  9
$PUCSORGLEFT
 10
0.0
 20
0.0
 30
0.0
  9
$PUCSORGRIGHT
 10
0.0
 20
0.0
 30
0.0
  9
$PUCSORGFRONT
 10
0.0
 20
0.0
 30
0.0
  9
$PUCSORGBACK
 10
0.0
 20
0.0
 30
0.0
  9
$USERI1
 70
     0
  9
$USERI2
 70
     0
  9
$USERI3
 70
     0
  9
$USERI4
 70
     0
  9
$USERI5
 70
     0
  9
$USERR1
 40
0.0
  9
$USERR2
 40
0.0
  9
$USERR3
 40
0.0
  9
$USERR4
 40
0.0
  9
$USERR5
 40
0.0
  9
$WORLDVIEW
 70
     1
  9
$SHADEDGE
 70
     3
  9
$SHADEDIF
 70
    70
  9
$TILEMODE
 70
     1
  9
$MAXACTVP
 70
    64
  9
$PINSBASE
 10
0.0
 20
0.0
 30
0.0
  9
$PLIMCHECK
 70
     0
  9
$PEXTMIN
 10
1.000000000000000E+20
 20
1.000000000000000E+20
 30
1.000000000000000E+20
  9
$PEXTMAX
 10
-1.000000000000000E+20
 20
-1.000000000000000E+20
 30
-1.000000000000000E+20
  9
$PLIMMIN
 10
0.0
 20
0.0
  9
$PLIMMAX
 10
12.0
 20
9.0
  9
$UNITMODE
 70
     0
  9
$VISRETAIN
 70
     1
  9
$PLINEGEN
 70
     0
  9
$PSLTSCALE
 70
     1
  9
$TREEDEPTH
 70
  3020
  9
$CMLSTYLE
  2
Standard
  9
$CMLJUST
 70
     0
  9
$CMLSCALE
 40
1.0
  9
$PROXYGRAPHICS
 70
     1
  9
$MEASUREMENT
 70
     0
  9
$CELWEIGHT
370
    -1
  9
$ENDCAPS
280
     0
  9
$JOINSTYLE
280
     0
  9
$LWDISPLAY
290
     1
  9
$INSUNITS
 70
     5
  9
$HYPERLINKBASE
  1

  9
$STYLESHEET
  1

  9
$XEDIT
290
     1
  9
$CEPSNTYPE
380
     0
  9
$PSTYLEMODE
290
     1
  9
$FINGERPRINTGUID
  2
{1CD18099-0A72-3545-873D-2E5EF9B35084}
  9
$VERSIONGUID
  2
{078E8F98-DA1D-6148-BE45-A62E10B82677}
  9
$EXTNAMES
290
     1
  9
$PSVPSCALE
 40
0.0
  9
$OLESTARTUP
290
     0
  9
$SORTENTS
280
   127
  9
$INDEXCTL
280
     0
  9
$HIDETEXT
280
     1
  9
$XCLIPFRAME
280
     2
  9
$HALOGAP
280
     0
  9
$OBSCOLOR
 70
   257
  9
$OBSLTYPE
280
     0
  9
$INTERSECTIONDISPLAY
280
     0
  9
$INTERSECTIONCOLOR
 70
   257
  9
$DIMASSOC
280
     2
  9
$PROJECTNAME
  1

  9
$CAMERADISPLAY
290
     0
  9
$LENSLENGTH
 40
50.0
  9
$CAMERAHEIGHT
 40
0.0
  9
$STEPSPERSEC
 40
2.0
  9
$STEPSIZE
 40
6.0
  9
$3DDWFPREC
 40
2.0
  9
$PSOLWIDTH
 40
0.25
  9
$PSOLHEIGHT
 40
4.0
  9
$LOFTANG1
 40
1.570796326794896
  9
$LOFTANG2
 40
1.570796326794896
  9
$LOFTMAG1
 40
0.0
  9
$LOFTMAG2
 40
0.0
  9
$LOFTPARAM
 70
     7
  9
$LOFTNORMALS
280
     1
  9
$LATITUDE
 40
37.795
  9
$LONGITUDE
 40
-122.394
  9
$NORTHDIRECTION
 40
0.0
  9
$TIMEZONE
 70
 -8000
  9
$LIGHTGLYPHDISPLAY
280
     1
  9
$TILEMODELIGHTSYNCH
280
     1
  9
$CMATERIAL
347
11
  9
$SOLIDHIST
280
     0
  9
$SHOWHIST
280
     1
  9
$DWFFRAME
280
     2
  9
$DGNFRAME
280
     0
  9
$REALWORLDSCALE
290
     1
  9
$INTERFERECOLOR
 62
     1
  9
$INTERFEREOBJVS
345
33
  9
$INTERFEREVPVS
346
30
  9
$CSHADOW
280
     0
  9
$SHADOWPLANELOCATION
 40
0.0
  0
ENDSEC
  0
SECTION
  2
CLASSES
  0
CLASS
  1
ACDBDICTIONARYWDFLT
  2
AcDbDictionaryWithDefault
  3
ObjectDBX Classes
 90
        0
 91
        1
280
     0
281
     0
  0
CLASS
  1
MATERIAL
  2
AcDbMaterial
  3
ObjectDBX Classes
 90
     1153
 91
        3
280
     0
281
     0
  0
CLASS
  1
VISUALSTYLE
  2
AcDbVisualStyle
  3
ObjectDBX Classes
 90
     4095
 91
       24
280
     0
281
     0
  0
CLASS
  1
SCALE
  2
AcDbScale
  3
ObjectDBX Classes
 90
     1153
 91
       17
280
     0
281
     0
  0
CLASS
  1
TABLESTYLE
  2
AcDbTableStyle
  3
ObjectDBX Classes
 90
     4095
 91
        1
280
     0
281
     0
  0
CLASS
  1
MLEADERSTYLE
  2
AcDbMLeaderStyle
  3
ACDB_MLEADERSTYLE_CLASS
 90
     4095
 91
        1
280
     0
281
     0
  0
CLASS
  1
ACDBSECTIONVIEWSTYLE
  2
AcDbSectionViewStyle
  3
ObjectDBX Classes
 90
     1025
 91
        1
280
     0
281
     0
  0
CLASS
  1
ACDBDETAILVIEWSTYLE
  2
AcDbDetailViewStyle
  3
ObjectDBX Classes
 90
     1025
 91
        1
280
     0
281
     0
  0
CLASS
  1
DICTIONARYVAR
  2
AcDbDictionaryVar
  3
ObjectDBX Classes
 90
        0
 91
        5
280
     0
281
     0
  0
CLASS
  1
SORTENTSTABLE
  2
AcDbSortentsTable
  3
ObjectDBX Classes
 90
        0
 91
        3
280
     0
281
     0
  0
CLASS
  1
CELLSTYLEMAP
  2
AcDbCellStyleMap
  3
ObjectDBX Classes
 90
     1152
 91
        2
280
     0
281
     0
  0
ENDSEC
  0
SECTION
  2
TABLES
  0
TABLE
  2
VPORT
  5
8
330
0
100
AcDbSymbolTable
 70
     1
1001
ACAD
1000
DbSaveVer
1071
      249
  0
VPORT
  5
57
330
8
100
AcDbSymbolTableRecord
100
AcDbViewportTableRecord
  2
*Active
 70
     0
 10
0.0
 20
0.0
 11
1.0
 21
1.0
 12
5.744144977879003
 22
-2.510789722759634
 13
0.0
 23
0.0
 14
1.0
 24
1.0
 15
0.0
 25
0.0
 16
0.0
 26
0.0
 36
1.0
 17
10.50000721959722
 27
-14.85000416295415
 37
0.0
 40
19.46619495545554
 41
1.855329949238578
 42
50.0
 43
0.0
 44
0.0
 50
0.0
 51
0.0
 71
     0
 72
   100
 73
     1
 74
     1
 75
     0
 76
     0
 77
     0
 78
     0
281
     0
 65
     1
110
0.0
120
0.0
130
0.0
111
1.0
121
0.0
131
0.0
112
0.0
122
1.0
132
0.0
 79
     0
146
0.0
348
2F
 60
     3
 61
     5
292
     1
282
     1
141
0.0
142
0.0
 63
   250
421
  3355443
1001
ACAD_NAV_VCDISPLAY
1070
     3
  0
ENDTAB
  0
TABLE
  2
LTYPE
  5
5
330
0
100
AcDbSymbolTable
 70
     3
  0
LTYPE
  5
5B
330
5
100
AcDbSymbolTableRecord
100
AcDbLinetypeTableRecord
  2
ByBlock
 70
     0
  3

 72
    65
 73
     0
 40
0.0
  0
LTYPE
  5
5C
330
5
100
AcDbSymbolTableRecord
100
AcDbLinetypeTableRecord
  2
ByLayer
 70
     0
  3

 72
    65
 73
     0
 40
0.0
  0
LTYPE
  5
5D
330
5
100
AcDbSymbolTableRecord
100
AcDbLinetypeTableRecord
  2
Continuous
 70
     0
  3
Solid line
 72
    65
 73
     0
 40
0.0
  0
ENDTAB
  0
TABLE
  2
LAYER
  5
2
330
0
100
AcDbSymbolTable
 70
     2
  0
LAYER
  5
54
330
2
100
AcDbSymbolTableRecord
100
AcDbLayerTableRecord
  2
0
 70
     0
 62
     7
  6
Continuous
370
    -3
390
F
347
21
348
0
  0
LAYER
  5
78
330
2
100
AcDbSymbolTableRecord
100
AcDbLayerTableRecord
  2
Livello 1
 70
     0
 62
     7
  6
Continuous
370
     0
390
F
347
21
348
0
  0
ENDTAB
  0
TABLE
  2
STYLE
  5
3
330
0
100
AcDbSymbolTable
 70
     2
  0
STYLE
  5
55
330
3
100
AcDbSymbolTableRecord
100
AcDbTextStyleTableRecord
  2
Standard
 70
     0
 40
0.0
 41
1.0
 50
0.0
 71
     0
 42
0.2
  3
txt
  4

  0
STYLE
  5
5A
330
3
100
AcDbSymbolTableRecord
100
AcDbTextStyleTableRecord
  2
Annotative
 70
     0
 40
0.0
 41
1.0
 50
0.0
 71
     0
 42
0.2
  3
txt
  4

1001
AcadAnnotative
1000
AnnotativeData
1002
{
1070
     1
1070
     1
1002
}
  0
ENDTAB
  0
TABLE
  2
VIEW
  5
6
330
0
100
AcDbSymbolTable
 70
     0
  0
ENDTAB
  0
TABLE
  2
UCS
  5
7
330
0
100
AcDbSymbolTable
 70
     0
  0
ENDTAB
  0
TABLE
  2
APPID
  5
9
330
0
100
AcDbSymbolTable
 70
     4
  0
APPID
  5
56
330
9
100
AcDbSymbolTableRecord
100
AcDbRegAppTableRecord
  2
ACAD
 70
     0
  0
APPID
  5
5E
330
9
100
AcDbSymbolTableRecord
100
AcDbRegAppTableRecord
  2
AcadAnnotative
 70
     0
  0
APPID
  5
1A8
330
9
100
AcDbSymbolTableRecord
100
AcDbRegAppTableRecord
  2
ACAD_EXEMPT_FROM_CAD_STANDARDS
 70
     0
  0
APPID
  5
1B4
330
9
100
AcDbSymbolTableRecord
100
AcDbRegAppTableRecord
  2
ACAD_NAV_VCDISPLAY
 70
     0
  0
ENDTAB
  0
TABLE
  2
DIMSTYLE
  5
A
330
0
100
AcDbSymbolTable
 70
     3
100
AcDbDimStyleTable
 71
     1
340
58
  0
DIMSTYLE
105
58
330
A
100
AcDbSymbolTableRecord
100
AcDbDimStyleTableRecord
  2
Standard
 70
     0
340
55
  0
DIMSTYLE
105
59
330
A
100
AcDbSymbolTableRecord
100
AcDbDimStyleTableRecord
  2
Annotative
 70
     0
340
55
1001
AcadAnnotative
1000
AnnotativeData
1002
{
1070
     1
1070
     1
1002
}
  0
ENDTAB
  0
TABLE
  2
BLOCK_RECORD
  5
1
330
0
100
AcDbSymbolTable
 70
    17
  0
BLOCK_RECORD
  5
70
102
{ACAD_XDICTIONARY
360
18F
102
}
330
1
100
AcDbSymbolTableRecord
100
AcDbBlockTableRecord
  2
*Model_Space
340
73
 70
     0
280
     1
281
     0
  0
BLOCK_RECORD
  5
6C
330
1
100
AcDbSymbolTableRecord
100
AcDbBlockTableRecord
  2
*Paper_Space
340
6F
 70
     0
280
     1
281
     0
  0
BLOCK_RECORD
  5
74
330
1
100
AcDbSymbolTableRecord
100
AcDbBlockTableRecord
  2
*Paper_Space0
340
77
 70
     0
280
     1
281
     0
  0
BLOCK_RECORD
  5
86
330
1
100
AcDbSymbolTableRecord
100
AcDbBlockTableRecord
  2
Block_0
340
0
 70
     0
280
     1
281
     0
  0
BLOCK_RECORD
  5
8A
330
1
100
AcDbSymbolTableRecord
100
AcDbBlockTableRecord
  2
Block_1
340
0
102
{BLKREFS
331
8B
102
}
 70
     0
280
     1
281
     0
  0
BLOCK_RECORD
  5
9B
330
1
100
AcDbSymbolTableRecord
100
AcDbBlockTableRecord
  2
Block_2
340
0
 70
     0
280
     1
281
     0
  0
BLOCK_RECORD
  5
A2
330
1
100
AcDbSymbolTableRecord
100
AcDbBlockTableRecord
  2
Block_3
340
0
 70
     0
280
     1
281
     0
  0
BLOCK_RECORD
  5
A9
330
1
100
AcDbSymbolTableRecord
100
AcDbBlockTableRecord
  2
Block_4
340
0
 70
     0
280
     1
281
     0
  0
BLOCK_RECORD
  5
AD
330
1
100
AcDbSymbolTableRecord
100
AcDbBlockTableRecord
  2
Block_5
340
0
102
{BLKREFS
331
AE
102
}
 70
     0
280
     1
281
     0
  0
BLOCK_RECORD
  5
B1
330
1
100
AcDbSymbolTableRecord
100
AcDbBlockTableRecord
  2
Block_6
340
0
102
{BLKREFS
331
B2
102
}
 70
     0
280
     1
281
     0
  0
BLOCK_RECORD
  5
BA
330
1
100
AcDbSymbolTableRecord
100
AcDbBlockTableRecord
  2
Block_7
340
0
102
{BLKREFS
331
BB
102
}
 70
     0
280
     1
281
     0
  0
BLOCK_RECORD
  5
C1
330
1
100
AcDbSymbolTableRecord
100
AcDbBlockTableRecord
  2
Block_8
340
0
102
{BLKREFS
331
C2
102
}
 70
     0
280
     1
281
     0
  0
BLOCK_RECORD
  5
C8
330
1
100
AcDbSymbolTableRecord
100
AcDbBlockTableRecord
  2
Block_9
340
0
 70
     0
280
     1
281
     0
  0
BLOCK_RECORD
  5
CC
330
1
100
AcDbSymbolTableRecord
100
AcDbBlockTableRecord
  2
Block_10
340
0
102
{BLKREFS
331
CD
102
}
 70
     0
280
     1
281
     0
  0
BLOCK_RECORD
  5
D6
330
1
100
AcDbSymbolTableRecord
100
AcDbBlockTableRecord
  2
Block_11
340
0
 70
     0
280
     1
281
     0
  0
BLOCK_RECORD
  5
DD
330
1
100
AcDbSymbolTableRecord
100
AcDbBlockTableRecord
  2
Block_12
340
0
 70
     0
280
     1
281
     0
  0
ENDTAB
  0
ENDSEC
  0
SECTION
  2
BLOCKS
  0
BLOCK
  5
71
330
70
100
AcDbEntity
  8
0
100
AcDbBlockBegin
  2
*Model_Space
 70
     0
 10
0.0
 20
0.0
 30
0.0
  3
*Model_Space
  1

  0
ENDBLK
  5
72
330
70
100
AcDbEntity
  8
0
100
AcDbBlockEnd
  0
BLOCK
  5
6D
330
6C
100
AcDbEntity
 67
     1
  8
0
100
AcDbBlockBegin
  2
*Paper_Space
 70
     0
 10
0.0
 20
0.0
 30
0.0
  3
*Paper_Space
  1

  0
ENDBLK
  5
6E
330
6C
100
AcDbEntity
 67
     1
  8
0
100
AcDbBlockEnd
  0
BLOCK
  5
75
330
74
100
AcDbEntity
 67
     1
  8
0
100
AcDbBlockBegin
  2
*Paper_Space0
 70
     0
 10
0.0
 20
0.0
 30
0.0
  3
*Paper_Space0
  1

  0
ENDBLK
  5
76
330
74
100
AcDbEntity
 67
     1
  8
0
100
AcDbBlockEnd
  0
BLOCK
  5
88
330
86
100
AcDbEntity
  8
0
100
AcDbBlockBegin
  2
Block_0
 70
     0
 10
0.0
 20
0.0
 30
0.0
  3
Block_0
  1

  0
INSERT
  5
8B
330
86
100
AcDbEntity
  8
Livello 1
100
AcDbBlockReference
  2
Block_1
 10
0.0
 20
0.0
 30
0.0
  0
ENDBLK
  5
89
330
86
100
AcDbEntity
  8
0
100
AcDbBlockEnd
  0
BLOCK
  5
8C
330
8A
100
AcDbEntity
  8
0
100
AcDbBlockBegin
  2
Block_1
 70
     0
 10
0.0
 20
0.0
 30
0.0
  3
Block_1
  1

  0
SPLINE
  5
8E
330
8A
100
AcDbEntity
  8
Livello 1
100
AcDbSpline
210
0.0
220
0.0
230
1.0
 70
     9
 71
     3
 72
    17
 73
    13
 74
     0
 42
0.000000001
 43
0.0000000001
 40
0.0
 40
0.0
 40
0.0
 40
0.0
 40
1.0
 40
1.0
 40
1.0
 40
2.0
 40
2.0
 40
2.0
 40
3.0
 40
3.0
 40
3.0
 40
4.0
 40
4.0
 40
4.0
 40
4.0
 10
10.10809963397471
 20
-17.34267957465738
 30
0.0
 10
10.11488647208065
 20
-17.3511545095511
 30
0.0
 10
10.12530788592353
 20
-17.35697672092117
 30
0.0
 10
10.13886433665799
 20
-17.35697672092117
 30
0.0
 10
10.16818209923747
 20
-17.35697672092117
 30
0.0
 10
10.18272040218522
 20
-17.33031168186533
 30
0.0
 10
10.18272040218522
 20
-17.30368109376436
 30
0.0
 10
10.18272040218522
 20
-17.29203667102421
 30
0.0
 10
10.18005045318415
 20
-17.28066785592288
 30
0.0
 10
10.17422824181408
 20
-17.2712282942933
 30
0.0
 10
10.17422824181408
 20
-17.2712282942933
 30
0.0
 10
10.10809963397471
 20
-17.34267957465738
 30
0.0
 10
10.10809963397471
 20
-17.34267957465738
 30
0.0
  0
SPLINE
  5
8F
330
8A
100
AcDbEntity
  8
Livello 1
100
AcDbSpline
210
0.0
220
0.0
230
1.0
 70
     9
 71
     3
 72
    17
 73
    13
 74
     0
 42
0.000000001
 43
0.0000000001
 40
0.0
 40
0.0
 40
0.0
 40
0.0
 40
1.0
 40
1.0
 40
1.0
 40
2.0
 40
2.0
 40
2.0
 40
3.0
 40
3.0
 40
3.0
 40
4.0
 40
4.0
 40
4.0
 40
4.0
 10
10.16987019602524
 20
-17.26492376955529
 30
0.0
 10
10.16285942671276
 20
-17.25620767797761
 30
0.0
 10
10.15243801286987
 20
-17.25038546660754
 30
0.0
 10
10.13886433665799
 20
-17.25038546660754
 30
0.0
 10
10.10956379955594
 20
-17.25038546660754
 30
0.0
 10
10.09502549660818
 20
-17.27701605470852
 30
0.0
 10
10.09502549660818
 20
-17.30368109376436
 30
0.0
 10
10.09502549660818
 20
-17.31529106554965
 30
0.0
 10
10.09769544560925
 20
-17.32669433160582
 30
0.0
 10
10.10374158818587
 20
-17.33637504991937
 30
0.0
 10
10.10374158818587
 20
-17.33637504991937
 30
0.0
 10
10.16987019602524
 20
-17.26492376955529
 30
0.0
 10
10.16987019602524
 20
-17.26492376955529
 30
0.0
  0
SPLINE
  5
90
330
8A
100
AcDbEntity
  8
Livello 1
100
AcDbSpline
210
0.0
220
0.0
230
1.0
 70
    11
 71
     3
 72
    41
 73
    37
 74
     0
 42
0.000000001
 43
0.0000000001
 40
0.0
 40
0.0
 40
0.0
 40
0.0
 40
1.0
 40
1.0
 40
1.0
 40
2.0
 40
2.0
 40
2.0
 40
3.0
 40
3.0
 40
3.0
 40
4.0
 40
4.0
 40
4.0
 40
5.0
 40
5.0
 40
5.0
 40
6.0
 40
6.0
 40
6.0
 40
7.0
 40
7.0
 40
7.0
 40
8.0
 40
8.0
 40
8.0
 40
9.0
 40
9.0
 40
9.0
 40
10.0
 40
10.0
 40
10.0
 40
11.0
 40
11.0
 40
11.0
 40
12.0
 40
12.0
 40
12.0
 40
12.0
 10
10.19798217518488
 20
-17.24528672528937
 30
0.0
 10
10.19798217518488
 20
-17.24528672528937
 30
0.0
 10
10.18489081234093
 20
-17.25958387155316
 30
0.0
 10
10.18489081234093
 20
-17.25958387155316
 30
0.0
 10
10.19362412939603
 20
-17.27171060766124
 30
0.0
 10
10.19798217518488
 20
-17.28721353734486
 30
0.0
 10
10.19798217518488
 20
-17.30368109376436
 30
0.0
 10
10.19798217518488
 20
-17.33951008681095
 30
0.0
 10
10.17713934749912
 20
-17.3697924761263
 30
0.0
 10
10.13886433665799
 20
-17.3697924761263
 30
0.0
 10
10.12167331018659
 20
-17.3697924761263
 30
0.0
 10
10.10785847729074
 20
-17.36372910807226
 30
0.0
 10
10.09817775897719
 20
-17.3533249197068
 30
0.0
 10
10.09817775897719
 20
-17.3533249197068
 30
0.0
 10
10.0838806127134
 20
-17.36882784939043
 30
0.0
 10
10.0838806127134
 20
-17.36882784939043
 30
0.0
 10
10.0838806127134
 20
-17.36882784939043
 30
0.0
 10
10.07855794018869
 20
-17.36397026475623
 30
0.0
 10
10.07855794018869
 20
-17.36397026475623
 30
0.0
 10
10.07855794018869
 20
-17.36397026475623
 30
0.0
 10
10.09333739982041
 20
-17.3477438650207
 30
0.0
 10
10.09333739982041
 20
-17.3477438650207
 30
0.0
 10
10.08436292608134
 20
-17.33613389323541
 30
0.0
 10
10.07976372360853
 20
-17.32038980686782
 30
0.0
 10
10.07976372360853
 20
-17.30368109376436
 30
0.0
 10
10.07976372360853
 20
-17.2678176497629
 30
0.0
 10
10.10060655129429
 20
-17.23753526044756
 30
0.0
 10
10.13886433665799
 20
-17.23753526044756
 30
0.0
 10
10.15631374529078
 20
-17.23753526044756
 30
0.0
 10
10.1703697348706
 20
-17.24383978518557
 30
0.0
 10
10.18005045318415
 20
-17.25400281686705
 30
0.0
 10
10.18005045318415
 20
-17.25400281686705
 30
0.0
 10
10.19264227718274
 20
-17.24046359161002
 30
0.0
 10
10.19264227718274
 20
-17.24046359161002
 30
0.0
 10
10.19264227718274
 20
-17.24046359161002
 30
0.0
 10
10.19798217518488
 20
-17.24528672528937
 30
0.0
 10
10.19798217518488
 20
-17.24528672528937
 30
0.0
  0
HATCH
  5
91
330
8A
100
AcDbEntity
  8
Livello 1
 62
    18
420
        0
440
 33554687
100
AcDbHatch
 10
0.0
 20
0.0
 30
0.0
210
0.0
220
0.0
230
1.0
  2
SOLID
 70
     1
 71
     1
 91
        3
 92
        1
 93
        1
 72
     4
 94
        3
 73
     0
 74
     0
 95
       17
 96
       13
 40
0.0
 40
0.0
 40
0.0
 40
0.0
 40
1.0
 40
1.0
 40
1.0
 40
2.0
 40
2.0
 40
2.0
 40
3.0
 40
3.0
 40
3.0
 40
4.0
 40
4.0
 40
4.0
 40
4.0
 10
10.10809963397471
 20
-17.34267957465738
 10
10.11488647208065
 20
-17.3511545095511
 10
10.12530788592353
 20
-17.35697672092117
 10
10.13886433665799
 20
-17.35697672092117
 10
10.16818209923747
 20
-17.35697672092117
 10
10.18272040218522
 20
-17.33031168186533
 10
10.18272040218522
 20
-17.30368109376436
 10
10.18272040218522
 20
-17.29203667102421
 10
10.18005045318415
 20
-17.28066785592288
 10
10.17422824181408
 20
-17.2712282942933
 10
10.17422824181408
 20
-17.2712282942933
 10
10.10809963397471
 20
-17.34267957465738
 10
10.10809963397471
 20
-17.34267957465738
 97
        0
 97
        1
330
8E
 92
        1
 93
        1
 72
     4
 94
        3
 73
     0
 74
     0
 95
       17
 96
       13
 40
0.0
 40
0.0
 40
0.0
 40
0.0
 40
1.0
 40
1.0
 40
1.0
 40
2.0
 40
2.0
 40
2.0
 40
3.0
 40
3.0
 40
3.0
 40
4.0
 40
4.0
 40
4.0
 40
4.0
 10
10.16987019602524
 20
-17.26492376955529
 10
10.16285942671276
 20
-17.25620767797761
 10
10.15243801286987
 20
-17.25038546660754
 10
10.13886433665799
 20
-17.25038546660754
 10
10.10956379955594
 20
-17.25038546660754
 10
10.09502549660818
 20
-17.27701605470852
 10
10.09502549660818
 20
-17.30368109376436
 10
10.09502549660818
 20
-17.31529106554965
 10
10.09769544560925
 20
-17.32669433160582
 10
10.10374158818587
 20
-17.33637504991937
 10
10.10374158818587
 20
-17.33637504991937
 10
10.16987019602524
 20
-17.26492376955529
 10
10.16987019602524
 20
-17.26492376955529
 97
        0
 97
        1
330
8F
 92
        1
 93
        1
 72
     4
 94
        3
 73
     0
 74
     0
 95
       41
 96
       37
 40
0.0
 40
0.0
 40
0.0
 40
0.0
 40
1.0
 40
1.0
 40
1.0
 40
2.0
 40
2.0
 40
2.0
 40
3.0
 40
3.0
 40
3.0
 40
4.0
 40
4.0
 40
4.0
 40
5.0
 40
5.0
 40
5.0
 40
6.0
 40
6.0
 40
6.0
 40
7.0
 40
7.0
 40
7.0
 40
8.0
 40
8.0
 40
8.0
 40
9.0
 40
9.0
 40
9.0
 40
10.0
 40
10.0
 40
10.0
 40
11.0
 40
11.0
 40
11.0
 40
12.0
 40
12.0
 40
12.0
 40
12.0
 10
10.19798217518488
 20
-17.24528672528937
 10
10.19798217518488
 20
-17.24528672528937
 10
10.18489081234093
 20
-17.25958387155316
 10
10.18489081234093
 20
-17.25958387155316
 10
10.19362412939603
 20
-17.27171060766124
 10
10.19798217518488
 20
-17.28721353734486
 10
10.19798217518488
 20
-17.30368109376436
 10
10.19798217518488
 20
-17.33951008681095
 10
10.17713934749912
 20
-17.3697924761263
 10
10.13886433665799
 20
-17.3697924761263
 10
10.12167331018659
 20
-17.3697924761263
 10
10.10785847729074
 20
-17.36372910807226
 10
10.09817775897719
 20
-17.3533249197068
 10
10.09817775897719
 20
-17.3533249197068
 10
10.0838806127134
 20
-17.36882784939043
 10
10.0838806127134
 20
-17.36882784939043
 10
10.0838806127134
 20
-17.36882784939043
 10
10.07855794018869
 20
-17.36397026475623
 10
10.07855794018869
 20
-17.36397026475623
 10
10.07855794018869
 20
-17.36397026475623
 10
10.09333739982041
 20
-17.3477438650207
 10
10.09333739982041
 20
-17.3477438650207
 10
10.08436292608134
 20
-17.33613389323541
 10
10.07976372360853
 20
-17.32038980686782
 10
10.07976372360853
 20
-17.30368109376436
 10
10.07976372360853
 20
-17.2678176497629
 10
10.10060655129429
 20
-17.23753526044756
 10
10.13886433665799
 20
-17.23753526044756
 10
10.15631374529078
 20
-17.23753526044756
 10
10.1703697348706
 20
-17.24383978518557
 10
10.18005045318415
 20
-17.25400281686705
 10
10.18005045318415
 20
-17.25400281686705
 10
10.19264227718274
 20
-17.24046359161002
 10
10.19264227718274
 20
-17.24046359161002
 10
10.19264227718274
 20
-17.24046359161002
 10
10.19798217518488
 20
-17.24528672528937
 10
10.19798217518488
 20
-17.24528672528937
 97
        0
 97
        1
330
90
 75
     2
 76
     1
 98
        1
 10
0.0
 20
0.0
450
        0
451
        0
460
0.0
461
0.0
452
        0
462
0.0
453
        0
470

  0
SPLINE
  5
92
330
8A
100
AcDbEntity
  8
Livello 1
100
AcDbSpline
210
0.0
220
0.0
230
1.0
 70
     9
 71
     3
 72
    17
 73
    13
 74
     0
 42
0.000000001
 43
0.0000000001
 40
0.0
 40
0.0
 40
0.0
 40
0.0
 40
1.0
 40
1.0
 40
1.0
 40
2.0
 40
2.0
 40
2.0
 40
3.0
 40
3.0
 40
3.0
 40
4.0
 40
4.0
 40
4.0
 40
4.0
 10
10.37993489323835
 20
-17.25159125002738
 30
0.0
 10
10.37993489323835
 20
-17.22761338545004
 30
0.0
 10
10.36708468707836
 20
-17.20797634118411
 30
0.0
 10
10.33754299329235
 20
-17.20797634118411
 30
0.0
 10
10.31330674655362
 20
-17.20797634118411
 30
0.0
 10
10.29683919013412
 20
-17.22809569881797
 30
0.0
 10
10.29683919013412
 20
-17.25159125002738
 30
0.0
 10
10.29683919013412
 20
-17.27629258465662
 30
0.0
 10
10.31185980644981
 20
-17.29641194229048
 30
0.0
 10
10.33778414997631
 20
-17.29641194229048
 30
0.0
 10
10.36443196355472
 20
-17.29641194229048
 30
0.0
 10
10.37993489323835
 20
-17.27653374134058
 30
0.0
 10
10.37993489323835
 20
-17.25159125002738
 30
0.0
  0
SPLINE
  5
93
330
8A
100
AcDbEntity
  8
Livello 1
100
AcDbSpline
210
0.0
220
0.0
230
1.0
 70
     9
 71
     3
 72
    35
 73
    31
 74
     0
 42
0.000000001
 43
0.0000000001
 40
0.0
 40
0.0
 40
0.0
 40
0.0
 40
1.0
 40
1.0
 40
1.0
 40
2.0
 40
2.0
 40
2.0
 40
3.0
 40
3.0
 40
3.0
 40
4.0
 40
4.0
 40
4.0
 40
5.0
 40
5.0
 40
5.0
 40
6.0
 40
6.0
 40
6.0
 40
7.0
 40
7.0
 40
7.0
 40
8.0
 40
8.0
 40
8.0
 40
9.0
 40
9.0
 40
9.0
 40
10.0
 40
10.0
 40
10.0
 40
10.0
 10
10.30095607923899
 20
-17.32548854818598
 30
0.0
 10
10.30362602824006
 20
-17.34412651476119
 30
0.0
 10
10.31670016560659
 20
-17.35697672092117
 30
0.0
 10
10.33631998439508
 20
-17.35697672092117
 30
0.0
 10
10.37580077865605
 20
-17.35697672092117
 30
0.0
 10
10.38306993012992
 20
-17.3119148719741
 30
0.0
 10
10.38306993012992
 20
-17.28115016929082
 30
0.0
 10
10.38306993012992
 20
-17.28115016929082
 30
0.0
 10
10.38258761676199
 20
-17.28115016929082
 30
0.0
 10
10.38258761676199
 20
-17.28115016929082
 30
0.0
 10
10.37459499523621
 20
-17.29785888239428
 30
0.0
 10
10.35668049871291
 20
-17.30922769749561
 30
0.0
 10
10.33754299329235
 20
-17.30922769749561
 30
0.0
 10
10.30362602824006
 20
-17.30922769749561
 30
0.0
 10
10.28157741713446
 20
-17.2857321462862
 30
0.0
 10
10.28157741713446
 20
-17.25255587676325
 30
0.0
 10
10.28157741713446
 20
-17.21962076392426
 30
0.0
 10
10.3055552817118
 20
-17.19516058597898
 30
0.0
 10
10.33898993339615
 20
-17.19516058597898
 30
0.0
 10
10.38017604992231
 20
-17.19516058597898
 30
0.0
 10
10.39833170312958
 20
-17.21913845055632
 30
0.0
 10
10.39833170312958
 20
-17.28524983291826
 30
0.0
 10
10.39833170312958
 20
-17.30536919055213
 30
0.0
 10
10.39325018728884
 20
-17.3697924761263
 30
0.0
 10
10.33778414997631
 20
-17.3697924761263
 30
0.0
 10
10.3079840740289
 20
-17.3697924761263
 30
0.0
 10
10.28932888197628
 20
-17.35501301649458
 30
0.0
 10
10.28569430623934
 20
-17.32548854818598
 30
0.0
 10
10.28569430623934
 20
-17.32548854818598
 30
0.0
 10
10.30095607923899
 20
-17.32548854818598
 30
0.0
 10
10.30095607923899
 20
-17.32548854818598
 30
0.0
  0
HATCH
  5
94
330
8A
100
AcDbEntity
  8
Livello 1
 62
    18
420
        0
440
 33554687
100
AcDbHatch
 10
0.0
 20
0.0
 30
0.0
210
0.0
220
0.0
230
1.0
  2
SOLID
 70
     1
 71
     1
 91
        2
 92
        1
 93
        1
 72
     4
 94
        3
 73
     0
 74
     0
 95
       17
 96
       13
 40
0.0
 40
0.0
 40
0.0
 40
0.0
 40
1.0
 40
1.0
 40
1.0
 40
2.0
 40
2.0
 40
2.0
 40
3.0
 40
3.0
 40
3.0
 40
4.0
 40
4.0
 40
4.0
 40
4.0
 10
10.37993489323835
 20
-17.25159125002738
 10
10.37993489323835
 20
-17.22761338545004
 10
10.36708468707836
 20
-17.20797634118411
 10
10.33754299329235
 20
-17.20797634118411
 10
10.31330674655362
 20
-17.20797634118411
 10
10.29683919013412
 20
-17.22809569881797
 10
10.29683919013412
 20
-17.25159125002738
 10
10.29683919013412
 20
-17.27629258465662
 10
10.31185980644981
 20
-17.29641194229048
 10
10.33778414997631
 20
-17.29641194229048
 10
10.36443196355472
 20
-17.29641194229048
 10
10.37993489323835
 20
-17.27653374134058
 10
10.37993489323835
 20
-17.25159125002738
 97
        0
 97
        1
330
92
 92
        1
 93
        1
 72
     4
 94
        3
 73
     0
 74
     0
 95
       35
 96
       31
 40
0.0
 40
0.0
 40
0.0
 40
0.0
 40
1.0
 40
1.0
 40
1.0
 40
2.0
 40
2.0
 40
2.0
 40
3.0
 40
3.0
 40
3.0
 40
4.0
 40
4.0
 40
4.0
 40
5.0
 40
5.0
 40
5.0
 40
6.0
 40
6.0
 40
6.0
 40
7.0
 40
7.0
 40
7.0
 40
8.0
 40
8.0
 40
8.0
 40
9.0
 40
9.0
 40
9.0
 40
10.0
 40
10.0
 40
10.0
 40
10.0
 10
10.30095607923899
 20
-17.32548854818598
 10
10.30362602824006
 20
-17.34412651476119
 10
10.31670016560659
 20
-17.35697672092117
 10
10.33631998439508
 20
-17.35697672092117
 10
10.37580077865605
 20
-17.35697672092117
 10
10.38306993012992
 20
-17.3119148719741
 10
10.38306993012992
 20
-17.28115016929082
 10
10.38306993012992
 20
-17.28115016929082
 10
10.38258761676199
 20
-17.28115016929082
 10
10.38258761676199
 20
-17.28115016929082
 10
10.37459499523621
 20
-17.29785888239428
 10
10.35668049871291
 20
-17.30922769749561
 10
10.33754299329235
 20
-17.30922769749561
 10
10.30362602824006
 20
-17.30922769749561
 10
10.28157741713446
 20
-17.2857321462862
 10
10.28157741713446
 20
-17.25255587676325
 10
10.28157741713446
 20
-17.21962076392426
 10
10.3055552817118
 20
-17.19516058597898
 10
10.33898993339615
 20
-17.19516058597898
 10
10.38017604992231
 20
-17.19516058597898
 10
10.39833170312958
 20
-17.21913845055632
 10
10.39833170312958
 20
-17.28524983291826
 10
10.39833170312958
 20
-17.30536919055213
 10
10.39325018728884
 20
-17.3697924761263
 10
10.33778414997631
 20
-17.3697924761263
 10
10.3079840740289
 20
-17.3697924761263
 10
10.28932888197628
 20
-17.35501301649458
 10
10.28569430623934
 20
-17.32548854818598
 10
10.28569430623934
 20
-17.32548854818598
 10
10.30095607923899
 20
-17.32548854818598
 10
10.30095607923899
 20
-17.32548854818598
 97
        0
 97
        1
330
93
 75
     2
 76
     1
 98
        1
 10
0.0
 20
0.0
450
        0
451
        0
460
0.0
461
0.0
452
        0
462
0.0
453
        0
470

  0
SPLINE
  5
95
330
8A
100
AcDbEntity
  8
Livello 1
100
AcDbSpline
210
0.0
220
0.0
230
1.0
 70
     9
 71
     3
 72
    17
 73
    13
 74
     0
 42
0.000000001
 43
0.0000000001
 40
0.0
 40
0.0
 40
0.0
 40
0.0
 40
1.0
 40
1.0
 40
1.0
 40
2.0
 40
2.0
 40
2.0
 40
3.0
 40
3.0
 40
3.0
 40
4.0
 40
4.0
 40
4.0
 40
4.0
 10
10.43138739431055
 20
-17.28235595271066
 30
0.0
 10
10.43138739431055
 20
-17.3119148719741
 30
0.0
 10
10.43646891015129
 20
-17.35697672092117
 30
0.0
 10
10.47522623436036
 20
-17.35697672092117
 30
0.0
 10
10.51398355856942
 20
-17.35697672092117
 30
0.0
 10
10.51908229988759
 20
-17.3119148719741
 30
0.0
 10
10.51908229988759
 20
-17.28235595271066
 30
0.0
 10
10.51908229988759
 20
-17.25303819013118
 30
0.0
 10
10.51398355856942
 20
-17.20797634118411
 30
0.0
 10
10.47522623436036
 20
-17.20797634118411
 30
0.0
 10
10.43646891015129
 20
-17.20797634118411
 30
0.0
 10
10.43138739431055
 20
-17.25303819013118
 30
0.0
 10
10.43138739431055
 20
-17.28235595271066
 30
0.0
  0
SPLINE
  5
96
330
8A
100
AcDbEntity
  8
Livello 1
100
AcDbSpline
210
0.0
220
0.0
230
1.0
 70
     9
 71
     3
 72
    17
 73
    13
 74
     0
 42
0.000000001
 43
0.0000000001
 40
0.0
 40
0.0
 40
0.0
 40
0.0
 40
1.0
 40
1.0
 40
1.0
 40
2.0
 40
2.0
 40
2.0
 40
3.0
 40
3.0
 40
3.0
 40
4.0
 40
4.0
 40
4.0
 40
4.0
 10
10.53434407288724
 20
-17.28235595271066
 30
0.0
 10
10.53434407288724
 20
-17.32207790365559
 30
0.0
 10
10.52464612909627
 20
-17.3697924761263
 30
0.0
 10
10.47522623436036
 20
-17.3697924761263
 30
0.0
 10
10.42582356510187
 20
-17.3697924761263
 30
0.0
 10
10.4161256213109
 20
-17.32207790365559
 30
0.0
 10
10.4161256213109
 20
-17.28259710939462
 30
0.0
 10
10.4161256213109
 20
-17.24287515844969
 30
0.0
 10
10.42582356510187
 20
-17.19516058597898
 30
0.0
 10
10.47522623436036
 20
-17.19516058597898
 30
0.0
 10
10.52464612909627
 20
-17.19516058597898
 30
0.0
 10
10.53434407288724
 20
-17.24287515844969
 30
0.0
 10
10.53434407288724
 20
-17.28235595271066
 30
0.0
  0
HATCH
  5
97
330
8A
100
AcDbEntity
  8
Livello 1
 62
    18
420
        0
440
 33554687
100
AcDbHatch
 10
0.0
 20
0.0
 30
0.0
210
0.0
220
0.0
230
1.0
  2
SOLID
 70
     1
 71
     1
 91
        2
 92
        1
 93
        1
 72
     4
 94
        3
 73
     0
 74
     0
 95
       17
 96
       13
 40
0.0
 40
0.0
 40
0.0
 40
0.0
 40
1.0
 40
1.0
 40
1.0
 40
2.0
 40
2.0
 40
2.0
 40
3.0
 40
3.0
 40
3.0
 40
4.0
 40
4.0
 40
4.0
 40
4.0
 10
10.43138739431055
 20
-17.28235595271066
 10
10.43138739431055
 20
-17.3119148719741
 10
10.43646891015129
 20
-17.35697672092117
 10
10.47522623436036
 20
-17.35697672092117
 10
10.51398355856942
 20
-17.35697672092117
 10
10.51908229988759
 20
-17.3119148719741
 10
10.51908229988759
 20
-17.28235595271066
 10
10.51908229988759
 20
-17.25303819013118
 10
10.51398355856942
 20
-17.20797634118411
 10
10.47522623436036
 20
-17.20797634118411
 10
10.43646891015129
 20
-17.20797634118411
 10
10.43138739431055
 20
-17.25303819013118
 10
10.43138739431055
 20
-17.28235595271066
 97
        0
 97
        1
330
95
 92
        1
 93
        1
 72
     4
 94
        3
 73
     0
 74
     0
 95
       17
 96
       13
 40
0.0
 40
0.0
 40
0.0
 40
0.0
 40
1.0
 40
1.0
 40
1.0
 40
2.0
 40
2.0
 40
2.0
 40
3.0
 40
3.0
 40
3.0
 40
4.0
 40
4.0
 40
4.0
 40
4.0
 10
10.53434407288724
 20
-17.28235595271066
 10
10.53434407288724
 20
-17.32207790365559
 10
10.52464612909627
 20
-17.3697924761263
 10
10.47522623436036
 20
-17.3697924761263
 10
10.42582356510187
 20
-17.3697924761263
 10
10.4161256213109
 20
-17.32207790365559
 10
10.4161256213109
 20
-17.28259710939462
 10
10.4161256213109
 20
-17.24287515844969
 10
10.42582356510187
 20
-17.19516058597898
 10
10.47522623436036
 20
-17.19516058597898
 10
10.52464612909627
 20
-17.19516058597898
 10
10.53434407288724
 20
-17.24287515844969
 10
10.53434407288724
 20
-17.28235595271066
 97
        0
 97
        1
330
96
 75
     2
 76
     1
 98
        1
 10
0.0
 20
0.0
450
        0
451
        0
460
0.0
461
0.0
452
        0
462
0.0
453
        0
470

  0
SPLINE
  5
98
330
8A
100
AcDbEntity
  8
Livello 1
100
AcDbSpline
210
0.0
220
0.0
230
1.0
 70
     9
 71
     3
 72
    17
 73
    13
 74
     0
 42
0.000000001
 43
0.0000000001
 40
0.0
 40
0.0
 40
0.0
 40
0.0
 40
1.0
 40
1.0
 40
1.0
 40
2.0
 40
2.0
 40
2.0
 40
3.0
 40
3.0
 40
3.0
 40
4.0
 40
4.0
 40
4.0
 40
4.0
 10
10.56590114753213
 20
-17.28235595271066
 30
0.0
 10
10.56590114753213
 20
-17.3119148719741
 30
0.0
 10
10.5709998888503
 20
-17.35697672092117
 30
0.0
 10
10.60975721305936
 20
-17.35697672092117
 30
0.0
 10
10.64851453726842
 20
-17.35697672092117
 30
0.0
 10
10.65361327858659
 20
-17.3119148719741
 30
0.0
 10
10.65361327858659
 20
-17.28235595271066
 30
0.0
 10
10.65361327858659
 20
-17.25303819013118
 30
0.0
 10
10.64851453726842
 20
-17.20797634118411
 30
0.0
 10
10.60975721305936
 20
-17.20797634118411
 30
0.0
 10
10.5709998888503
 20
-17.20797634118411
 30
0.0
 10
10.56590114753213
 20
-17.25303819013118
 30
0.0
 10
10.56590114753213
 20
-17.28235595271066
 30
0.0
  0
SPLINE
  5
99
330
8A
100
AcDbEntity
  8
Livello 1
100
AcDbSpline
210
0.0
220
0.0
230
1.0
 70
     9
 71
     3
 72
    17
 73
    13
 74
     0
 42
0.000000001
 43
0.0000000001
 40
0.0
 40
0.0
 40
0.0
 40
0.0
 40
1.0
 40
1.0
 40
1.0
 40
2.0
 40
2.0
 40
2.0
 40
3.0
 40
3.0
 40
3.0
 40
4.0
 40
4.0
 40
4.0
 40
4.0
 10
10.66887505158625
 20
-17.28235595271066
 30
0.0
 10
10.66887505158625
 20
-17.32207790365559
 30
0.0
 10
10.65915988231785
 20
-17.3697924761263
 30
0.0
 10
10.60975721305936
 20
-17.3697924761263
 30
0.0
 10
10.56035454380088
 20
-17.3697924761263
 30
0.0
 10
10.55063937453248
 20
-17.32207790365559
 30
0.0
 10
10.55063937453248
 20
-17.28259710939462
 30
0.0
 10
10.55063937453248
 20
-17.24287515844969
 30
0.0
 10
10.56035454380088
 20
-17.19516058597898
 30
0.0
 10
10.60975721305936
 20
-17.19516058597898
 30
0.0
 10
10.65915988231785
 20
-17.19516058597898
 30
0.0
 10
10.66887505158625
 20
-17.24287515844969
 30
0.0
 10
10.66887505158625
 20
-17.28235595271066
 30
0.0
  0
HATCH
  5
9A
330
8A
100
AcDbEntity
  8
Livello 1
 62
    18
420
        0
440
 33554687
100
AcDbHatch
 10
0.0
 20
0.0
 30
0.0
210
0.0
220
0.0
230
1.0
  2
SOLID
 70
     1
 71
     1
 91
        2
 92
        1
 93
        1
 72
     4
 94
        3
 73
     0
 74
     0
 95
       17
 96
       13
 40
0.0
 40
0.0
 40
0.0
 40
0.0
 40
1.0
 40
1.0
 40
1.0
 40
2.0
 40
2.0
 40
2.0
 40
3.0
 40
3.0
 40
3.0
 40
4.0
 40
4.0
 40
4.0
 40
4.0
 10
10.56590114753213
 20
-17.28235595271066
 10
10.56590114753213
 20
-17.3119148719741
 10
10.5709998888503
 20
-17.35697672092117
 10
10.60975721305936
 20
-17.35697672092117
 10
10.64851453726842
 20
-17.35697672092117
 10
10.65361327858659
 20
-17.3119148719741
 10
10.65361327858659
 20
-17.28235595271066
 10
10.65361327858659
 20
-17.25303819013118
 10
10.64851453726842
 20
-17.20797634118411
 10
10.60975721305936
 20
-17.20797634118411
 10
10.5709998888503
 20
-17.20797634118411
 10
10.56590114753213
 20
-17.25303819013118
 10
10.56590114753213
 20
-17.28235595271066
 97
        0
 97
        1
330
98
 92
        1
 93
        1
 72
     4
 94
        3
 73
     0
 74
     0
 95
       17
 96
       13
 40
0.0
 40
0.0
 40
0.0
 40
0.0
 40
1.0
 40
1.0
 40
1.0
 40
2.0
 40
2.0
 40
2.0
 40
3.0
 40
3.0
 40
3.0
 40
4.0
 40
4.0
 40
4.0
 40
4.0
 10
10.66887505158625
 20
-17.28235595271066
 10
10.66887505158625
 20
-17.32207790365559
 10
10.65915988231785
 20
-17.3697924761263
 10
10.60975721305936
 20
-17.3697924761263
 10
10.56035454380088
 20
-17.3697924761263
 10
10.55063937453248
 20
-17.32207790365559
 10
10.55063937453248
 20
-17.28259710939462
 10
10.55063937453248
 20
-17.24287515844969
 10
10.56035454380088
 20
-17.19516058597898
 10
10.60975721305936
 20
-17.19516058597898
 10
10.65915988231785
 20
-17.19516058597898
 10
10.66887505158625
 20
-17.24287515844969
 10
10.66887505158625
 20
-17.28235595271066
 97
        0
 97
        1
330
99
 75
     2
 76
     1
 98
        1
 10
0.0
 20
0.0
450
        0
451
        0
460
0.0
461
0.0
452
        0
462
0.0
453
        0
470

  0
ENDBLK
  5
8D
330
8A
100
AcDbEntity
  8
0
100
AcDbBlockEnd
  0
BLOCK
  5
9D
330
9B
100
AcDbEntity
  8
0
100
AcDbBlockBegin
  2
Block_2
 70
     0
 10
0.0
 20
0.0
 30
0.0
  3
Block_2
  1

  0
LINE
  5
9F
330
9B
100
AcDbEntity
  8
Livello 1
 62
    18
420
        0
370
     9
100
AcDbLine
 10
10.03428975359772
 20
-17.28484535785044
 30
0.0
 11
4.505707680910786
 21
-17.28484535785044
 31
0.0
  0
LWPOLYLINE
  5
A0
330
9B
100
AcDbEntity
  8
Livello 1
100
AcDbPolyline
 90
        3
 70
     1
 43
0.0
 10
4.248994908227613
 20
-17.28572244092198
 10
4.503891860974816
 20
-17.20074508435915
 10
4.503891860974816
 20
-17.36894563134173
  0
HATCH
  5
A1
330
9B
100
AcDbEntity
  8
Livello 1
 62
    18
420
        0
440
 33554687
100
AcDbHatch
 10
0.0
 20
0.0
 30
0.0
210
0.0
220
0.0
230
1.0
  2
SOLID
 70
     1
 71
     1
 91
        1
 92
        1
 93
        3
 72
     1
 10
4.248994908227613
 20
-17.28572244092198
 11
4.503891860974816
 21
-17.20074508435915
 72
     1
 10
4.503891860974816
 20
-17.20074508435915
 11
4.503891860974816
 21
-17.36894563134173
 72
     1
 10
4.503891860974816
 20
-17.36894563134173
 11
4.248994908227613
 21
-17.28572244092198
 97
        1
330
A0
 75
     0
 76
     1
 98
        1
 10
0.0
 20
0.0
450
        0
451
        0
460
0.0
461
0.0
452
        0
462
0.0
453
        0
470

  0
ENDBLK
  5
9E
330
9B
100
AcDbEntity
  8
0
100
AcDbBlockEnd
  0
BLOCK
  5
A4
330
A2
100
AcDbEntity
  8
0
100
AcDbBlockBegin
  2
Block_3
 70
     0
 10
0.0
 20
0.0
 30
0.0
  3
Block_3
  1

  0
LINE
  5
A6
330
A2
100
AcDbEntity
  8
Livello 1
 62
    18
420
        0
370
     9
100
AcDbLine
 10
10.67836224419012
 20
-17.28484535785044
 30
0.0
 11
16.48467617978331
 21
-17.28484535785044
 31
0.0
  0
LWPOLYLINE
  5
A7
330
A2
100
AcDbEntity
  8
Livello 1
100
AcDbPolyline
 90
        3
 70
     1
 43
0.0
 10
16.74138895246664
 20
-17.2839682747789
 10
16.48649199971941
 20
-17.36894563134173
 10
16.48649199971941
 20
-17.20074508435915
  0
HATCH
  5
A8
330
A2
100
AcDbEntity
  8
Livello 1
 62
    18
420
        0
440
 33554687
100
AcDbHatch
 10
0.0
 20
0.0
 30
0.0
210
0.0
220
0.0
230
1.0
  2
SOLID
 70
     1
 71
     1
 91
        1
 92
        1
 93
        3
 72
     1
 10
16.74138895246664
 20
-17.2839682747789
 11
16.48649199971941
 21
-17.36894563134173
 72
     1
 10
16.48649199971941
 20
-17.36894563134173
 11
16.48649199971941
 21
-17.20074508435915
 72
     1
 10
16.48649199971941
 20
-17.20074508435915
 11
16.74138895246664
 21
-17.2839682747789
 97
        1
330
A7
 75
     0
 76
     1
 98
        1
 10
0.0
 20
0.0
450
        0
451
        0
460
0.0
461
0.0
452
        0
462
0.0
453
        0
470

  0
ENDBLK
  5
A5
330
A2
100
AcDbEntity
  8
0
100
AcDbBlockEnd
  0
BLOCK
  5
AB
330
A9
100
AcDbEntity
  8
0
100
AcDbBlockBegin
  2
Block_4
 70
     0
 10
0.0
 20
0.0
 30
0.0
  3
Block_4
  1

  0
INSERT
  5
AE
330
A9
100
AcDbEntity
  8
Livello 1
100
AcDbBlockReference
  2
Block_5
 10
0.0
 20
0.0
 30
0.0
  0
INSERT
  5
BB
330
A9
100
AcDbEntity
  8
Livello 1
100
AcDbBlockReference
  2
Block_7
 10
0.0
 20
0.0
 30
0.0
  0
INSERT
  5
C2
330
A9
100
AcDbEntity
  8
Livello 1
100
AcDbBlockReference
  2
Block_8
 10
0.0
 20
0.0
 30
0.0
  0
ENDBLK
  5
AC
330
A9
100
AcDbEntity
  8
0
100
AcDbBlockEnd
  0
BLOCK
  5
AF
330
AD
100
AcDbEntity
  8
0
100
AcDbBlockBegin
  2
Block_5
 70
     0
 10
0.0
 20
0.0
 30
0.0
  3
Block_5
  1

  0
INSERT
  5
B2
330
AD
100
AcDbEntity
  8
Livello 1
100
AcDbBlockReference
  2
Block_6
 10
0.0
 20
0.0
 30
0.0
  0
ENDBLK
  5
B0
330
AD
100
AcDbEntity
  8
0
100
AcDbBlockEnd
  0
BLOCK
  5
B3
330
B1
100
AcDbEntity
  8
0
100
AcDbBlockBegin
  2
Block_6
 70
     0
 10
0.0
 20
0.0
 30
0.0
  3
Block_6
  1

  0
SPLINE
  5
B5
330
B1
100
AcDbEntity
  8
Livello 1
100
AcDbSpline
210
0.0
220
0.0
230
1.0
 70
     9
 71
     3
 72
    26
 73
    22
 74
     0
 42
0.000000001
 43
0.0000000001
 40
0.0
 40
0.0
 40
0.0
 40
0.0
 40
1.0
 40
1.0
 40
1.0
 40
2.0
 40
2.0
 40
2.0
 40
3.0
 40
3.0
 40
3.0
 40
4.0
 40
4.0
 40
4.0
 40
5.0
 40
5.0
 40
5.0
 40
6.0
 40
6.0
 40
6.0
 40
7.0
 40
7.0
 40
7.0
 40
7.0
 10
3.423511962034746
 20
-16.21630560575495
 30
0.0
 10
3.450159775613154
 20
-16.21534097901908
 30
0.0
 10
3.466627332032648
 20
-16.21485866565114
 30
0.0
 10
3.471226534505456
 20
-16.18361164959993
 30
0.0
 10
3.471226534505456
 20
-16.18361164959993
 30
0.0
 10
3.483594427297504
 20
-16.18361164959993
 30
0.0
 10
3.483594427297504
 20
-16.18361164959993
 30
0.0
 10
3.483594427297504
 20
-16.18361164959993
 30
0.0
 10
3.483594427297504
 20
-16.35317924938393
 30
0.0
 10
3.483594427297504
 20
-16.35317924938393
 30
0.0
 10
3.483594427297504
 20
-16.35317924938393
 30
0.0
 10
3.468332654297847
 20
-16.35317924938393
 30
0.0
 10
3.468332654297847
 20
-16.35317924938393
 30
0.0
 10
3.468332654297847
 20
-16.35317924938393
 30
0.0
 10
3.468332654297847
 20
-16.22722655844319
 30
0.0
 10
3.468332654297847
 20
-16.22722655844319
 30
0.0
 10
3.468332654297847
 20
-16.22722655844319
 30
0.0
 10
3.423511962034746
 20
-16.22722655844319
 30
0.0
 10
3.423511962034746
 20
-16.22722655844319
 30
0.0
 10
3.423511962034746
 20
-16.22722655844319
 30
0.0
 10
3.423511962034746
 20
-16.21630560575495
 30
0.0
 10
3.423511962034746
 20
-16.21630560575495
 30
0.0
  0
HATCH
  5
B6
330
B1
100
AcDbEntity
  8
Livello 1
 62
    18
420
        0
440
 33554687
100
AcDbHatch
 10
0.0
 20
0.0
 30
0.0
210
0.0
220
0.0
230
1.0
  2
SOLID
 70
     1
 71
     1
 91
        1
 92
        1
 93
        1
 72
     4
 94
        3
 73
     0
 74
     0
 95
       26
 96
       22
 40
0.0
 40
0.0
 40
0.0
 40
0.0
 40
1.0
 40
1.0
 40
1.0
 40
2.0
 40
2.0
 40
2.0
 40
3.0
 40
3.0
 40
3.0
 40
4.0
 40
4.0
 40
4.0
 40
5.0
 40
5.0
 40
5.0
 40
6.0
 40
6.0
 40
6.0
 40
7.0
 40
7.0
 40
7.0
 40
7.0
 10
3.423511962034746
 20
-16.21630560575495
 10
3.450159775613154
 20
-16.21534097901908
 10
3.466627332032648
 20
-16.21485866565114
 10
3.471226534505456
 20
-16.18361164959993
 10
3.471226534505456
 20
-16.18361164959993
 10
3.483594427297504
 20
-16.18361164959993
 10
3.483594427297504
 20
-16.18361164959993
 10
3.483594427297504
 20
-16.18361164959993
 10
3.483594427297504
 20
-16.35317924938393
 10
3.483594427297504
 20
-16.35317924938393
 10
3.483594427297504
 20
-16.35317924938393
 10
3.468332654297847
 20
-16.35317924938393
 10
3.468332654297847
 20
-16.35317924938393
 10
3.468332654297847
 20
-16.35317924938393
 10
3.468332654297847
 20
-16.22722655844319
 10
3.468332654297847
 20
-16.22722655844319
 10
3.468332654297847
 20
-16.22722655844319
 10
3.423511962034746
 20
-16.22722655844319
 10
3.423511962034746
 20
-16.22722655844319
 10
3.423511962034746
 20
-16.22722655844319
 10
3.423511962034746
 20
-16.21630560575495
 10
3.423511962034746
 20
-16.21630560575495
 97
        0
 97
        1
330
B5
 75
     2
 76
     1
 98
        1
 10
0.0
 20
0.0
450
        0
451
        0
460
0.0
461
0.0
452
        0
462
0.0
453
        0
470

  0
SPLINE
  5
B7
330
B1
100
AcDbEntity
  8
Livello 1
100
AcDbSpline
210
0.0
220
0.0
230
1.0
 70
    11
 71
     3
 72
    17
 73
    13
 74
     0
 42
0.000000001
 43
0.0000000001
 40
0.0
 40
0.0
 40
0.0
 40
0.0
 40
1.0
 40
1.0
 40
1.0
 40
2.0
 40
2.0
 40
2.0
 40
3.0
 40
3.0
 40
3.0
 40
4.0
 40
4.0
 40
4.0
 40
4.0
 10
3.620071884945676
 20
-16.29819552543934
 30
0.0
 10
3.620071884945676
 20
-16.29819552543934
 30
0.0
 10
3.620071884945676
 20
-16.20590141738949
 30
0.0
 10
3.620071884945676
 20
-16.20590141738949
 30
0.0
 10
3.620071884945676
 20
-16.20590141738949
 30
0.0
 10
3.619589571577741
 20
-16.20590141738949
 30
0.0
 10
3.619589571577741
 20
-16.20590141738949
 30
0.0
 10
3.619589571577741
 20
-16.20590141738949
 30
0.0
 10
3.555631373894077
 20
-16.29819552543934
 30
0.0
 10
3.555631373894077
 20
-16.29819552543934
 30
0.0
 10
3.555631373894077
 20
-16.29819552543934
 30
0.0
 10
3.620071884945676
 20
-16.29819552543934
 30
0.0
 10
3.620071884945676
 20
-16.29819552543934
 30
0.0
  0
SPLINE
  5
B8
330
B1
100
AcDbEntity
  8
Livello 1
100
AcDbSpline
210
0.0
220
0.0
230
1.0
 70
    11
 71
     3
 72
    38
 73
    34
 74
     0
 42
0.000000001
 43
0.0000000001
 40
0.0
 40
0.0
 40
0.0
 40
0.0
 40
1.0
 40
1.0
 40
1.0
 40
2.0
 40
2.0
 40
2.0
 40
3.0
 40
3.0
 40
3.0
 40
4.0
 40
4.0
 40
4.0
 40
5.0
 40
5.0
 40
5.0
 40
6.0
 40
6.0
 40
6.0
 40
7.0
 40
7.0
 40
7.0
 40
8.0
 40
8.0
 40
8.0
 40
9.0
 40
9.0
 40
9.0
 40
10.0
 40
10.0
 40
10.0
 40
11.0
 40
11.0
 40
11.0
 40
11.0
 10
3.541833766475652
 20
-16.29623182101274
 30
0.0
 10
3.541833766475652
 20
-16.29623182101274
 30
0.0
 10
3.620313041629643
 20
-16.18361164959993
 30
0.0
 10
3.620313041629643
 20
-16.18361164959993
 30
0.0
 10
3.620313041629643
 20
-16.18361164959993
 30
0.0
 10
3.634127874525495
 20
-16.18361164959993
 30
0.0
 10
3.634127874525495
 20
-16.18361164959993
 30
0.0
 10
3.634127874525495
 20
-16.18361164959993
 30
0.0
 10
3.634127874525495
 20
-16.29819552543934
 30
0.0
 10
3.634127874525495
 20
-16.29819552543934
 30
0.0
 10
3.634127874525495
 20
-16.29819552543934
 30
0.0
 10
3.659552679206639
 20
-16.29819552543934
 30
0.0
 10
3.659552679206639
 20
-16.29819552543934
 30
0.0
 10
3.659552679206639
 20
-16.29819552543934
 30
0.0
 10
3.659552679206639
 20
-16.31101128064447
 30
0.0
 10
3.659552679206639
 20
-16.31101128064447
 30
0.0
 10
3.659552679206639
 20
-16.31101128064447
 30
0.0
 10
3.634127874525495
 20
-16.31101128064447
 30
0.0
 10
3.634127874525495
 20
-16.31101128064447
 30
0.0
 10
3.634127874525495
 20
-16.31101128064447
 30
0.0
 10
3.634127874525495
 20
-16.35317924938393
 30
0.0
 10
3.634127874525495
 20
-16.35317924938393
 30
0.0
 10
3.634127874525495
 20
-16.35317924938393
 30
0.0
 10
3.620071884945676
 20
-16.35317924938393
 30
0.0
 10
3.620071884945676
 20
-16.35317924938393
 30
0.0
 10
3.620071884945676
 20
-16.35317924938393
 30
0.0
 10
3.620071884945676
 20
-16.31101128064447
 30
0.0
 10
3.620071884945676
 20
-16.31101128064447
 30
0.0
 10
3.620071884945676
 20
-16.31101128064447
 30
0.0
 10
3.541833766475652
 20
-16.31101128064447
 30
0.0
 10
3.541833766475652
 20
-16.31101128064447
 30
0.0
 10
3.541833766475652
 20
-16.31101128064447
 30
0.0
 10
3.541833766475652
 20
-16.29623182101274
 30
0.0
 10
3.541833766475652
 20
-16.29623182101274
 30
0.0
  0
HATCH
  5
B9
330
B1
100
AcDbEntity
  8
Livello 1
 62
    18
420
        0
440
 33554687
100
AcDbHatch
 10
0.0
 20
0.0
 30
0.0
210
0.0
220
0.0
230
1.0
  2
SOLID
 70
     1
 71
     1
 91
        2
 92
        1
 93
        1
 72
     4
 94
        3
 73
     0
 74
     0
 95
       17
 96
       13
 40
0.0
 40
0.0
 40
0.0
 40
0.0
 40
1.0
 40
1.0
 40
1.0
 40
2.0
 40
2.0
 40
2.0
 40
3.0
 40
3.0
 40
3.0
 40
4.0
 40
4.0
 40
4.0
 40
4.0
 10
3.620071884945676
 20
-16.29819552543934
 10
3.620071884945676
 20
-16.29819552543934
 10
3.620071884945676
 20
-16.20590141738949
 10
3.620071884945676
 20
-16.20590141738949
 10
3.620071884945676
 20
-16.20590141738949
 10
3.619589571577741
 20
-16.20590141738949
 10
3.619589571577741
 20
-16.20590141738949
 10
3.619589571577741
 20
-16.20590141738949
 10
3.555631373894077
 20
-16.29819552543934
 10
3.555631373894077
 20
-16.29819552543934
 10
3.555631373894077
 20
-16.29819552543934
 10
3.620071884945676
 20
-16.29819552543934
 10
3.620071884945676
 20
-16.29819552543934
 97
        0
 97
        1
330
B7
 92
        1
 93
        1
 72
     4
 94
        3
 73
     0
 74
     0
 95
       38
 96
       34
 40
0.0
 40
0.0
 40
0.0
 40
0.0
 40
1.0
 40
1.0
 40
1.0
 40
2.0
 40
2.0
 40
2.0
 40
3.0
 40
3.0
 40
3.0
 40
4.0
 40
4.0
 40
4.0
 40
5.0
 40
5.0
 40
5.0
 40
6.0
 40
6.0
 40
6.0
 40
7.0
 40
7.0
 40
7.0
 40
8.0
 40
8.0
 40
8.0
 40
9.0
 40
9.0
 40
9.0
 40
10.0
 40
10.0
 40
10.0
 40
11.0
 40
11.0
 40
11.0
 40
11.0
 10
3.541833766475652
 20
-16.29623182101274
 10
3.541833766475652
 20
-16.29623182101274
 10
3.620313041629643
 20
-16.18361164959993
 10
3.620313041629643
 20
-16.18361164959993
 10
3.620313041629643
 20
-16.18361164959993
 10
3.634127874525495
 20
-16.18361164959993
 10
3.634127874525495
 20
-16.18361164959993
 10
3.634127874525495
 20
-16.18361164959993
 10
3.634127874525495
 20
-16.29819552543934
 10
3.634127874525495
 20
-16.29819552543934
 10
3.634127874525495
 20
-16.29819552543934
 10
3.659552679206639
 20
-16.29819552543934
 10
3.659552679206639
 20
-16.29819552543934
 10
3.659552679206639
 20
-16.29819552543934
 10
3.659552679206639
 20
-16.31101128064447
 10
3.659552679206639
 20
-16.31101128064447
 10
3.659552679206639
 20
-16.31101128064447
 10
3.634127874525495
 20
-16.31101128064447
 10
3.634127874525495
 20
-16.31101128064447
 10
3.634127874525495
 20
-16.31101128064447
 10
3.634127874525495
 20
-16.35317924938393
 10
3.634127874525495
 20
-16.35317924938393
 10
3.634127874525495
 20
-16.35317924938393
 10
3.620071884945676
 20
-16.35317924938393
 10
3.620071884945676
 20
-16.35317924938393
 10
3.620071884945676
 20
-16.35317924938393
 10
3.620071884945676
 20
-16.31101128064447
 10
3.620071884945676
 20
-16.31101128064447
 10
3.620071884945676
 20
-16.31101128064447
 10
3.541833766475652
 20
-16.31101128064447
 10
3.541833766475652
 20
-16.31101128064447
 10
3.541833766475652
 20
-16.31101128064447
 10
3.541833766475652
 20
-16.29623182101274
 10
3.541833766475652
 20
-16.29623182101274
 97
        0
 97
        1
330
B8
 75
     2
 76
     1
 98
        1
 10
0.0
 20
0.0
450
        0
451
        0
460
0.0
461
0.0
452
        0
462
0.0
453
        0
470

  0
ENDBLK
  5
B4
330
B1
100
AcDbEntity
  8
0
100
AcDbBlockEnd
  0
BLOCK
  5
BC
330
BA
100
AcDbEntity
  8
0
100
AcDbBlockBegin
  2
Block_7
 70
     0
 10
0.0
 20
0.0
 30
0.0
  3
Block_7
  1

  0
LINE
  5
BE
330
BA
100
AcDbEntity
  8
Livello 1
 62
    18
420
        0
370
     9
100
AcDbLine
 10
3.529490004126006
 20
-16.14649979420976
 30
0.0
 11
3.529490004126006
 21
-16.09379302242507
 31
0.0
  0
LWPOLYLINE
  5
BF
330
BA
100
AcDbEntity
  8
Livello 1
100
AcDbPolyline
 90
        3
 70
     1
 43
0.0
 10
3.528612921054532
 20
-15.83708024974186
 10
3.613590277617261
 20
-16.09197720248903
 10
3.445389730634687
 20
-16.09197720248903
  0
HATCH
  5
C0
330
BA
100
AcDbEntity
  8
Livello 1
 62
    18
420
        0
440
 33554687
100
AcDbHatch
 10
0.0
 20
0.0
 30
0.0
210
0.0
220
0.0
230
1.0
  2
SOLID
 70
     1
 71
     1
 91
        1
 92
        1
 93
        3
 72
     1
 10
3.528612921054532
 20
-15.83708024974186
 11
3.613590277617261
 21
-16.09197720248903
 72
     1
 10
3.613590277617261
 20
-16.09197720248903
 11
3.445389730634687
 21
-16.09197720248903
 72
     1
 10
3.445389730634687
 20
-16.09197720248903
 11
3.528612921054532
 21
-15.83708024974186
 97
        1
330
BF
 75
     0
 76
     1
 98
        1
 10
0.0
 20
0.0
450
        0
451
        0
460
0.0
461
0.0
452
        0
462
0.0
453
        0
470

  0
ENDBLK
  5
BD
330
BA
100
AcDbEntity
  8
0
100
AcDbBlockEnd
  0
BLOCK
  5
C3
330
C1
100
AcDbEntity
  8
0
100
AcDbBlockBegin
  2
Block_8
 70
     0
 10
0.0
 20
0.0
 30
0.0
  3
Block_8
  1

  0
LINE
  5
C5
330
C1
100
AcDbEntity
  8
Livello 1
 62
    18
420
        0
370
     9
100
AcDbLine
 10
3.529490004126006
 20
-16.43316566427644
 30
0.0
 11
3.529490004126006
 21
-16.47675323397978
 31
0.0
  0
LWPOLYLINE
  5
C6
330
C1
100
AcDbEntity
  8
Livello 1
100
AcDbPolyline
 90
        3
 70
     1
 43
0.0
 10
3.530367087197511
 20
-16.73346600666311
 10
3.445389730634687
 20
-16.47856905391595
 10
3.613590277617261
 20
-16.47856905391595
  0
HATCH
  5
C7
330
C1
100
AcDbEntity
  8
Livello 1
 62
    18
420
        0
440
 33554687
100
AcDbHatch
 10
0.0
 20
0.0
 30
0.0
210
0.0
220
0.0
230
1.0
  2
SOLID
 70
     1
 71
     1
 91
        1
 92
        1
 93
        3
 72
     1
 10
3.530367087197511
 20
-16.73346600666311
 11
3.445389730634687
 21
-16.47856905391595
 72
     1
 10
3.445389730634687
 20
-16.47856905391595
 11
3.613590277617261
 21
-16.47856905391595
 72
     1
 10
3.613590277617261
 20
-16.47856905391595
 11
3.530367087197511
 21
-16.73346600666311
 97
        1
330
C6
 75
     0
 76
     1
 98
        1
 10
0.0
 20
0.0
450
        0
451
        0
460
0.0
461
0.0
452
        0
462
0.0
453
        0
470

  0
ENDBLK
  5
C4
330
C1
100
AcDbEntity
  8
0
100
AcDbBlockEnd
  0
BLOCK
  5
CA
330
C8
100
AcDbEntity
  8
0
100
AcDbBlockBegin
  2
Block_9
 70
     0
 10
0.0
 20
0.0
 30
0.0
  3
Block_9
  1

  0
INSERT
  5
CD
330
C8
100
AcDbEntity
  8
Livello 1
100
AcDbBlockReference
  2
Block_10
 10
0.0
 20
0.0
 30
0.0
  0
ENDBLK
  5
CB
330
C8
100
AcDbEntity
  8
0
100
AcDbBlockEnd
  0
BLOCK
  5
CE
330
CC
100
AcDbEntity
  8
0
100
AcDbBlockBegin
  2
Block_10
 70
     0
 10
0.0
 20
0.0
 30
0.0
  3
Block_10
  1

  0
SPLINE
  5
D0
330
CC
100
AcDbEntity
  8
Livello 1
100
AcDbSpline
210
0.0
220
0.0
230
1.0
 70
    11
 71
     3
 72
    17
 73
    13
 74
     0
 42
0.000000001
 43
0.0000000001
 40
0.0
 40
0.0
 40
0.0
 40
0.0
 40
1.0
 40
1.0
 40
1.0
 40
2.0
 40
2.0
 40
2.0
 40
3.0
 40
3.0
 40
3.0
 40
4.0
 40
4.0
 40
4.0
 40
4.0
 10
17.31008897136692
 20
-16.21196478544353
 30
0.0
 10
17.31008897136692
 20
-16.21196478544353
 30
0.0
 10
17.31008897136692
 20
-16.11967067739369
 30
0.0
 10
17.31008897136692
 20
-16.11967067739369
 30
0.0
 10
17.31008897136692
 20
-16.11967067739369
 30
0.0
 10
17.30960665799899
 20
-16.11967067739369
 30
0.0
 10
17.30960665799899
 20
-16.11967067739369
 30
0.0
 10
17.30960665799899
 20
-16.11967067739369
 30
0.0
 10
17.2456312348379
 20
-16.21196478544353
 30
0.0
 10
17.2456312348379
 20
-16.21196478544353
 30
0.0
 10
17.2456312348379
 20
-16.21196478544353
 30
0.0
 10
17.31008897136692
 20
-16.21196478544353
 30
0.0
 10
17.31008897136692
 20
-16.21196478544353
 30
0.0
  0
SPLINE
  5
D1
330
CC
100
AcDbEntity
  8
Livello 1
100
AcDbSpline
210
0.0
220
0.0
230
1.0
 70
    11
 71
     3
 72
    38
 73
    34
 74
     0
 42
0.000000001
 43
0.0000000001
 40
0.0
 40
0.0
 40
0.0
 40
0.0
 40
1.0
 40
1.0
 40
1.0
 40
2.0
 40
2.0
 40
2.0
 40
3.0
 40
3.0
 40
3.0
 40
4.0
 40
4.0
 40
4.0
 40
5.0
 40
5.0
 40
5.0
 40
6.0
 40
6.0
 40
6.0
 40
7.0
 40
7.0
 40
7.0
 40
8.0
 40
8.0
 40
8.0
 40
9.0
 40
9.0
 40
9.0
 40
10.0
 40
10.0
 40
10.0
 40
11.0
 40
11.0
 40
11.0
 40
11.0
 10
17.2318508528969
 20
-16.21003553197179
 30
0.0
 10
17.2318508528969
 20
-16.21003553197179
 30
0.0
 10
17.31033012805089
 20
-16.09738090960412
 30
0.0
 10
17.31033012805089
 20
-16.09738090960412
 30
0.0
 10
17.31033012805089
 20
-16.09738090960412
 30
0.0
 10
17.32414496094674
 20
-16.09738090960412
 30
0.0
 10
17.32414496094674
 20
-16.09738090960412
 30
0.0
 10
17.32414496094674
 20
-16.09738090960412
 30
0.0
 10
17.32414496094674
 20
-16.21196478544353
 30
0.0
 10
17.32414496094674
 20
-16.21196478544353
 30
0.0
 10
17.32414496094674
 20
-16.21196478544353
 30
0.0
 10
17.34956976562788
 20
-16.21196478544353
 30
0.0
 10
17.34956976562788
 20
-16.21196478544353
 30
0.0
 10
17.34956976562788
 20
-16.21196478544353
 30
0.0
 10
17.34956976562788
 20
-16.22481499160351
 30
0.0
 10
17.34956976562788
 20
-16.22481499160351
 30
0.0
 10
17.34956976562788
 20
-16.22481499160351
 30
0.0
 10
17.32414496094674
 20
-16.22481499160351
 30
0.0
 10
17.32414496094674
 20
-16.22481499160351
 30
0.0
 10
17.32414496094674
 20
-16.22481499160351
 30
0.0
 10
17.32414496094674
 20
-16.26694850938812
 30
0.0
 10
17.32414496094674
 20
-16.26694850938812
 30
0.0
 10
17.32414496094674
 20
-16.26694850938812
 30
0.0
 10
17.31008897136692
 20
-16.26694850938812
 30
0.0
 10
17.31008897136692
 20
-16.26694850938812
 30
0.0
 10
17.31008897136692
 20
-16.26694850938812
 30
0.0
 10
17.31008897136692
 20
-16.22481499160351
 30
0.0
 10
17.31008897136692
 20
-16.22481499160351
 30
0.0
 10
17.31008897136692
 20
-16.22481499160351
 30
0.0
 10
17.2318508528969
 20
-16.22481499160351
 30
0.0
 10
17.2318508528969
 20
-16.22481499160351
 30
0.0
 10
17.2318508528969
 20
-16.22481499160351
 30
0.0
 10
17.2318508528969
 20
-16.21003553197179
 30
0.0
 10
17.2318508528969
 20
-16.21003553197179
 30
0.0
  0
HATCH
  5
D2
330
CC
100
AcDbEntity
  8
Livello 1
 62
    18
420
        0
440
 33554687
100
AcDbHatch
 10
0.0
 20
0.0
 30
0.0
210
0.0
220
0.0
230
1.0
  2
SOLID
 70
     1
 71
     1
 91
        2
 92
        1
 93
        1
 72
     4
 94
        3
 73
     0
 74
     0
 95
       17
 96
       13
 40
0.0
 40
0.0
 40
0.0
 40
0.0
 40
1.0
 40
1.0
 40
1.0
 40
2.0
 40
2.0
 40
2.0
 40
3.0
 40
3.0
 40
3.0
 40
4.0
 40
4.0
 40
4.0
 40
4.0
 10
17.31008897136692
 20
-16.21196478544353
 10
17.31008897136692
 20
-16.21196478544353
 10
17.31008897136692
 20
-16.11967067739369
 10
17.31008897136692
 20
-16.11967067739369
 10
17.31008897136692
 20
-16.11967067739369
 10
17.30960665799899
 20
-16.11967067739369
 10
17.30960665799899
 20
-16.11967067739369
 10
17.30960665799899
 20
-16.11967067739369
 10
17.2456312348379
 20
-16.21196478544353
 10
17.2456312348379
 20
-16.21196478544353
 10
17.2456312348379
 20
-16.21196478544353
 10
17.31008897136692
 20
-16.21196478544353
 10
17.31008897136692
 20
-16.21196478544353
 97
        0
 97
        1
330
D0
 92
        1
 93
        1
 72
     4
 94
        3
 73
     0
 74
     0
 95
       38
 96
       34
 40
0.0
 40
0.0
 40
0.0
 40
0.0
 40
1.0
 40
1.0
 40
1.0
 40
2.0
 40
2.0
 40
2.0
 40
3.0
 40
3.0
 40
3.0
 40
4.0
 40
4.0
 40
4.0
 40
5.0
 40
5.0
 40
5.0
 40
6.0
 40
6.0
 40
6.0
 40
7.0
 40
7.0
 40
7.0
 40
8.0
 40
8.0
 40
8.0
 40
9.0
 40
9.0
 40
9.0
 40
10.0
 40
10.0
 40
10.0
 40
11.0
 40
11.0
 40
11.0
 40
11.0
 10
17.2318508528969
 20
-16.21003553197179
 10
17.2318508528969
 20
-16.21003553197179
 10
17.31033012805089
 20
-16.09738090960412
 10
17.31033012805089
 20
-16.09738090960412
 10
17.31033012805089
 20
-16.09738090960412
 10
17.32414496094674
 20
-16.09738090960412
 10
17.32414496094674
 20
-16.09738090960412
 10
17.32414496094674
 20
-16.09738090960412
 10
17.32414496094674
 20
-16.21196478544353
 10
17.32414496094674
 20
-16.21196478544353
 10
17.32414496094674
 20
-16.21196478544353
 10
17.34956976562788
 20
-16.21196478544353
 10
17.34956976562788
 20
-16.21196478544353
 10
17.34956976562788
 20
-16.21196478544353
 10
17.34956976562788
 20
-16.22481499160351
 10
17.34956976562788
 20
-16.22481499160351
 10
17.34956976562788
 20
-16.22481499160351
 10
17.32414496094674
 20
-16.22481499160351
 10
17.32414496094674
 20
-16.22481499160351
 10
17.32414496094674
 20
-16.22481499160351
 10
17.32414496094674
 20
-16.26694850938812
 10
17.32414496094674
 20
-16.26694850938812
 10
17.32414496094674
 20
-16.26694850938812
 10
17.31008897136692
 20
-16.26694850938812
 10
17.31008897136692
 20
-16.26694850938812
 10
17.31008897136692
 20
-16.26694850938812
 10
17.31008897136692
 20
-16.22481499160351
 10
17.31008897136692
 20
-16.22481499160351
 10
17.31008897136692
 20
-16.22481499160351
 10
17.2318508528969
 20
-16.22481499160351
 10
17.2318508528969
 20
-16.22481499160351
 10
17.2318508528969
 20
-16.22481499160351
 10
17.2318508528969
 20
-16.21003553197179
 10
17.2318508528969
 20
-16.21003553197179
 97
        0
 97
        1
330
D1
 75
     2
 76
     1
 98
        1
 10
0.0
 20
0.0
450
        0
451
        0
460
0.0
461
0.0
452
        0
462
0.0
453
        0
470

  0
SPLINE
  5
D3
330
CC
100
AcDbEntity
  8
Livello 1
100
AcDbSpline
210
0.0
220
0.0
230
1.0
 70
    11
 71
     3
 72
    17
 73
    13
 74
     0
 42
0.000000001
 43
0.0000000001
 40
0.0
 40
0.0
 40
0.0
 40
0.0
 40
1.0
 40
1.0
 40
1.0
 40
2.0
 40
2.0
 40
2.0
 40
3.0
 40
3.0
 40
3.0
 40
4.0
 40
4.0
 40
4.0
 40
4.0
 10
17.44461995006593
 20
-16.21196478544353
 30
0.0
 10
17.44461995006593
 20
-16.21196478544353
 30
0.0
 10
17.44461995006593
 20
-16.11967067739369
 30
0.0
 10
17.44461995006593
 20
-16.11967067739369
 30
0.0
 10
17.44461995006593
 20
-16.11967067739369
 30
0.0
 10
17.44413763669799
 20
-16.11967067739369
 30
0.0
 10
17.44413763669799
 20
-16.11967067739369
 30
0.0
 10
17.44413763669799
 20
-16.11967067739369
 30
0.0
 10
17.38019666449175
 20
-16.21196478544353
 30
0.0
 10
17.38019666449175
 20
-16.21196478544353
 30
0.0
 10
17.38019666449175
 20
-16.21196478544353
 30
0.0
 10
17.44461995006593
 20
-16.21196478544353
 30
0.0
 10
17.44461995006593
 20
-16.21196478544353
 30
0.0
  0
SPLINE
  5
D4
330
CC
100
AcDbEntity
  8
Livello 1
100
AcDbSpline
210
0.0
220
0.0
230
1.0
 70
    11
 71
     3
 72
    38
 73
    34
 74
     0
 42
0.000000001
 43
0.0000000001
 40
0.0
 40
0.0
 40
0.0
 40
0.0
 40
1.0
 40
1.0
 40
1.0
 40
2.0
 40
2.0
 40
2.0
 40
3.0
 40
3.0
 40
3.0
 40
4.0
 40
4.0
 40
4.0
 40
5.0
 40
5.0
 40
5.0
 40
6.0
 40
6.0
 40
6.0
 40
7.0
 40
7.0
 40
7.0
 40
8.0
 40
8.0
 40
8.0
 40
9.0
 40
9.0
 40
9.0
 40
10.0
 40
10.0
 40
10.0
 40
11.0
 40
11.0
 40
11.0
 40
11.0
 10
17.3663818315959
 20
-16.21003553197179
 30
0.0
 10
17.3663818315959
 20
-16.21003553197179
 30
0.0
 10
17.44486110674989
 20
-16.09738090960412
 30
0.0
 10
17.44486110674989
 20
-16.09738090960412
 30
0.0
 10
17.44486110674989
 20
-16.09738090960412
 30
0.0
 10
17.45867593964575
 20
-16.09738090960412
 30
0.0
 10
17.45867593964575
 20
-16.09738090960412
 30
0.0
 10
17.45867593964575
 20
-16.09738090960412
 30
0.0
 10
17.45867593964575
 20
-16.21196478544353
 30
0.0
 10
17.45867593964575
 20
-16.21196478544353
 30
0.0
 10
17.45867593964575
 20
-16.21196478544353
 30
0.0
 10
17.48410074432689
 20
-16.21196478544353
 30
0.0
 10
17.48410074432689
 20
-16.21196478544353
 30
0.0
 10
17.48410074432689
 20
-16.21196478544353
 30
0.0
 10
17.48410074432689
 20
-16.22481499160351
 30
0.0
 10
17.48410074432689
 20
-16.22481499160351
 30
0.0
 10
17.48410074432689
 20
-16.22481499160351
 30
0.0
 10
17.45867593964575
 20
-16.22481499160351
 30
0.0
 10
17.45867593964575
 20
-16.22481499160351
 30
0.0
 10
17.45867593964575
 20
-16.22481499160351
 30
0.0
 10
17.45867593964575
 20
-16.26694850938812
 30
0.0
 10
17.45867593964575
 20
-16.26694850938812
 30
0.0
 10
17.45867593964575
 20
-16.26694850938812
 30
0.0
 10
17.44461995006593
 20
-16.26694850938812
 30
0.0
 10
17.44461995006593
 20
-16.26694850938812
 30
0.0
 10
17.44461995006593
 20
-16.26694850938812
 30
0.0
 10
17.44461995006593
 20
-16.22481499160351
 30
0.0
 10
17.44461995006593
 20
-16.22481499160351
 30
0.0
 10
17.44461995006593
 20
-16.22481499160351
 30
0.0
 10
17.3663818315959
 20
-16.22481499160351
 30
0.0
 10
17.3663818315959
 20
-16.22481499160351
 30
0.0
 10
17.3663818315959
 20
-16.22481499160351
 30
0.0
 10
17.3663818315959
 20
-16.21003553197179
 30
0.0
 10
17.3663818315959
 20
-16.21003553197179
 30
0.0
  0
HATCH
  5
D5
330
CC
100
AcDbEntity
  8
Livello 1
 62
    18
420
        0
440
 33554687
100
AcDbHatch
 10
0.0
 20
0.0
 30
0.0
210
0.0
220
0.0
230
1.0
  2
SOLID
 70
     1
 71
     1
 91
        2
 92
        1
 93
        1
 72
     4
 94
        3
 73
     0
 74
     0
 95
       17
 96
       13
 40
0.0
 40
0.0
 40
0.0
 40
0.0
 40
1.0
 40
1.0
 40
1.0
 40
2.0
 40
2.0
 40
2.0
 40
3.0
 40
3.0
 40
3.0
 40
4.0
 40
4.0
 40
4.0
 40
4.0
 10
17.44461995006593
 20
-16.21196478544353
 10
17.44461995006593
 20
-16.21196478544353
 10
17.44461995006593
 20
-16.11967067739369
 10
17.44461995006593
 20
-16.11967067739369
 10
17.44461995006593
 20
-16.11967067739369
 10
17.44413763669799
 20
-16.11967067739369
 10
17.44413763669799
 20
-16.11967067739369
 10
17.44413763669799
 20
-16.11967067739369
 10
17.38019666449175
 20
-16.21196478544353
 10
17.38019666449175
 20
-16.21196478544353
 10
17.38019666449175
 20
-16.21196478544353
 10
17.44461995006593
 20
-16.21196478544353
 10
17.44461995006593
 20
-16.21196478544353
 97
        0
 97
        1
330
D3
 92
        1
 93
        1
 72
     4
 94
        3
 73
     0
 74
     0
 95
       38
 96
       34
 40
0.0
 40
0.0
 40
0.0
 40
0.0
 40
1.0
 40
1.0
 40
1.0
 40
2.0
 40
2.0
 40
2.0
 40
3.0
 40
3.0
 40
3.0
 40
4.0
 40
4.0
 40
4.0
 40
5.0
 40
5.0
 40
5.0
 40
6.0
 40
6.0
 40
6.0
 40
7.0
 40
7.0
 40
7.0
 40
8.0
 40
8.0
 40
8.0
 40
9.0
 40
9.0
 40
9.0
 40
10.0
 40
10.0
 40
10.0
 40
11.0
 40
11.0
 40
11.0
 40
11.0
 10
17.3663818315959
 20
-16.21003553197179
 10
17.3663818315959
 20
-16.21003553197179
 10
17.44486110674989
 20
-16.09738090960412
 10
17.44486110674989
 20
-16.09738090960412
 10
17.44486110674989
 20
-16.09738090960412
 10
17.45867593964575
 20
-16.09738090960412
 10
17.45867593964575
 20
-16.09738090960412
 10
17.45867593964575
 20
-16.09738090960412
 10
17.45867593964575
 20
-16.21196478544353
 10
17.45867593964575
 20
-16.21196478544353
 10
17.45867593964575
 20
-16.21196478544353
 10
17.48410074432689
 20
-16.21196478544353
 10
17.48410074432689
 20
-16.21196478544353
 10
17.48410074432689
 20
-16.21196478544353
 10
17.48410074432689
 20
-16.22481499160351
 10
17.48410074432689
 20
-16.22481499160351
 10
17.48410074432689
 20
-16.22481499160351
 10
17.45867593964575
 20
-16.22481499160351
 10
17.45867593964575
 20
-16.22481499160351
 10
17.45867593964575
 20
-16.22481499160351
 10
17.45867593964575
 20
-16.26694850938812
 10
17.45867593964575
 20
-16.26694850938812
 10
17.45867593964575
 20
-16.26694850938812
 10
17.44461995006593
 20
-16.26694850938812
 10
17.44461995006593
 20
-16.26694850938812
 10
17.44461995006593
 20
-16.26694850938812
 10
17.44461995006593
 20
-16.22481499160351
 10
17.44461995006593
 20
-16.22481499160351
 10
17.44461995006593
 20
-16.22481499160351
 10
17.3663818315959
 20
-16.22481499160351
 10
17.3663818315959
 20
-16.22481499160351
 10
17.3663818315959
 20
-16.22481499160351
 10
17.3663818315959
 20
-16.21003553197179
 10
17.3663818315959
 20
-16.21003553197179
 97
        0
 97
        1
330
D4
 75
     2
 76
     1
 98
        1
 10
0.0
 20
0.0
450
        0
451
        0
460
0.0
461
0.0
452
        0
462
0.0
453
        0
470

  0
ENDBLK
  5
CF
330
CC
100
AcDbEntity
  8
0
100
AcDbBlockEnd
  0
BLOCK
  5
D8
330
D6
100
AcDbEntity
  8
0
100
AcDbBlockBegin
  2
Block_11
 70
     0
 10
0.0
 20
0.0
 30
0.0
  3
Block_11
  1

  0
LINE
  5
DA
330
D6
100
AcDbEntity
  8
Livello 1
 62
    18
420
        0
370
     9
100
AcDbLine
 10
17.35404755146888
 20
-15.95444961887711
 30
0.0
 11
17.35404755146888
 21
-15.90174284709248
 31
0.0
  0
LWPOLYLINE
  5
DB
330
D6
100
AcDbEntity
  8
Livello 1
100
AcDbPolyline
 90
        3
 70
     1
 43
0.0
 10
17.35317046839741
 20
-15.64503007440921
 10
17.43814782496017
 20
-15.89992702715645
 10
17.26994727797759
 20
-15.89992702715645
  0
HATCH
  5
DC
330
D6
100
AcDbEntity
  8
Livello 1
 62
    18
420
        0
440
 33554687
100
AcDbHatch
 10
0.0
 20
0.0
 30
0.0
210
0.0
220
0.0
230
1.0
  2
SOLID
 70
     1
 71
     1
 91
        1
 92
        1
 93
        3
 72
     1
 10
17.35317046839741
 20
-15.64503007440921
 11
17.43814782496017
 21
-15.89992702715645
 72
     1
 10
17.43814782496017
 20
-15.89992702715645
 11
17.26994727797759
 21
-15.89992702715645
 72
     1
 10
17.26994727797759
 20
-15.89992702715645
 11
17.35317046839741
 21
-15.64503007440921
 97
        1
330
DB
 75
     0
 76
     1
 98
        1
 10
0.0
 20
0.0
450
        0
451
        0
460
0.0
461
0.0
452
        0
462
0.0
453
        0
470

  0
ENDBLK
  5
D9
330
D6
100
AcDbEntity
  8
0
100
AcDbBlockEnd
  0
BLOCK
  5
DF
330
DD
100
AcDbEntity
  8
0
100
AcDbBlockBegin
  2
Block_12
 70
     0
 10
0.0
 20
0.0
 30
0.0
  3
Block_12
  1

  0
LINE
  5
E1
330
DD
100
AcDbEntity
  8
Livello 1
 62
    18
420
        0
370
     9
100
AcDbLine
 10
17.35404755146888
 20
-16.34694882225074
 30
0.0
 11
17.35404755146888
 21
-16.39053639195401
 31
0.0
  0
LWPOLYLINE
  5
E2
330
DD
100
AcDbEntity
  8
Livello 1
100
AcDbPolyline
 90
        3
 70
     1
 43
0.0
 10
17.35492463454035
 20
-16.64724916463741
 10
17.26994727797759
 20
-16.39235221189023
 10
17.43814782496017
 20
-16.39235221189023
  0
HATCH
  5
E3
330
DD
100
AcDbEntity
  8
Livello 1
 62
    18
420
        0
440
 33554687
100
AcDbHatch
 10
0.0
 20
0.0
 30
0.0
210
0.0
220
0.0
230
1.0
  2
SOLID
 70
     1
 71
     1
 91
        1
 92
        1
 93
        3
 72
     1
 10
17.35492463454035
 20
-16.64724916463741
 11
17.26994727797759
 21
-16.39235221189023
 72
     1
 10
17.26994727797759
 20
-16.39235221189023
 11
17.43814782496017
 21
-16.39235221189023
 72
     1
 10
17.43814782496017
 20
-16.39235221189023
 11
17.35492463454035
 21
-16.64724916463741
 97
        1
330
E2
 75
     0
 76
     1
 98
        1
 10
0.0
 20
0.0
450
        0
451
        0
460
0.0
461
0.0
452
        0
462
0.0
453
        0
470

  0
ENDBLK
  5
E0
330
DD
100
AcDbEntity
  8
0
100
AcDbBlockEnd
  0
ENDSEC
  0
SECTION
  2
ENTITIES
  0
LINE
  5
79
330
70
100
AcDbEntity
  8
Livello 1
370
     9
100
AcDbLine
 10
8.838470411842795
 20
-15.9060555942949
 30
0.0
 11
10.11834612378644
 21
-10.17597364324229
 31
0.0
  0
LINE
  5
7A
330
70
100
AcDbEntity
  8
Livello 1
370
     9
100
AcDbLine
 10
9.970593219090023
 20
-15.9060555942949
 30
0.0
 11
10.41907912743406
 21
-10.17597364324229
 31
0.0
  0
LINE
  5
7B
330
70
100
AcDbEntity
  8
Livello 1
370
     9
100
AcDbLine
 10
12.0256590794937
 20
-15.9060555942949
 30
0.0
 11
10.74578336755002
 21
-10.17597364324229
 31
0.0
  0
SPLINE
  5
7D
330
70
100
AcDbEntity
  8
Livello 1
370
     9
100
AcDbSpline
210
0.0
220
0.0
230
1.0
 70
     8
 71
     3
 72
     8
 73
     4
 74
     0
 42
0.000000001
 43
0.0000000001
 40
0.0
 40
0.0
 40
0.0
 40
0.0
 40
1.0
 40
1.0
 40
1.0
 40
1.0
 10
12.32022049874264
 20
-15.9265258410033
 30
0.0
 10
12.32349851672357
 20
-15.928072317882
 30
0.0
 10
12.32622814150694
 20
-15.93007528492382
 30
0.0
 10
12.32877144377941
 20
-15.93298191616575
 30
0.0
  0
SPLINE
  5
7E
330
70
100
AcDbEntity
  8
Livello 1
370
     9
100
AcDbSpline
210
0.0
220
0.0
230
1.0
 70
     8
 71
     3
 72
     8
 73
     4
 74
     0
 42
0.000000001
 43
0.0000000001
 40
0.0
 40
0.0
 40
0.0
 40
0.0
 40
1.0
 40
1.0
 40
1.0
 40
1.0
 10
8.484239336472386
 20
-15.93626119243873
 30
0.0
 10
8.486242303463516
 20
-15.93134227802922
 30
0.0
 10
8.488963773544734
 20
-15.92843564678729
 30
0.0
 10
8.494058532791814
 20
-15.9265258410033
 30
0.0
  0
LINE
  5
7F
330
70
100
AcDbEntity
  8
Livello 1
370
     9
100
AcDbLine
 10
12.29329689525144
 20
-15.9153371739468
 30
0.0
 11
12.29329689525144
 21
-15.9264326797456
 31
0.0
  0
LINE
  5
80
330
70
100
AcDbEntity
  8
Livello 1
370
     9
100
AcDbLine
 10
8.520805129217725
 20
-15.9265258410033
 30
0.0
 11
8.520991451728503
 21
-15.9153371739468
 31
0.0
  0
SPLINE
  5
81
330
70
100
AcDbEntity
  8
Livello 1
370
     9
100
AcDbSpline
210
0.0
220
0.0
230
1.0
 70
     8
 71
     3
 72
     8
 73
     4
 74
     0
 42
0.000000001
 43
0.0000000001
 40
0.0
 40
0.0
 40
0.0
 40
0.0
 40
1.0
 40
1.0
 40
1.0
 40
1.0
 10
10.86985686805666
 20
-15.9265258410033
 30
0.0
 10
10.87240139196341
 20
-15.92961879476069
 30
0.0
 10
10.87294982173602
 20
-15.93244158087074
 30
0.0
 10
10.87222316394378
 20
-15.93626119243873
 30
0.0
  0
SPLINE
  5
82
330
70
100
AcDbEntity
  8
Livello 1
370
     9
100
AcDbSpline
210
0.0
220
0.0
230
1.0
 70
     8
 71
     3
 72
     8
 73
     4
 74
     0
 42
0.000000001
 43
0.0000000001
 40
0.0
 40
0.0
 40
0.0
 40
0.0
 40
1.0
 40
1.0
 40
1.0
 40
1.0
 10
12.37576053286992
 20
-15.93358536028126
 30
0.0
 10
12.37903049293449
 20
-15.93513183716015
 30
0.0
 10
12.38176011771774
 20
-15.93712548807602
 30
0.0
 10
12.38412641360499
 20
-15.93985511292831
 30
0.0
  0
SPLINE
  5
83
330
70
100
AcDbEntity
  8
Livello 1
370
     9
100
AcDbSpline
210
0.0
220
0.0
230
1.0
 70
     8
 71
     3
 72
     8
 73
     4
 74
     0
 42
0.000000001
 43
0.0000000001
 40
0.0
 40
0.0
 40
0.0
 40
0.0
 40
1.0
 40
1.0
 40
1.0
 40
1.0
 10
8.539771312683182
 20
-15.94332071171676
 30
0.0
 10
8.541587957163532
 20
-15.93840179730725
 30
0.0
 10
8.544503904457616
 20
-15.93549516606532
 30
0.0
 10
8.549599825128108
 20
-15.93358536028126
 30
0.0
  0
LINE
  5
84
330
70
100
AcDbEntity
  8
Livello 1
370
     9
100
AcDbLine
 10
12.3488276139331
 20
-15.92238737709913
 30
0.0
 11
12.34901393644388
 21
-15.93358536028126
 31
0.0
  0
LINE
  5
85
330
70
100
AcDbEntity
  8
Livello 1
370
     9
100
AcDbLine
 10
8.576346421554084
 20
-15.93358536028126
 30
0.0
 11
8.57652342793933
 21
-15.92238737709913
 31
0.0
  0
LINE
  5
E4
330
70
100
AcDbEntity
  8
Livello 1
370
     9
100
AcDbLine
 10
5.037375722687161
 20
-16.32881338345562
 30
0.0
 11
4.955309972803449
 21
-16.4682851024414
 31
0.0
  0
LINE
  5
E5
330
70
100
AcDbEntity
  8
Livello 1
370
     9
100
AcDbLine
 10
15.73799862780679
 20
-16.32881338345562
 30
0.0
 11
5.037375722687161
 21
-16.32881338345562
 31
0.0
  0
LINE
  5
E6
330
70
100
AcDbEntity
  8
Livello 1
370
     9
100
AcDbLine
 10
11.3272137779146
 20
-16.32881338345562
 30
0.0
 11
11.31611827239623
 21
-16.32881338345562
 31
0.0
  0
LINE
  5
E7
330
70
100
AcDbEntity
  8
Livello 1
370
     9
100
AcDbLine
 10
11.16454490985697
 20
-16.32881338345562
 30
0.0
 11
11.14925837693068
 21
-16.32881338345562
 31
0.0
  0
LINE
  5
E8
330
70
100
AcDbEntity
  8
Livello 1
370
     9
100
AcDbLine
 10
11.11269135510016
 20
-16.32881338345562
 30
0.0
 11
11.08558142977813
 21
-16.32881338345562
 31
0.0
  0
LINE
  5
E9
330
70
100
AcDbEntity
  8
Livello 1
370
     9
100
AcDbLine
 10
10.79226443721129
 20
-16.32881338345562
 30
0.0
 11
10.7274881962635
 21
-16.32881338345562
 31
0.0
  0
LINE
  5
EA
330
70
100
AcDbEntity
  8
Livello 1
370
     9
100
AcDbLine
 10
15.73799862780679
 20
-16.32881338345562
 30
0.0
 11
15.82024138407577
 21
-16.4682851024414
 31
0.0
  0
LINE
  5
EB
330
70
100
AcDbEntity
  8
Livello 1
370
     9
100
AcDbLine
 10
14.2654359281677
 20
-16.46118621460049
 30
0.0
 11
14.2654359281677
 21
-16.46373883306301
 31
0.0
  0
LINE
  5
EC
330
70
100
AcDbEntity
  8
Livello 1
370
     9
100
AcDbLine
 10
14.27107218411952
 20
-16.4591832475588
 30
0.0
 11
14.30546862843179
 21
-16.4591832475588
 31
0.0
  0
SPLINE
  5
ED
330
70
100
AcDbEntity
  8
Livello 1
370
     9
100
AcDbSpline
210
0.0
220
0.0
230
1.0
 70
     8
 71
     3
 72
     8
 73
     4
 74
     0
 42
0.000000001
 43
0.0000000001
 40
0.0
 40
0.0
 40
0.0
 40
0.0
 40
1.0
 40
1.0
 40
1.0
 40
1.0
 10
14.2654359281677
 20
-16.46118621460049
 30
0.0
 10
14.2654359281677
 20
-16.46028255040019
 30
0.0
 10
14.26616258595981
 20
-16.45973289897955
 30
0.0
 10
14.268528881847
 20
-16.4591832475588
 30
0.0
  0
LINE
  5
EE
330
70
100
AcDbEntity
  8
Livello 1
370
     9
100
AcDbLine
 10
14.4877852098595
 20
-16.4591832475588
 30
0.0
 11
14.52617564978713
 21
-16.4591832475588
 31
0.0
  0
SPLINE
  5
EF
330
70
100
AcDbEntity
  8
Livello 1
370
     9
100
AcDbSpline
210
0.0
220
0.0
230
1.0
 70
     8
 71
     3
 72
     8
 73
     4
 74
     0
 42
0.000000001
 43
0.0000000001
 40
0.0
 40
0.0
 40
0.0
 40
0.0
 40
1.0
 40
1.0
 40
1.0
 40
1.0
 10
14.52617564978713
 20
-16.4591832475588
 30
0.0
 10
14.52835562316347
 20
-16.45973289897955
 30
0.0
 10
14.52926860346649
 20
-16.46028255040019
 30
0.0
 10
14.52926860346649
 20
-16.46118621460049
 30
0.0
  0
SPLINE
  5
F0
330
70
100
AcDbEntity
  8
Livello 1
370
     9
100
AcDbSpline
210
0.0
220
0.0
230
1.0
 70
     8
 71
     3
 72
     8
 73
     4
 74
     0
 42
0.000000001
 43
0.0000000001
 40
0.0
 40
0.0
 40
0.0
 40
0.0
 40
1.0
 40
1.0
 40
1.0
 40
1.0
 10
14.48305130466151
 20
-16.45845658974826
 30
0.0
 10
14.48523127803785
 20
-16.45854975100603
 30
0.0
 10
14.48633058085165
 20
-16.45881991865343
 30
0.0
 10
14.48759888734391
 20
-16.4591832475588
 30
0.0
  0
LINE
  5
F1
330
70
100
AcDbEntity
  8
Livello 1
370
     9
100
AcDbLine
 10
10.38759867205435
 20
-16.46373883306301
 30
0.0
 11
4.243866468314438
 21
-16.46373883306301
 31
0.0
  0
SPLINE
  5
F2
330
70
100
AcDbEntity
  8
Livello 1
370
     9
100
AcDbSpline
210
0.0
220
0.0
230
1.0
 70
    24
 71
     3
 72
    26
 73
    22
 74
     0
 42
0.000000001
 43
0.0000000001
 40
0.0
 40
0.0
 40
0.0
 40
0.0
 40
1.0
 40
1.0
 40
1.0
 40
2.0
 40
2.0
 40
2.0
 40
3.0
 40
3.0
 40
3.0
 40
4.0
 40
4.0
 40
4.0
 40
5.0
 40
5.0
 40
5.0
 40
6.0
 40
6.0
 40
6.0
 40
7.0
 40
7.0
 40
7.0
 40
7.0
 10
16.53132261430915
 20
-16.46373883306301
 30
0.0
 10
16.53368891019634
 20
-16.46373883306301
 30
0.0
 10
16.529321012315
 20
-16.46373883306301
 30
0.0
 10
16.52822966062979
 20
-16.46373883306301
 30
0.0
 10
16.51931412848782
 20
-16.46373883306301
 30
0.0
 10
16.51003663195959
 20
-16.46373883306301
 30
0.0
 10
16.50111973530776
 20
-16.46373883306301
 30
0.0
 10
16.45709172600468
 20
-16.46373883306301
 30
0.0
 10
16.41305576263608
 20
-16.46373883306301
 30
0.0
 10
16.36901707514752
 20
-16.46373883306301
 30
0.0
 10
16.16814277624954
 20
-16.46373883306301
 30
0.0
 10
15.96708215484066
 20
-16.46373883306301
 30
0.0
 10
15.76638486232783
 20
-16.46373883306301
 30
0.0
 10
15.51036841635727
 20
-16.46373883306301
 30
0.0
 10
15.25436128651227
 20
-16.46373883306301
 30
0.0
 10
14.99816783415643
 20
-16.46373883306301
 30
0.0
 10
14.48614425834081
 20
-16.46373883306301
 30
0.0
 10
13.97394367613997
 20
-16.46373883306301
 30
0.0
 10
13.46173377781356
 20
-16.46373883306301
 30
0.0
 10
12.43714629090104
 20
-16.46373883306301
 30
0.0
 10
11.41237248147768
 20
-16.46373883306301
 30
0.0
 10
10.38759867205435
 20
-16.46373883306301
 30
0.0
  0
LINE
  5
F3
330
70
100
AcDbEntity
  8
Livello 1
370
     9
100
AcDbLine
 10
16.18997977451574
 20
-16.46118621460049
 30
0.0
 11
16.18997977451574
 21
-16.46373883306301
 31
0.0
  0
LINE
  5
F4
330
70
100
AcDbEntity
  8
Livello 1
370
     9
100
AcDbLine
 10
15.92632410560222
 20
-16.46118621460049
 30
0.0
 11
15.92632410560222
 21
-16.46373883306301
 31
0.0
  0
SPLINE
  5
F5
330
70
100
AcDbEntity
  8
Livello 1
370
     9
100
AcDbSpline
210
0.0
220
0.0
230
1.0
 70
     8
 71
     3
 72
     8
 73
     4
 74
     0
 42
0.000000001
 43
0.0000000001
 40
0.0
 40
0.0
 40
0.0
 40
0.0
 40
1.0
 40
1.0
 40
1.0
 40
1.0
 10
15.9661691745377
 20
-16.4591832475588
 30
0.0
 10
15.96763180624749
 20
-16.45864291226373
 30
0.0
 10
15.96908512183178
 20
-16.45845658974826
 30
0.0
 10
15.97145141771903
 20
-16.45845658974826
 30
0.0
  0
LINE
  5
F6
330
70
100
AcDbEntity
  8
Livello 1
370
     9
100
AcDbLine
 10
10.50914737489221
 20
-16.45845658974826
 30
0.0
 11
10.47748065126633
 21
-16.45845658974826
 31
0.0
  0
LINE
  5
F7
330
70
100
AcDbEntity
  8
Livello 1
370
     9
100
AcDbLine
 10
10.47347471728401
 20
-16.45845658974826
 30
0.0
 11
10.30171331069916
 21
-16.45845658974826
 31
0.0
  0
LINE
  5
F8
330
70
100
AcDbEntity
  8
Livello 1
370
     9
100
AcDbLine
 10
10.29644038364339
 20
-16.45845658974826
 30
0.0
 11
10.27478039176241
 21
-16.45845658974826
 31
0.0
  0
SPLINE
  5
F9
330
70
100
AcDbEntity
  8
Livello 1
370
     9
100
AcDbSpline
210
0.0
220
0.0
230
1.0
 70
     8
 71
     3
 72
     8
 73
     4
 74
     0
 42
0.000000001
 43
0.0000000001
 40
0.0
 40
0.0
 40
0.0
 40
0.0
 40
1.0
 40
1.0
 40
1.0
 40
1.0
 10
10.25895229446956
 20
-16.4591832475588
 30
0.0
 10
10.25677352763231
 20
-16.45973289897955
 30
0.0
 10
10.25585934079023
 20
-16.46028255040019
 30
0.0
 10
10.25585934079023
 20
-16.46118621460049
 30
0.0
  0
SPLINE
  5
FA
330
70
100
AcDbEntity
  8
Livello 1
370
     9
100
AcDbSpline
210
0.0
220
0.0
230
1.0
 70
    24
 71
     3
 72
    17
 73
    13
 74
     0
 42
0.000000001
 43
0.0000000001
 40
0.0
 40
0.0
 40
0.0
 40
0.0
 40
1.0
 40
1.0
 40
1.0
 40
2.0
 40
2.0
 40
2.0
 40
3.0
 40
3.0
 40
3.0
 40
4.0
 40
4.0
 40
4.0
 40
4.0
 10
15.92923073677074
 20
-16.4591832475588
 30
0.0
 10
15.92632410560222
 20
-16.4591832475588
 30
0.0
 10
15.9323236904501
 20
-16.4591832475588
 30
0.0
 10
15.93396332854517
 20
-16.4591832475588
 30
0.0
 10
15.9354179941232
 20
-16.4591832475588
 30
0.0
 10
15.93705628222454
 20
-16.4591832475588
 30
0.0
 10
15.93851891393433
 20
-16.4591832475588
 30
0.0
 10
15.94142554510285
 20
-16.4591832475588
 30
0.0
 10
15.94488182767834
 20
-16.4591832475588
 30
0.0
 10
15.94779777497236
 20
-16.4591832475588
 30
0.0
 10
15.95379735982031
 20
-16.4591832475588
 30
0.0
 10
15.96016958968982
 20
-16.4591832475588
 30
0.0
 10
15.9661691745377
 20
-16.4591832475588
 30
0.0
  0
SPLINE
  5
FB
330
70
100
AcDbEntity
  8
Livello 1
370
     9
100
AcDbSpline
210
0.0
220
0.0
230
1.0
 70
     8
 71
     3
 72
     8
 73
     4
 74
     0
 42
0.000000001
 43
0.0000000001
 40
0.0
 40
0.0
 40
0.0
 40
0.0
 40
1.0
 40
1.0
 40
1.0
 40
1.0
 10
10.51969201608899
 20
-16.46118621460049
 30
0.0
 10
10.51969201608899
 20
-16.4591832475588
 30
0.0
 10
10.51660027551266
 20
-16.45845658974826
 30
0.0
 10
10.50914737489221
 20
-16.45845658974826
 30
0.0
  0
LINE
  5
FC
330
70
100
AcDbEntity
  8
Livello 1
370
     9
100
AcDbLine
 10
10.51969201608899
 20
-16.46118621460049
 30
0.0
 11
10.51969201608899
 21
-16.46373883306301
 31
0.0
  0
LINE
  5
FD
330
70
100
AcDbEntity
  8
Livello 1
370
     9
100
AcDbLine
 10
10.25585934079023
 20
-16.46373883306301
 30
0.0
 11
10.25585934079023
 21
-16.46118621460049
 31
0.0
  0
LINE
  5
FE
330
70
100
AcDbEntity
  8
Livello 1
370
     9
100
AcDbLine
 10
6.463907446032137
 20
-16.45845658974826
 30
0.0
 11
6.292323045832536
 21
-16.45845658974826
 31
0.0
  0
LINE
  5
FF
330
70
100
AcDbEntity
  8
Livello 1
370
     9
100
AcDbLine
 10
6.288317111850247
 20
-16.45845658974826
 30
0.0
 11
6.259390542047865
 21
-16.45845658974826
 31
0.0
  0
SPLINE
  5
100
330
70
100
AcDbEntity
  8
Livello 1
370
     9
100
AcDbSpline
210
0.0
220
0.0
230
1.0
 70
     8
 71
     3
 72
     8
 73
     4
 74
     0
 42
0.000000001
 43
0.0000000001
 40
0.0
 40
0.0
 40
0.0
 40
0.0
 40
1.0
 40
1.0
 40
1.0
 40
1.0
 10
15.92632410560222
 20
-16.46118621460049
 30
0.0
 10
15.92632410560222
 20
-16.46028255040019
 30
0.0
 10
15.92723708590518
 20
-16.45973289897955
 30
0.0
 10
15.92923073677074
 20
-16.4591832475588
 30
0.0
  0
LINE
  5
101
330
70
100
AcDbEntity
  8
Livello 1
370
     9
100
AcDbLine
 10
16.14994838306948
 20
-16.4591832475588
 30
0.0
 11
16.18706382722165
 21
-16.4591832475588
 31
0.0
  0
SPLINE
  5
102
330
70
100
AcDbEntity
  8
Livello 1
370
     9
100
AcDbSpline
210
0.0
220
0.0
230
1.0
 70
    24
 71
     3
 72
    20
 73
    16
 74
     0
 42
0.000000001
 43
0.0000000001
 40
0.0
 40
0.0
 40
0.0
 40
0.0
 40
1.0
 40
1.0
 40
1.0
 40
2.0
 40
2.0
 40
2.0
 40
3.0
 40
3.0
 40
3.0
 40
4.0
 40
4.0
 40
4.0
 40
5.0
 40
5.0
 40
5.0
 40
5.0
 10
6.496839949816808
 20
-16.45845658974826
 30
0.0
 10
6.497752930119733
 20
-16.45845658974826
 30
0.0
 10
6.498656594297158
 20
-16.45845658974826
 30
0.0
 10
6.499383252089272
 20
-16.45845658974826
 30
0.0
 10
6.500845883799097
 20
-16.45845658974826
 30
0.0
 10
6.497929936505012
 20
-16.45845658974826
 30
0.0
 10
6.497389601223676
 20
-16.45845658974826
 30
0.0
 10
6.495749963128605
 20
-16.45845658974826
 30
0.0
 10
6.494110325033533
 20
-16.45845658974826
 30
0.0
 10
6.49247068693843
 20
-16.45845658974826
 30
0.0
 10
6.489377733259098
 20
-16.45845658974826
 30
0.0
 10
6.48610777319452
 20
-16.45845658974826
 30
0.0
 10
6.483014819515124
 20
-16.45845658974826
 30
0.0
 10
6.476642589645617
 20
-16.45845658974826
 30
0.0
 10
6.470270359776143
 20
-16.45845658974826
 30
0.0
 10
6.463907446032137
 20
-16.45845658974826
 30
0.0
  0
SPLINE
  5
103
330
70
100
AcDbEntity
  8
Livello 1
370
     9
100
AcDbSpline
210
0.0
220
0.0
230
1.0
 70
     8
 71
     3
 72
     8
 73
     4
 74
     0
 42
0.000000001
 43
0.0000000001
 40
0.0
 40
0.0
 40
0.0
 40
0.0
 40
1.0
 40
1.0
 40
1.0
 40
1.0
 10
16.14393948209603
 20
-16.45845658974826
 30
0.0
 10
16.146128771598
 20
-16.45854975100603
 30
0.0
 10
16.14721875828617
 20
-16.45881991865343
 30
0.0
 10
16.14849506748518
 20
-16.4591832475588
 30
0.0
  0
SPLINE
  5
104
330
70
100
AcDbEntity
  8
Livello 1
370
     9
100
AcDbSpline
210
0.0
220
0.0
230
1.0
 70
     8
 71
     3
 72
     8
 73
     4
 74
     0
 42
0.000000001
 43
0.0000000001
 40
0.0
 40
0.0
 40
0.0
 40
0.0
 40
1.0
 40
1.0
 40
1.0
 40
1.0
 10
16.18688682083637
 20
-16.4591832475588
 30
0.0
 10
16.18906679421284
 20
-16.45973289897955
 30
0.0
 10
16.18997977451574
 20
-16.46028255040019
 30
0.0
 10
16.18997977451574
 20
-16.46118621460049
 30
0.0
  0
LINE
  5
105
330
70
100
AcDbEntity
  8
Livello 1
370
     9
100
AcDbLine
 10
4.717311980228275
 20
-16.45845658974826
 30
0.0
 11
4.597952713206474
 21
-16.45845658974826
 31
0.0
  0
LINE
  5
106
330
70
100
AcDbEntity
  8
Livello 1
370
     9
100
AcDbLine
 10
4.585395639246308
 20
-16.46118621460049
 30
0.0
 11
4.585395639246308
 21
-16.46373883306301
 31
0.0
  0
LINE
  5
107
330
70
100
AcDbEntity
  8
Livello 1
370
     9
100
AcDbLine
 10
4.849228321210112
 20
-16.46118621460049
 30
0.0
 11
4.849228321210112
 21
-16.46373883306301
 31
0.0
  0
SPLINE
  5
108
330
70
100
AcDbEntity
  8
Livello 1
370
     9
100
AcDbSpline
210
0.0
220
0.0
230
1.0
 70
    24
 71
     3
 72
    20
 73
    16
 74
     0
 42
0.000000001
 43
0.0000000001
 40
0.0
 40
0.0
 40
0.0
 40
0.0
 40
1.0
 40
1.0
 40
1.0
 40
2.0
 40
2.0
 40
2.0
 40
3.0
 40
3.0
 40
3.0
 40
4.0
 40
4.0
 40
4.0
 40
5.0
 40
5.0
 40
5.0
 40
5.0
 10
4.836492107663588
 20
-16.45845658974826
 30
0.0
 10
4.836855436559646
 20
-16.45845658974826
 30
0.0
 10
4.838131745758659
 20
-16.45845658974826
 30
0.0
 10
4.837583163990616
 20
-16.45845658974826
 30
0.0
 10
4.833399153984225
 20
-16.45845658974826
 30
0.0
 10
4.829402536127468
 20
-16.45845658974826
 30
0.0
 10
4.825210279634369
 20
-16.45845658974826
 30
0.0
 10
4.820114358963876
 20
-16.45845658974826
 30
0.0
 10
4.814841431908138
 20
-16.45845658974826
 30
0.0
 10
4.809931833748424
 20
-16.45845658974826
 30
0.0
 10
4.799553669896629
 20
-16.45845658974826
 30
0.0
 10
4.789184822170366
 20
-16.45845658974826
 30
0.0
 10
4.778992980829381
 20
-16.45845658974826
 30
0.0
 10
4.758432291762134
 20
-16.45845658974826
 30
0.0
 10
4.737871602694886
 20
-16.45845658974826
 30
0.0
 10
4.717311980228275
 20
-16.45845658974826
 30
0.0
  0
LINE
  5
109
330
70
100
AcDbEntity
  8
Livello 1
370
     9
100
AcDbLine
 10
4.80920517595631
 20
-16.4591832475588
 30
0.0
 11
4.845957291212426
 21
-16.4591832475588
 31
0.0
  0
SPLINE
  5
10A
330
70
100
AcDbEntity
  8
Livello 1
370
     9
100
AcDbSpline
210
0.0
220
0.0
230
1.0
 70
     8
 71
     3
 72
     8
 73
     4
 74
     0
 42
0.000000001
 43
0.0000000001
 40
0.0
 40
0.0
 40
0.0
 40
0.0
 40
1.0
 40
1.0
 40
1.0
 40
1.0
 10
4.803196274982893
 20
-16.45845658974826
 30
0.0
 10
4.805199241974021
 20
-16.45854975100603
 30
0.0
 10
4.806475551173003
 20
-16.45881991865343
 30
0.0
 10
4.807565537861206
 20
-16.4591832475588
 30
0.0
  0
SPLINE
  5
10B
330
70
100
AcDbEntity
  8
Livello 1
370
     9
100
AcDbSpline
210
0.0
220
0.0
230
1.0
 70
    24
 71
     3
 72
    20
 73
    16
 74
     0
 42
0.000000001
 43
0.0000000001
 40
0.0
 40
0.0
 40
0.0
 40
0.0
 40
1.0
 40
1.0
 40
1.0
 40
2.0
 40
2.0
 40
2.0
 40
3.0
 40
3.0
 40
3.0
 40
4.0
 40
4.0
 40
4.0
 40
5.0
 40
5.0
 40
5.0
 40
5.0
 10
16.1774216372875
 20
-16.45845658974826
 30
0.0
 10
16.17778496618362
 20
-16.45845658974826
 30
0.0
 10
16.17906127538264
 20
-16.45845658974826
 30
0.0
 10
16.17833461759052
 20
-16.45845658974826
 30
0.0
 10
16.1743286836082
 20
-16.45845658974826
 30
0.0
 10
16.17014574324067
 20
-16.45845658974826
 30
0.0
 10
16.16596280287307
 20
-16.45845658974826
 30
0.0
 10
16.16086823789171
 20
-16.45845658974826
 30
0.0
 10
16.15577096153209
 20
-16.45845658974826
 30
0.0
 10
16.15067504086159
 20
-16.45845658974826
 30
0.0
 10
16.14048319952061
 20
-16.45845658974826
 30
0.0
 10
16.13011435179435
 20
-16.45845658974826
 30
0.0
 10
16.11992251045336
 20
-16.45845658974826
 30
0.0
 10
16.09918481500083
 20
-16.45845658974826
 30
0.0
 10
16.07862412593359
 20
-16.45845658974826
 30
0.0
 10
16.05806343686634
 20
-16.45845658974826
 30
0.0
  0
SPLINE
  5
10C
330
70
100
AcDbEntity
  8
Livello 1
370
     9
100
AcDbSpline
210
0.0
220
0.0
230
1.0
 70
     8
 71
     3
 72
     8
 73
     4
 74
     0
 42
0.000000001
 43
0.0000000001
 40
0.0
 40
0.0
 40
0.0
 40
0.0
 40
1.0
 40
1.0
 40
1.0
 40
1.0
 10
4.845957291212426
 20
-16.4591832475588
 30
0.0
 10
4.848323587099645
 20
-16.45973289897955
 30
0.0
 10
4.849228321210112
 20
-16.46028255040019
 30
0.0
 10
4.849228321210112
 20
-16.46118621460049
 30
0.0
  0
SPLINE
  5
10D
330
70
100
AcDbEntity
  8
Livello 1
370
     9
100
AcDbSpline
210
0.0
220
0.0
230
1.0
 70
     8
 71
     3
 72
     8
 73
     4
 74
     0
 42
0.000000001
 43
0.0000000001
 40
0.0
 40
0.0
 40
0.0
 40
0.0
 40
1.0
 40
1.0
 40
1.0
 40
1.0
 10
4.625425967424532
 20
-16.4591832475588
 30
0.0
 10
4.626702276623546
 20
-16.45864291226373
 30
0.0
 10
4.628156656556175
 20
-16.45845658974826
 30
0.0
 10
4.630698894480302
 20
-16.45845658974826
 30
0.0
  0
LINE
  5
10E
330
70
100
AcDbEntity
  8
Livello 1
370
     9
100
AcDbLine
 10
16.05806343686634
 20
-16.45845658974826
 30
0.0
 11
15.93869592031961
 21
-16.45845658974826
 31
0.0
  0
SPLINE
  5
10F
330
70
100
AcDbEntity
  8
Livello 1
370
     9
100
AcDbSpline
210
0.0
220
0.0
230
1.0
 70
    24
 71
     3
 72
    17
 73
    13
 74
     0
 42
0.000000001
 43
0.0000000001
 40
0.0
 40
0.0
 40
0.0
 40
0.0
 40
1.0
 40
1.0
 40
1.0
 40
2.0
 40
2.0
 40
2.0
 40
3.0
 40
3.0
 40
3.0
 40
4.0
 40
4.0
 40
4.0
 40
4.0
 10
4.588487529657604
 20
-16.4591832475588
 30
0.0
 10
4.585395639246308
 20
-16.4591832475588
 30
0.0
 10
4.591580483336936
 20
-16.4591832475588
 30
0.0
 10
4.593034862382319
 20
-16.4591832475588
 30
0.0
 10
4.594673437016299
 20
-16.4591832475588
 30
0.0
 10
4.596136068726092
 20
-16.4591832475588
 30
0.0
 10
4.597766390695631
 20
-16.4591832475588
 30
0.0
 10
4.600682337989717
 20
-16.4591832475588
 30
0.0
 10
4.603775291669081
 20
-16.4591832475588
 30
0.0
 10
4.606868245348445
 20
-16.4591832475588
 30
0.0
 10
4.613231159092387
 20
-16.4591832475588
 30
0.0
 10
4.619240060065836
 20
-16.4591832475588
 30
0.0
 10
4.625425967424532
 20
-16.4591832475588
 30
0.0
  0
SPLINE
  5
110
330
70
100
AcDbEntity
  8
Livello 1
370
     9
100
AcDbSpline
210
0.0
220
0.0
230
1.0
 70
     8
 71
     3
 72
     8
 73
     4
 74
     0
 42
0.000000001
 43
0.0000000001
 40
0.0
 40
0.0
 40
0.0
 40
0.0
 40
1.0
 40
1.0
 40
1.0
 40
1.0
 10
4.585395639246308
 20
-16.46118621460049
 30
0.0
 10
4.585395639246308
 20
-16.46028255040019
 30
0.0
 10
4.586307556281197
 20
-16.45973289897955
 30
0.0
 10
4.588487529657604
 20
-16.4591832475588
 30
0.0
  0
SPLINE
  5
111
330
70
100
AcDbEntity
  8
Livello 1
370
     9
100
AcDbSpline
210
0.0
220
0.0
230
1.0
 70
    24
 71
     3
 72
    20
 73
    16
 74
     0
 42
0.000000001
 43
0.0000000001
 40
0.0
 40
0.0
 40
0.0
 40
0.0
 40
1.0
 40
1.0
 40
1.0
 40
2.0
 40
2.0
 40
2.0
 40
3.0
 40
3.0
 40
3.0
 40
4.0
 40
4.0
 40
4.0
 40
5.0
 40
5.0
 40
5.0
 40
5.0
 10
14.51598380844614
 20
-16.45845658974826
 30
0.0
 10
14.51689678874904
 20
-16.45845658974826
 30
0.0
 10
14.51762344654115
 20
-16.45845658974826
 30
0.0
 10
14.51871474743422
 20
-16.45845658974826
 30
0.0
 10
14.51980341991762
 20
-16.45845658974826
 30
0.0
 10
14.51743712403037
 20
-16.45845658974826
 30
0.0
 10
14.51689678874904
 20
-16.45845658974826
 30
0.0
 10
14.51562047955002
 20
-16.45845658974826
 30
0.0
 10
14.51398084145502
 20
-16.45845658974826
 30
0.0
 10
14.51252752587066
 20
-16.45845658974826
 30
0.0
 10
14.50979790108742
 20
-16.45845658974826
 30
0.0
 10
14.50689126991883
 20
-16.45845658974826
 30
0.0
 10
14.50416164513559
 20
-16.45845658974826
 30
0.0
 10
14.4985160730582
 20
-16.45845658974826
 30
0.0
 10
14.49287981710637
 20
-16.45845658974826
 30
0.0
 10
14.48723424502898
 20
-16.45845658974826
 30
0.0
  0
LINE
  5
112
330
70
100
AcDbEntity
  8
Livello 1
370
     9
100
AcDbLine
 10
14.48305130466151
 20
-16.45845658974826
 30
0.0
 11
14.31146690446184
 21
-16.45845658974826
 31
0.0
  0
LINE
  5
113
330
70
100
AcDbEntity
  8
Livello 1
370
     9
100
AcDbLine
 10
6.246105747027549
 20
-16.46118621460049
 30
0.0
 11
6.246105747027549
 21
-16.46373883306301
 31
0.0
  0
LINE
  5
114
330
70
100
AcDbEntity
  8
Livello 1
370
     9
100
AcDbLine
 10
6.509938422326346
 20
-16.46118621460049
 30
0.0
 11
6.509938422326346
 21
-16.46373883306301
 31
0.0
  0
LINE
  5
115
330
70
100
AcDbEntity
  8
Livello 1
370
     9
100
AcDbLine
 10
14.30583064851001
 20
-16.45845658974826
 30
0.0
 11
14.2785344006772
 21
-16.45845658974826
 31
0.0
  0
SPLINE
  5
116
330
70
100
AcDbEntity
  8
Livello 1
370
     9
100
AcDbSpline
210
0.0
220
0.0
230
1.0
 70
     8
 71
     3
 72
     8
 73
     4
 74
     0
 42
0.000000001
 43
0.0000000001
 40
0.0
 40
0.0
 40
0.0
 40
0.0
 40
1.0
 40
1.0
 40
1.0
 40
1.0
 10
6.507032902970522
 20
-16.4591832475588
 30
0.0
 10
6.5092117645342
 20
-16.45973289897955
 30
0.0
 10
6.509938422326346
 20
-16.46028255040019
 30
0.0
 10
6.509938422326346
 20
-16.46118621460049
 30
0.0
  0
LINE
  5
117
330
70
100
AcDbEntity
  8
Livello 1
370
     9
100
AcDbLine
 10
6.469366695598719
 20
-16.4591832475588
 30
0.0
 11
6.504115843863707
 21
-16.4591832475588
 31
0.0
  0
SPLINE
  5
118
330
70
100
AcDbEntity
  8
Livello 1
370
     9
100
AcDbSpline
210
0.0
220
0.0
230
1.0
 70
     8
 71
     3
 72
     8
 73
     4
 74
     0
 42
0.000000001
 43
0.0000000001
 40
0.0
 40
0.0
 40
0.0
 40
0.0
 40
1.0
 40
1.0
 40
1.0
 40
1.0
 10
4.242412098089785
 20
-16.46373883306301
 30
0.0
 10
4.234949881532075
 20
-16.46373883306301
 30
0.0
 10
4.231856927852743
 20
-16.46446549087341
 30
0.0
 10
4.231856927852743
 20
-16.46628213539971
 30
0.0
  0
SPLINE
  5
119
330
70
100
AcDbEntity
  8
Livello 1
370
     9
100
AcDbSpline
210
0.0
220
0.0
230
1.0
 70
     8
 71
     3
 72
     8
 73
     4
 74
     0
 42
0.000000001
 43
0.0000000001
 40
0.0
 40
0.0
 40
0.0
 40
0.0
 40
1.0
 40
1.0
 40
1.0
 40
1.0
 10
16.53296225240416
 20
-16.46373883306301
 30
0.0
 10
16.54060147534718
 20
-16.46373883306301
 30
0.0
 10
16.54351742264127
 20
-16.46446549087341
 30
0.0
 10
16.54351742264127
 20
-16.46628213539971
 30
0.0
  0
LINE
  5
11A
330
70
100
AcDbEntity
  8
Livello 1
370
     9
100
AcDbLine
 10
10.25895229446956
 20
-16.4591832475588
 30
0.0
 11
10.29589073223652
 21
-16.4591832475588
 31
0.0
  0
SPLINE
  5
11B
330
70
100
AcDbEntity
  8
Livello 1
370
     9
100
AcDbSpline
210
0.0
220
0.0
230
1.0
 70
     8
 71
     3
 72
     8
 73
     4
 74
     0
 42
0.000000001
 43
0.0000000001
 40
0.0
 40
0.0
 40
0.0
 40
0.0
 40
1.0
 40
1.0
 40
1.0
 40
1.0
 10
10.47347471728401
 20
-16.45845658974826
 30
0.0
 10
10.47566400678598
 20
-16.45854975100603
 30
0.0
 10
10.47675399347415
 20
-16.45873607352149
 30
0.0
 10
10.47784519228625
 20
-16.4591832475588
 30
0.0
  0
LINE
  5
11C
330
70
100
AcDbEntity
  8
Livello 1
370
     9
100
AcDbLine
 10
10.47803151480183
 20
-16.4591832475588
 30
0.0
 11
10.51660027551266
 21
-16.4591832475588
 31
0.0
  0
SPLINE
  5
11D
330
70
100
AcDbEntity
  8
Livello 1
370
     9
100
AcDbSpline
210
0.0
220
0.0
230
1.0
 70
     8
 71
     3
 72
     8
 73
     4
 74
     0
 42
0.000000001
 43
0.0000000001
 40
0.0
 40
0.0
 40
0.0
 40
0.0
 40
1.0
 40
1.0
 40
1.0
 40
1.0
 10
10.29589073223652
 20
-16.4591832475588
 30
0.0
 10
10.29734404782078
 20
-16.45864291226373
 30
0.0
 10
10.29862035701979
 20
-16.45845658974826
 30
0.0
 10
10.30116365929229
 20
-16.45845658974826
 30
0.0
  0
SPLINE
  5
11E
330
70
100
AcDbEntity
  8
Livello 1
370
     9
100
AcDbSpline
210
0.0
220
0.0
230
1.0
 70
     8
 71
     3
 72
     8
 73
     4
 74
     0
 42
0.000000001
 43
0.0000000001
 40
0.0
 40
0.0
 40
0.0
 40
0.0
 40
1.0
 40
1.0
 40
1.0
 40
1.0
 10
6.246105747027549
 20
-16.46118621460049
 30
0.0
 10
6.246105747027549
 20
-16.46028255040019
 30
0.0
 10
6.247195733715752
 20
-16.45973289897955
 30
0.0
 10
6.24919870070688
 20
-16.4591832475588
 30
0.0
  0
SPLINE
  5
11F
330
70
100
AcDbEntity
  8
Livello 1
370
     9
100
AcDbSpline
210
0.0
220
0.0
230
1.0
 70
    24
 71
     3
 72
    17
 73
    13
 74
     0
 42
0.000000001
 43
0.0000000001
 40
0.0
 40
0.0
 40
0.0
 40
0.0
 40
1.0
 40
1.0
 40
1.0
 40
2.0
 40
2.0
 40
2.0
 40
3.0
 40
3.0
 40
3.0
 40
4.0
 40
4.0
 40
4.0
 40
4.0
 10
6.24919870070688
 20
-16.4591832475588
 30
0.0
 10
6.246282753412795
 20
-16.4591832475588
 30
0.0
 10
6.252291654386245
 20
-16.4591832475588
 30
0.0
 10
6.253931292481316
 20
-16.4591832475588
 30
0.0
 10
6.255570930576387
 20
-16.4591832475588
 30
0.0
 10
6.257024246160679
 20
-16.4591832475588
 30
0.0
 10
6.258664989794235
 20
-16.4591832475588
 30
0.0
 10
6.261570515424272
 20
-16.4591832475588
 30
0.0
 10
6.264663469103636
 20
-16.4591832475588
 30
0.0
 10
6.267756422783
 20
-16.4591832475588
 30
0.0
 10
6.273943436066033
 20
-16.4591832475588
 30
0.0
 10
6.280128237500391
 20
-16.4591832475588
 30
0.0
 10
6.286314144859087
 20
-16.4591832475588
 30
0.0
  0
SPLINE
  5
120
330
70
100
AcDbEntity
  8
Livello 1
370
     9
100
AcDbSpline
210
0.0
220
0.0
230
1.0
 70
     8
 71
     3
 72
     8
 73
     4
 74
     0
 42
0.000000001
 43
0.0000000001
 40
0.0
 40
0.0
 40
0.0
 40
0.0
 40
1.0
 40
1.0
 40
1.0
 40
1.0
 10
6.286863796265954
 20
-16.45900624116903
 30
0.0
 10
6.288140105464969
 20
-16.45864291226373
 30
0.0
 10
6.289594527369111
 20
-16.45845658974826
 30
0.0
 10
6.29159638804039
 20
-16.45845658974826
 30
0.0
  0
LINE
  5
121
330
70
100
AcDbEntity
  8
Livello 1
370
     9
100
AcDbLine
 10
14.52926860346649
 20
-16.46118621460049
 30
0.0
 11
14.52926860346649
 21
-16.46373883306301
 31
0.0
  0
LINE
  5
122
330
70
100
AcDbEntity
  8
Livello 1
370
     9
100
AcDbLine
 10
14.30400468790416
 20
-16.46118621460049
 30
0.0
 11
14.26816555295094
 21
-16.46118621460049
 31
0.0
  0
SPLINE
  5
123
330
70
100
AcDbEntity
  8
Livello 1
370
     9
100
AcDbSpline
210
0.0
220
0.0
230
1.0
 70
    24
 71
     3
 72
    23
 73
    19
 74
     0
 42
0.000000001
 43
0.0000000001
 40
0.0
 40
0.0
 40
0.0
 40
0.0
 40
1.0
 40
1.0
 40
1.0
 40
2.0
 40
2.0
 40
2.0
 40
3.0
 40
3.0
 40
3.0
 40
4.0
 40
4.0
 40
4.0
 40
5.0
 40
5.0
 40
5.0
 40
6.0
 40
6.0
 40
6.0
 40
6.0
 10
14.52654029308579
 20
-16.46118621460049
 30
0.0
 10
14.5272656364753
 20
-16.46118621460049
 30
0.0
 10
14.53108524794684
 20
-16.46118621460049
 30
0.0
 10
14.52926860346649
 20
-16.46118621460049
 30
0.0
 10
14.52817861677826
 20
-16.46118621460049
 30
0.0
 10
14.52708863009002
 20
-16.46118621460049
 30
0.0
 10
14.52598932727635
 20
-16.46118621460049
 30
0.0
 10
14.51853642684417
 20
-16.46118621460049
 30
0.0
 10
14.51088920178284
 20
-16.46118621460049
 30
0.0
 10
14.50361199372869
 20
-16.46118621460049
 30
0.0
 10
14.4939698037946
 20
-16.46118621460049
 30
0.0
 10
14.48450462024573
 20
-16.46118621460049
 30
0.0
 10
14.47504875282243
 20
-16.46118621460049
 30
0.0
 10
14.45611838572469
 20
-16.46118621460049
 30
0.0
 10
14.43702032836729
 20
-16.46118621460049
 30
0.0
 10
14.41808996126956
 20
-16.46118621460049
 30
0.0
 10
14.38006153681443
 20
-16.46118621460049
 30
0.0
 10
14.34203311235929
 20
-16.46118621460049
 30
0.0
 10
14.30400468790416
 20
-16.46118621460049
 30
0.0
  0
SPLINE
  5
124
330
70
100
AcDbEntity
  8
Livello 1
370
     9
100
AcDbSpline
210
0.0
220
0.0
230
1.0
 70
     8
 71
     3
 72
     8
 73
     4
 74
     0
 42
0.000000001
 43
0.0000000001
 40
0.0
 40
0.0
 40
0.0
 40
0.0
 40
1.0
 40
1.0
 40
1.0
 40
1.0
 10
14.31146690446184
 20
-16.45845658974826
 30
0.0
 10
14.30528230591626
 20
-16.45873607352149
 30
0.0
 10
14.3031010237267
 20
-16.45954657646403
 30
0.0
 10
14.30400468790416
 20
-16.46118621460049
 30
0.0
  0
LINE
  5
125
330
70
100
AcDbEntity
  8
Livello 1
370
     9
100
AcDbLine
 10
16.05806343686634
 20
-16.46373883306301
 30
0.0
 11
16.05806343686634
 21
-16.46118621460049
 31
0.0
  0
LINE
  5
126
330
70
100
AcDbEntity
  8
Livello 1
370
     9
100
AcDbLine
 10
16.05806343686634
 20
-16.46118621460049
 30
0.0
 11
15.92832707259335
 21
-16.46118621460049
 31
0.0
  0
LINE
  5
128
330
70
100
AcDbEntity
  8
Livello 1
370
     9
100
AcDbLine
 10
16.05806343686634
 20
-16.45845658974826
 30
0.0
 11
16.05806343686634
 21
-16.46118621460049
 31
0.0
  0
LINE
  5
129
330
70
100
AcDbEntity
  8
Livello 1
370
     9
100
AcDbLine
 10
4.717311980228275
 20
-16.46118621460049
 30
0.0
 11
4.717311980228275
 21
-16.46373883306301
 31
0.0
  0
SPLINE
  5
12A
330
70
100
AcDbEntity
  8
Livello 1
370
     9
100
AcDbSpline
210
0.0
220
0.0
230
1.0
 70
    24
 71
     3
 72
    20
 73
    16
 74
     0
 42
0.000000001
 43
0.0000000001
 40
0.0
 40
0.0
 40
0.0
 40
0.0
 40
1.0
 40
1.0
 40
1.0
 40
2.0
 40
2.0
 40
2.0
 40
3.0
 40
3.0
 40
3.0
 40
4.0
 40
4.0
 40
4.0
 40
5.0
 40
5.0
 40
5.0
 40
5.0
 10
4.84704727790063
 20
-16.46118621460049
 30
0.0
 10
4.847233600411441
 20
-16.46118621460049
 30
0.0
 10
4.848686915995702
 20
-16.46118621460049
 30
0.0
 10
4.847960258203587
 20
-16.46118621460049
 30
0.0
 10
4.843404672814398
 20
-16.46118621460049
 30
0.0
 10
4.839044726061585
 20
-16.46118621460049
 30
0.0
 10
4.834675463183239
 20
-16.46118621460049
 30
0.0
 10
4.829039207231411
 20
-16.46118621460049
 30
0.0
 10
4.823393635154019
 20
-16.46118621460049
 30
0.0
 10
4.817934385587469
 20
-16.46118621460049
 30
0.0
 10
4.806653626415773
 20
-16.46118621460049
 30
0.0
 10
4.795557052039872
 20
-16.46118621460049
 30
0.0
 10
4.784275224010684
 20
-16.46118621460049
 30
0.0
 10
4.762074896848365
 20
-16.46118621460049
 30
0.0
 10
4.739511240789958
 20
-16.46118621460049
 30
0.0
 10
4.717311980228275
 20
-16.46118621460049
 30
0.0
  0
LINE
  5
12B
330
70
100
AcDbEntity
  8
Livello 1
370
     9
100
AcDbLine
 10
4.717311980228275
 20
-16.46118621460049
 30
0.0
 11
4.717311980228275
 21
-16.45845658974826
 31
0.0
  0
LINE
  5
12C
330
70
100
AcDbEntity
  8
Livello 1
370
     9
100
AcDbLine
 10
4.717311980228275
 20
-16.46118621460049
 30
0.0
 11
4.587583865480179
 21
-16.46118621460049
 31
0.0
  0
LINE
  5
12D
330
70
100
AcDbEntity
  8
Livello 1
370
     9
100
AcDbLine
 10
6.471369662589847
 20
-16.46118621460049
 30
0.0
 11
6.471369662589847
 21
-16.46373883306301
 31
0.0
  0
SPLINE
  5
12E
330
70
100
AcDbEntity
  8
Livello 1
370
     9
100
AcDbSpline
210
0.0
220
0.0
230
1.0
 70
    24
 71
     3
 72
    20
 73
    16
 74
     0
 42
0.000000001
 43
0.0000000001
 40
0.0
 40
0.0
 40
0.0
 40
0.0
 40
1.0
 40
1.0
 40
1.0
 40
2.0
 40
2.0
 40
2.0
 40
3.0
 40
3.0
 40
3.0
 40
4.0
 40
4.0
 40
4.0
 40
5.0
 40
5.0
 40
5.0
 40
5.0
 10
6.507208797543071
 20
-16.46118621460049
 30
0.0
 10
6.508121777845996
 20
-16.46118621460049
 30
0.0
 10
6.509034758148954
 20
-16.46118621460049
 30
0.0
 10
6.509938422326346
 20
-16.46118621460049
 30
0.0
 10
6.511578060421417
 20
-16.46118621460049
 30
0.0
 10
6.508485106742053
 20
-16.46118621460049
 30
0.0
 10
6.507572126439128
 20
-16.46118621460049
 30
0.0
 10
6.505941804469589
 20
-16.46118621460049
 30
0.0
 10
6.504302166374518
 20
-16.46118621460049
 30
0.0
 10
6.502476205768668
 20
-16.46118621460049
 30
0.0
 10
6.499021034803616
 20
-16.46118621460049
 30
0.0
 10
6.495563640617794
 20
-16.46118621460049
 30
0.0
 10
6.492107358042373
 20
-16.46118621460049
 30
0.0
 10
6.485194792891531
 20
-16.46118621460049
 30
0.0
 10
6.478459234125935
 20
-16.46118621460049
 30
0.0
 10
6.471369662589847
 20
-16.46118621460049
 30
0.0
  0
SPLINE
  5
12F
330
70
100
AcDbEntity
  8
Livello 1
370
     9
100
AcDbSpline
210
0.0
220
0.0
230
1.0
 70
     8
 71
     3
 72
     8
 73
     4
 74
     0
 42
0.000000001
 43
0.0000000001
 40
0.0
 40
0.0
 40
0.0
 40
0.0
 40
1.0
 40
1.0
 40
1.0
 40
1.0
 10
6.471369662589847
 20
-16.46118621460049
 30
0.0
 10
6.472097431312193
 20
-16.45954657646403
 30
0.0
 10
6.470270359776143
 20
-16.45873607352149
 30
0.0
 10
6.463907446032137
 20
-16.45845658974826
 30
0.0
  0
LINE
  5
130
330
70
100
AcDbEntity
  8
Livello 1
370
     9
100
AcDbLine
 10
6.471369662589847
 20
-16.46118621460049
 30
0.0
 11
6.249012378196038
 21
-16.46118621460049
 31
0.0
  0
LINE
  5
131
330
70
100
AcDbEntity
  8
Livello 1
370
     9
100
AcDbLine
 10
10.51969201608899
 20
-16.46118621460049
 30
0.0
 11
10.25585934079023
 21
-16.46118621460049
 31
0.0
  0
LINE
  5
132
330
70
100
AcDbEntity
  8
Livello 1
370
     9
100
AcDbLine
 10
10.38759867205435
 20
-16.46637529665753
 30
0.0
 11
10.38759867205435
 21
-16.46373883306301
 31
0.0
  0
LINE
  5
133
330
70
100
AcDbEntity
  8
Livello 1
370
     9
100
AcDbLine
 10
10.38759867205435
 20
-16.46637529665753
 30
0.0
 11
4.233310243437004
 21
-16.46637529665753
 31
0.0
  0
SPLINE
  5
134
330
70
100
AcDbEntity
  8
Livello 1
370
     9
100
AcDbSpline
210
0.0
220
0.0
230
1.0
 70
    24
 71
     3
 72
    26
 73
    22
 74
     0
 42
0.000000001
 43
0.0000000001
 40
0.0
 40
0.0
 40
0.0
 40
0.0
 40
1.0
 40
1.0
 40
1.0
 40
2.0
 40
2.0
 40
2.0
 40
3.0
 40
3.0
 40
3.0
 40
4.0
 40
4.0
 40
4.0
 40
5.0
 40
5.0
 40
5.0
 40
6.0
 40
6.0
 40
6.0
 40
7.0
 40
7.0
 40
7.0
 40
7.0
 10
16.54206410705698
 20
-16.46637529665753
 30
0.0
 10
16.54406707404817
 20
-16.46637529665753
 30
0.0
 10
16.53969781116979
 20
-16.46637529665753
 30
0.0
 10
16.53878483086683
 20
-16.46637529665753
 30
0.0
 10
16.52986929872486
 20
-16.46637529665753
 30
0.0
 10
16.52059043768683
 20
-16.46637529665753
 30
0.0
 10
16.51148858303402
 20
-16.46637529665753
 30
0.0
 10
16.46746193716538
 20
-16.46637529665753
 30
0.0
 10
16.42324624191715
 20
-16.46637529665753
 30
0.0
 10
16.37903191010329
 20
-16.46637529665753
 30
0.0
 10
16.1779712886944
 20
-16.46637529665753
 30
0.0
 10
15.97672434477474
 20
-16.46637529665753
 30
0.0
 10
15.77566372336592
 20
-16.46637529665753
 30
0.0
 10
15.51910694211396
 20
-16.46637529665753
 30
0.0
 10
15.26272716724734
 20
-16.46637529665753
 30
0.0
 10
15.00599337961016
 20
-16.46637529665753
 30
0.0
 10
14.49324314600249
 20
-16.46637529665753
 30
0.0
 10
13.98012958349869
 20
-16.46637529665753
 30
0.0
 10
13.46701730863166
 20
-16.46637529665753
 30
0.0
 10
12.4406025734764
 20
-16.46637529665753
 30
0.0
 10
11.41418912595803
 20
-16.46637529665753
 30
0.0
 10
10.38777567843963
 20
-16.46637529665753
 30
0.0
  0
SPLINE
  5
135
330
70
100
AcDbEntity
  8
Livello 1
370
     9
100
AcDbSpline
210
0.0
220
0.0
230
1.0
 70
    24
 71
     3
 72
    26
 73
    22
 74
     0
 42
0.000000001
 43
0.0000000001
 40
0.0
 40
0.0
 40
0.0
 40
0.0
 40
1.0
 40
1.0
 40
1.0
 40
2.0
 40
2.0
 40
2.0
 40
3.0
 40
3.0
 40
3.0
 40
4.0
 40
4.0
 40
4.0
 40
5.0
 40
5.0
 40
5.0
 40
6.0
 40
6.0
 40
6.0
 40
7.0
 40
7.0
 40
7.0
 40
7.0
 10
4.243866468314438
 20
-16.6333202705554
 30
0.0
 10
4.241862446682917
 20
-16.6333202705554
 30
0.0
 10
4.246045387050484
 20
-16.6333202705554
 30
0.0
 10
4.24714468986422
 20
-16.6333202705554
 30
0.0
 10
4.256237228391468
 20
-16.6333202705554
 30
0.0
 10
4.26533908304425
 20
-16.6333202705554
 30
0.0
 10
4.274254615186253
 20
-16.6333202705554
 30
0.0
 10
4.318282624489269
 20
-16.6333202705554
 30
0.0
 10
4.362496956303127
 20
-16.6333202705554
 30
0.0
 10
4.406534281731708
 20
-16.6333202705554
 30
0.0
 10
4.607408580629748
 20
-16.6333202705554
 30
0.0
 10
4.808105873142542
 20
-16.6333202705554
 30
0.0
 10
5.008989488166147
 20
-16.6333202705554
 30
0.0
 10
5.264996618011177
 20
-16.6333202705554
 30
0.0
 10
5.521014150885668
 20
-16.6333202705554
 30
0.0
 10
5.777021287197934
 20
-16.6333202705554
 30
0.0
 10
6.28923009215314
 20
-16.6333202705554
 30
0.0
 10
6.801253667968764
 20
-16.6333202705554
 30
0.0
 10
7.313640572680446
 20
-16.6333202705554
 30
0.0
 10
8.338414382103778
 20
-16.6333202705554
 30
0.0
 10
9.363001869016297
 20
-16.6333202705554
 30
0.0
 10
10.38759867205435
 20
-16.6333202705554
 30
0.0
  0
LINE
  5
136
330
70
100
AcDbEntity
  8
Livello 1
370
     9
100
AcDbLine
 10
10.38759867205435
 20
-16.6333202705554
 30
0.0
 11
16.53150893681993
 21
-16.6333202705554
 31
0.0
  0
SPLINE
  5
137
330
70
100
AcDbEntity
  8
Livello 1
370
     9
100
AcDbSpline
210
0.0
220
0.0
230
1.0
 70
     8
 71
     3
 72
     8
 73
     4
 74
     0
 42
0.000000001
 43
0.0000000001
 40
0.0
 40
0.0
 40
0.0
 40
0.0
 40
1.0
 40
1.0
 40
1.0
 40
1.0
 10
4.231856927852743
 20
-16.63223028383976
 30
0.0
 10
4.231856927852743
 20
-16.633050102908
 30
0.0
 10
4.234949881532075
 20
-16.6333202705554
 30
0.0
 10
4.242412098089785
 20
-16.6333202705554
 30
0.0
  0
SPLINE
  5
138
330
70
100
AcDbEntity
  8
Livello 1
370
     9
100
AcDbSpline
210
0.0
220
0.0
230
1.0
 70
     8
 71
     3
 72
     8
 73
     4
 74
     0
 42
0.000000001
 43
0.0000000001
 40
0.0
 40
0.0
 40
0.0
 40
0.0
 40
1.0
 40
1.0
 40
1.0
 40
1.0
 10
16.54351742264127
 20
-16.63223028383976
 30
0.0
 10
16.54351742264127
 20
-16.633050102908
 30
0.0
 10
16.54060147534718
 20
-16.6333202705554
 30
0.0
 10
16.53296225240416
 20
-16.6333202705554
 30
0.0
  0
LINE
  5
139
330
70
100
AcDbEntity
  8
Livello 1
370
     9
100
AcDbLine
 10
16.54351742264127
 20
-16.46637529665753
 30
0.0
 11
16.54351742264127
 21
-16.63204396132417
 31
0.0
  0
LINE
  5
13A
330
70
100
AcDbEntity
  8
Livello 1
370
     9
100
AcDbLine
 10
4.231856927852743
 20
-16.46637529665753
 30
0.0
 11
4.231856927852743
 21
-16.63204396132417
 31
0.0
  0
SPLINE
  5
13B
330
70
100
AcDbEntity
  8
Livello 1
370
     9
100
AcDbSpline
210
0.0
220
0.0
230
1.0
 70
    24
 71
     3
 72
    26
 73
    22
 74
     0
 42
0.000000001
 43
0.0000000001
 40
0.0
 40
0.0
 40
0.0
 40
0.0
 40
1.0
 40
1.0
 40
1.0
 40
2.0
 40
2.0
 40
2.0
 40
3.0
 40
3.0
 40
3.0
 40
4.0
 40
4.0
 40
4.0
 40
5.0
 40
5.0
 40
5.0
 40
6.0
 40
6.0
 40
6.0
 40
7.0
 40
7.0
 40
7.0
 40
7.0
 10
16.54206410705698
 20
-16.63223028383976
 30
0.0
 10
16.54406707404817
 20
-16.63223028383976
 30
0.0
 10
16.53969781116979
 20
-16.63223028383976
 30
0.0
 10
16.53878483086683
 20
-16.63223028383976
 30
0.0
 10
16.52986929872486
 20
-16.63223028383976
 30
0.0
 10
16.52059043768683
 20
-16.63223028383976
 30
0.0
 10
16.51148858303402
 20
-16.63223028383976
 30
0.0
 10
16.46746193716538
 20
-16.63223028383976
 30
0.0
 10
16.42324624191715
 20
-16.63223028383976
 30
0.0
 10
16.37903191010329
 20
-16.63223028383976
 30
0.0
 10
16.1779712886944
 20
-16.63223028383976
 30
0.0
 10
15.97672434477474
 20
-16.63223028383976
 30
0.0
 10
15.77566372336592
 20
-16.63223028383976
 30
0.0
 10
15.51910694211396
 20
-16.63223028383976
 30
0.0
 10
15.26272716724734
 20
-16.63223028383976
 30
0.0
 10
15.00599337961016
 20
-16.63223028383976
 30
0.0
 10
14.49324314600249
 20
-16.63223028383976
 30
0.0
 10
13.98012958349869
 20
-16.63223028383976
 30
0.0
 10
13.46701730863166
 20
-16.63223028383976
 30
0.0
 10
12.4406025734764
 20
-16.63223028383976
 30
0.0
 10
11.41418912595803
 20
-16.63223028383976
 30
0.0
 10
10.38777567843963
 20
-16.63223028383976
 30
0.0
  0
LINE
  5
13C
330
70
100
AcDbEntity
  8
Livello 1
370
     9
100
AcDbLine
 10
10.38759867205435
 20
-16.63223028383976
 30
0.0
 11
4.233310243437004
 21
-16.63223028383976
 31
0.0
  0
LINE
  5
13D
330
70
100
AcDbEntity
  8
Livello 1
370
     9
100
AcDbLine
 10
10.38759867205435
 20
-16.6333202705554
 30
0.0
 11
10.38759867205435
 21
-16.63223028383976
 31
0.0
  0
LINE
  5
13E
330
70
100
AcDbEntity
  8
Livello 1
370
     9
100
AcDbLine
 10
14.30400468790416
 20
-16.46373883306301
 30
0.0
 11
14.30400468790416
 21
-16.46118621460049
 31
0.0
  0
LINE
  5
13F
330
70
100
AcDbEntity
  8
Livello 1
370
     9
100
AcDbLine
 10
13.20809294385575
 20
-15.92151236454822
 30
0.0
 11
13.21336587091152
 21
-16.32026117999365
 31
0.0
  0
LINE
  5
140
330
70
100
AcDbEntity
  8
Livello 1
370
     9
100
AcDbLine
 10
7.564551781854984
 20
-16.32026117999365
 30
0.0
 11
7.570011031421533
 21
-15.92151236454822
 31
0.0
  0
SPLINE
  5
141
330
70
100
AcDbEntity
  8
Livello 1
370
     9
100
AcDbSpline
210
0.0
220
0.0
230
1.0
 70
    24
 71
     3
 72
    23
 73
    19
 74
     0
 42
0.000000001
 43
0.0000000001
 40
0.0
 40
0.0
 40
0.0
 40
0.0
 40
1.0
 40
1.0
 40
1.0
 40
2.0
 40
2.0
 40
2.0
 40
3.0
 40
3.0
 40
3.0
 40
4.0
 40
4.0
 40
4.0
 40
5.0
 40
5.0
 40
5.0
 40
6.0
 40
6.0
 40
6.0
 40
6.0
 10
13.19371816214723
 20
-15.91177701311278
 30
0.0
 10
13.2020840428823
 20
-15.91177701311278
 30
0.0
 10
13.18534296528653
 20
-15.91177701311278
 30
0.0
 10
13.181160024919
 20
-15.91177701311278
 30
0.0
 10
13.16514560511541
 20
-15.91177701311278
 30
0.0
 10
13.14950383033337
 20
-15.91177701311278
 30
0.0
 10
13.13330308801887
 20
-15.91177701311278
 30
0.0
 10
13.06507178456241
 20
-15.91177701311278
 30
0.0
 10
12.99684048110588
 20
-15.91177701311278
 30
0.0
 10
12.92842285513858
 20
-15.91177701311278
 30
0.0
 10
12.83999419151092
 20
-15.91177701311278
 30
0.0
 10
12.75120219898708
 20
-15.91177701311278
 30
0.0
 10
12.66276421923393
 20
-15.91177701311278
 30
0.0
 10
12.48535724057159
 20
-15.91177701311278
 30
0.0
 10
12.30832290693095
 20
-15.91177701311278
 30
0.0
 10
12.13109293465395
 20
-15.91177701311278
 30
0.0
 10
11.77664230622553
 20
-15.91177701311278
 30
0.0
 10
11.42201467141183
 20
-15.91177701311278
 30
0.0
 10
11.06756404298334
 20
-15.91177701311278
 30
0.0
  0
LINE
  5
142
330
70
100
AcDbEntity
  8
Livello 1
370
     9
100
AcDbLine
 10
11.06756404298334
 20
-15.91177701311278
 30
0.0
 11
7.584208806744807
 21
-15.91177701311278
 31
0.0
  0
LINE
  5
143
330
70
100
AcDbEntity
  8
Livello 1
370
     9
100
AcDbLine
 10
11.03153858551934
 20
-16.32026117999365
 30
0.0
 11
11.02389004645082
 21
-16.32026117999365
 31
0.0
  0
LINE
  5
144
330
70
100
AcDbEntity
  8
Livello 1
370
     9
100
AcDbLine
 10
10.92018293693719
 20
-16.32026117999365
 30
0.0
 11
10.90980477308542
 21
-16.32026117999365
 31
0.0
  0
LINE
  5
145
330
70
100
AcDbEntity
  8
Livello 1
370
     9
100
AcDbLine
 10
10.88469781475452
 20
-16.32026117999365
 30
0.0
 11
10.86614131461166
 21
-16.32026117999365
 31
0.0
  0
LINE
  5
146
330
70
100
AcDbEntity
  8
Livello 1
370
     9
100
AcDbLine
 10
10.66561980655092
 20
-16.32026117999365
 30
0.0
 11
10.62140669048768
 21
-16.32026117999365
 31
0.0
  0
SPLINE
  5
147
330
70
100
AcDbEntity
  8
Livello 1
370
     9
100
AcDbSpline
210
0.0
220
0.0
230
1.0
 70
     8
 71
     3
 72
     8
 73
     4
 74
     0
 42
0.000000001
 43
0.0000000001
 40
0.0
 40
0.0
 40
0.0
 40
0.0
 40
1.0
 40
1.0
 40
1.0
 40
1.0
 10
13.19408149104323
 20
-15.91177701311278
 30
0.0
 10
13.19899237006887
 20
-15.91313716747601
 30
0.0
 10
13.20299830415226
 20
-15.91514013451771
 30
0.0
 10
13.20645330576068
 20
-15.9180467657597
 30
0.0
  0
SPLINE
  5
148
330
70
100
AcDbEntity
  8
Livello 1
370
     9
100
AcDbSpline
210
0.0
220
0.0
230
1.0
 70
     8
 71
     3
 72
     8
 73
     4
 74
     0
 42
0.000000001
 43
0.0000000001
 40
0.0
 40
0.0
 40
0.0
 40
0.0
 40
1.0
 40
1.0
 40
1.0
 40
1.0
 10
7.569647702525476
 20
-15.92151236454822
 30
0.0
 10
7.572563649819562
 20
-15.91650028888101
 30
0.0
 10
7.576560267676318
 20
-15.91359365763895
 30
0.0
 10
7.584022484234028
 20
-15.91177701311278
 30
0.0
  0
LINE
  5
149
330
70
100
AcDbEntity
  8
Livello 1
370
     9
100
AcDbLine
 10
13.1545904348783
 20
-15.90057902993052
 30
0.0
 11
13.15477675738908
 21
-15.91168385185508
 31
0.0
  0
LINE
  5
14A
330
70
100
AcDbEntity
  8
Livello 1
370
     9
100
AcDbLine
 10
7.623327217888173
 20
-15.91177701311278
 30
0.0
 11
7.623504224273419
 21
-15.90057902993052
 31
0.0
  0
LINE
  5
14B
330
70
100
AcDbEntity
  8
Livello 1
370
     9
100
AcDbLine
 10
11.07102032555883
 20
-15.92151236454822
 30
0.0
 11
7.570011031421533
 21
-15.92151236454822
 31
0.0
  0
SPLINE
  5
14C
330
70
100
AcDbEntity
  8
Livello 1
370
     9
100
AcDbSpline
210
0.0
220
0.0
230
1.0
 70
     8
 71
     3
 72
     8
 73
     4
 74
     0
 42
0.000000001
 43
0.0000000001
 40
0.0
 40
0.0
 40
0.0
 40
0.0
 40
1.0
 40
1.0
 40
1.0
 40
1.0
 10
11.06756404298334
 20
-15.91177701311278
 30
0.0
 10
11.07102032555883
 20
-15.91477680561247
 30
0.0
 10
11.072110312247
 20
-15.91759959172253
 30
0.0
 10
11.07102032555883
 20
-15.92151236454822
 30
0.0
  0
SPLINE
  5
14D
330
70
100
AcDbEntity
  8
Livello 1
370
     9
100
AcDbSpline
210
0.0
220
0.0
230
1.0
 70
    24
 71
     3
 72
    23
 73
    19
 74
     0
 42
0.000000001
 43
0.0000000001
 40
0.0
 40
0.0
 40
0.0
 40
0.0
 40
1.0
 40
1.0
 40
1.0
 40
2.0
 40
2.0
 40
2.0
 40
3.0
 40
3.0
 40
3.0
 40
4.0
 40
4.0
 40
4.0
 40
5.0
 40
5.0
 40
5.0
 40
6.0
 40
6.0
 40
6.0
 40
6.0
 10
13.20809294385575
 20
-15.92151236454822
 30
0.0
 10
13.21645882459089
 20
-15.92151236454822
 30
0.0
 10
13.19971774699505
 20
-15.92151236454822
 30
0.0
 10
13.19553480662758
 20
-15.92151236454822
 30
0.0
 10
13.17952166719787
 20
-15.92151236454822
 30
0.0
 10
13.16350596702027
 20
-15.92151236454822
 30
0.0
 10
13.14767786972746
 20
-15.92151236454822
 30
0.0
 10
13.07889691486403
 20
-15.92151236454822
 30
0.0
 10
13.01012527612623
 20
-15.92151236454822
 30
0.0
 10
12.94152132764808
 20
-15.92151236454822
 30
0.0
 10
12.85255232873909
 20
-15.92151236454822
 30
0.0
 10
12.76357401370454
 20
-15.92151236454822
 30
0.0
 10
12.67440937615914
 20
-15.92151236454822
 30
0.0
 10
12.49627700281854
 20
-15.92151236454822
 30
0.0
 10
12.3179663554744
 20
-15.92151236454822
 30
0.0
 10
12.13983146041071
 20
-15.92151236454822
 30
0.0
 10
11.78355487137637
 20
-15.92151236454822
 30
0.0
 10
11.4272875984676
 20
-15.92151236454822
 30
0.0
 10
11.07102032555883
 20
-15.92151236454822
 30
0.0
  0
LINE
  5
191
330
70
100
AcDbEntity
  8
Livello 1
370
     9
100
AcDbLine
 10
9.880838672915389
 20
-9.780436177229947
 30
0.0
 11
10.9571941493599
 21
-9.780436177229947
 31
0.0
  0
LINE
  5
192
330
70
100
AcDbEntity
  8
Livello 1
370
     9
100
AcDbLine
 10
10.9571941493599
 20
-9.780436177229947
 30
0.0
 11
10.9571941493599
 21
-10.17597364324229
 31
0.0
  0
LINE
  5
193
330
70
100
AcDbEntity
  8
Livello 1
370
     9
100
AcDbLine
 10
10.9571941493599
 20
-10.17597364324229
 30
0.0
 11
9.880838672915389
 21
-10.17597364324229
 31
0.0
  0
LINE
  5
194
330
70
100
AcDbEntity
  8
Livello 1
370
     9
100
AcDbLine
 10
9.880838672915389
 20
-10.17597364324229
 30
0.0
 11
9.880838672915389
 21
-9.780436177229947
 31
0.0
  0
SPLINE
  5
1A6
330
70
100
AcDbEntity
  8
Livello 1
370
     9
100
AcDbSpline
210
0.0
220
0.0
230
1.0
 70
    24
 71
     3
 72
     8
 73
     4
 74
     0
 42
0.000000001
 43
0.0000000001
 40
0.0
 40
0.0
 40
0.0
 40
0.0
 40
1.0
 40
1.0
 40
1.0
 40
1.0
 10
16.1877918413831
 20
-16.46118621460049
 30
0.0
 10
16.18925311672362
 20
-16.46118621460049
 30
0.0
 10
16.18997977451574
 20
-16.46118621460049
 30
0.0
 10
16.18997977451574
 20
-16.46118621460049
 30
0.0
  0
SPLINE
  5
1A7
330
70
100
AcDbEntity
  8
Livello 1
370
     9
100
AcDbSpline
210
0.0
220
0.0
230
1.0
 70
    24
 71
     3
 72
     8
 73
     4
 74
     0
 42
0.000000001
 43
0.0000000001
 40
1.0
 40
1.0
 40
1.0
 40
1.0
 40
2.0
 40
2.0
 40
2.0
 40
2.0
 10
16.18997977451574
 20
-16.46118621460049
 30
0.0
 10
16.18997977451574
 20
-16.46118621460049
 30
0.0
 10
16.13557360136089
 20
-16.46118621460049
 30
0.0
 10
16.05806343686634
 20
-16.46118621460049
 30
0.0
  0
LINE
  5
1AF
330
70
100
AcDbEntity
  8
0
100
AcDbLine
 10
4.231856927852743
 20
-17.46276244419833
 30
0.0
 11
16.54351742264127
 21
-17.46276244419833
 31
0.0
  0
LINE
  5
1B0
330
70
100
AcDbEntity
  8
0
100
AcDbLine
 10
16.67038840717097
 20
-9.780436177229947
 30
0.0
 11
16.67038840717097
 21
-16.63223028383976
 31
0.0
  0
LINE
  5
1B1
330
70
100
AcDbEntity
  8
0
100
AcDbLine
 10
4.129460183767116
 20
-16.46637529665753
 30
0.0
 11
4.129460183767116
 21
-16.6333202705554
 31
0.0
  0
MTEXT
  5
1B3
330
70
100
AcDbEntity
  8
0
100
AcDbMText
 10
10.23214858627795
 20
-17.72213919714518
 30
0.0
 40
0.2
 41
1.162398913961453
 46
0.0
 71
     1
 72
     5
  1
900
 73
     1
 44
1.0
1001
ACAD
1000
ACAD_MTEXT_COLUMN_INFO_BEGIN
1070
    75
1070
     2
1070
    79
1070
     0
1070
    76
1070
     1
1070
    78
1070
     0
1070
    48
1040
1.162398913961453
1070
    49
1040
1.0
1070
    50
1070
     1
1040
0.0
1000
ACAD_MTEXT_COLUMN_INFO_END
  0
MTEXT
  5
1BC
330
70
100
AcDbEntity
  8
0
100
AcDbMText
 10
3.79348841546041
 20
-16.45004425398974
 30
0.0
 40
0.2
 41
1.162398913961453
 46
0.0
 71
     1
 72
     5
  1
14
 73
     1
 44
1.0
1001
ACAD
1000
ACAD_MTEXT_COLUMN_INFO_BEGIN
1070
    75
1070
     2
1070
    79
1070
     0
1070
    76
1070
     1
1070
    78
1070
     0
1070
    48
1040
1.162398913961453
1070
    49
1040
1.0
1070
    50
1070
     1
1040
0.0
1000
ACAD_MTEXT_COLUMN_INFO_END
  0
MTEXT
  5
1C4
330
70
100
AcDbEntity
  8
0
100
AcDbMText
 10
16.82606076835801
 20
-12.39003115817097
 30
0.0
 40
0.2
 41
1.162398913961453
 46
0.0
 71
     1
 72
     5
  1
1.247
 73
     1
 44
1.0
1001
ACAD
1000
ACAD_MTEXT_COLUMN_INFO_BEGIN
1070
    75
1070
     2
1070
    79
1070
     0
1070
    76
1070
     1
1070
    78
1070
     0
1070
    48
1040
1.162398913961453
1070
    49
1040
1.0
1070
    50
1070
     1
1040
0.0
1000
ACAD_MTEXT_COLUMN_INFO_END
  0
ENDSEC
  0
SECTION
  2
OBJECTS
  0
DICTIONARY
  5
C
330
0
100
AcDbDictionary
281
     1
  3
ACAD_CIP_PREVIOUS_PRODUCT_INFO
350
18E
  3
ACAD_COLOR
350
63
  3
ACAD_DETAILVIEWSTYLE
350
6A
  3
ACAD_GROUP
350
D
  3
ACAD_LAYOUT
350
62
  3
ACAD_MATERIAL
350
10
  3
ACAD_MLEADERSTYLE
350
66
  3
ACAD_MLINESTYLE
350
5F
  3
ACAD_PLOTSETTINGS
350
61
  3
ACAD_PLOTSTYLENAME
350
E
  3
ACAD_SCALELIST
350
42
  3
ACAD_SECTIONVIEWSTYLE
350
68
  3
ACAD_TABLESTYLE
350
64
  3
ACAD_VISUALSTYLE
350
29
  3
ACDB_RECOMPOSE_DATA
350
1CE
  3
AcDbVariableDictionary
350
184
  0
DICTIONARY
  5
18F
330
70
100
AcDbDictionary
280
     1
281
     1
  3
ACAD_SORTENTS
360
190
  0
XRECORD
  5
18E
102
{ACAD_REACTORS
330
C
102
}
330
C
100
AcDbXrecord
280
     1
300
ACD
300
2022
300

  0
DICTIONARY
  5
63
102
{ACAD_REACTORS
330
C
102
}
330
C
100
AcDbDictionary
281
     1
  0
DICTIONARY
  5
6A
102
{ACAD_REACTORS
330
C
102
}
330
C
100
AcDbDictionary
281
     1
  3
Imperial24
350
6B
  0
DICTIONARY
  5
D
102
{ACAD_REACTORS
330
C
102
}
330
C
100
AcDbDictionary
281
     1
  0
DICTIONARY
  5
62
102
{ACAD_REACTORS
330
C
102
}
330
C
100
AcDbDictionary
281
     1
  3
Layout1
350
6F
  3
Layout2
350
77
  3
Model
350
73
  0
DICTIONARY
  5
10
102
{ACAD_REACTORS
330
C
102
}
330
C
100
AcDbDictionary
281
     1
  3
ByBlock
350
19
  3
ByLayer
350
11
  3
Global
350
21
  0
DICTIONARY
  5
66
102
{ACAD_REACTORS
330
C
102
}
330
C
100
AcDbDictionary
281
     1
  3
Standard
350
67
  0
DICTIONARY
  5
5F
102
{ACAD_REACTORS
330
C
102
}
330
C
100
AcDbDictionary
281
     1
  3
Standard
350
60
  0
DICTIONARY
  5
61
102
{ACAD_REACTORS
330
C
102
}
330
C
100
AcDbDictionary
281
     1
  0
ACDBDICTIONARYWDFLT
  5
E
102
{ACAD_REACTORS
330
C
102
}
330
C
100
AcDbDictionary
281
     1
  3
Normal
350
F
100
AcDbDictionaryWithDefault
340
F
  0
DICTIONARY
  5
42
102
{ACAD_REACTORS
330
C
102
}
330
C
100
AcDbDictionary
281
     1
  3
A0
350
43
  3
A1
350
44
  3
A2
350
45
  3
A3
350
46
  3
A4
350
47
  3
A5
350
48
  3
A6
350
49
  3
A7
350
4A
  3
A8
350
4B
  3
A9
350
4C
  3
B0
350
4D
  3
B1
350
4E
  3
B2
350
4F
  3
B3
350
50
  3
B4
350
51
  3
B5
350
52
  3
B6
350
53
  0
DICTIONARY
  5
68
102
{ACAD_REACTORS
330
C
102
}
330
C
100
AcDbDictionary
281
     1
  3
Imperial24
350
69
  0
DICTIONARY
  5
64
102
{ACAD_REACTORS
330
C
102
}
330
C
100
AcDbDictionary
281
     1
  3
Standard
350
65
  0
DICTIONARY
  5
29
102
{ACAD_REACTORS
330
C
102
}
330
C
100
AcDbDictionary
281
     1
  3
2dWireframe
350
2F
  3
Basic
350
2E
  3
Brighten
350
35
  3
ColorChange
350
39
  3
Conceptual
350
32
  3
Dim
350
34
  3
EdgeColorOff
350
41
  3
Facepattern
350
38
  3
Flat
350
2A
  3
FlatWithEdges
350
2B
  3
Gouraud
350
2C
  3
GouraudWithEdges
350
2D
  3
Hidden
350
31
  3
JitterOff
350
3F
  3
Linepattern
350
37
  3
OverhangOff
350
40
  3
Realistic
350
33
  3
Shaded
350
3E
  3
Shaded with edges
350
3D
  3
Shades of Gray
350
3A
  3
Sketchy
350
3B
  3
Thicken
350
36
  3
Wireframe
350
30
  3
X-Ray
350
3C
  0
XRECORD
  5
1CE
102
{ACAD_REACTORS
330
C
102
}
330
C
100
AcDbXrecord
280
     1
 90
        1
330
65
330
1B3
330
1BC
330
1C4
  0
DICTIONARY
  5
184
102
{ACAD_REACTORS
330
C
102
}
330
C
100
AcDbDictionary
281
     1
  3
CANNOSCALE
350
189
  3
CMLEADERSTYLE
350
186
  3
CTABLESTYLE
350
185
  3
CVIEWDETAILSTYLE
350
187
  3
CVIEWSECTIONSTYLE
350
188
  0
SORTENTSTABLE
  5
190
102
{ACAD_REACTORS
330
18F
102
}
330
18F
100
AcDbSortentsTable
330
70
331
7F
  5
E4
331
80
  5
E5
331
84
  5
E6
331
85
  5
E7
331
E4
  5
105
331
E5
  5
106
331
E6
  5
107
331
E7
  5
109
331
E8
  5
10E
331
E9
  5
112
331
EA
  5
113
331
EB
  5
114
331
EC
  5
115
331
EE
  5
117
331
F1
  5
11A
331
F3
  5
11C
331
F4
  5
121
331
F6
  5
122
331
F7
  5
125
331
F8
  5
126
331
FC
  5
128
331
FD
  5
129
331
FE
  5
12B
331
FF
  5
12C
331
101
  5
12D
331
105
  5
130
331
106
  5
131
331
107
  5
132
331
109
  5
133
331
10E
  5
136
331
112
  5
139
331
113
  5
13A
331
114
  5
13C
331
115
  5
13D
331
117
  5
13E
331
11A
  5
13F
331
11C
  5
140
331
121
  5
142
331
122
  5
143
331
125
  5
144
331
126
  5
145
331
128
  5
14A
331
129
  5
14B
331
12B
  5
191
331
12C
  5
192
331
12D
  5
193
331
130
  5
194
331
131
  5
195
331
132
  5
196
331
133
  5
197
331
136
  5
198
331
139
  5
199
331
13A
  5
19A
331
13C
  5
19B
331
13D
  5
19C
331
13E
  5
19D
331
13F
  5
19E
331
140
  5
19F
331
142
  5
1A0
331
143
  5
1A1
331
144
  5
1A2
331
145
  5
1A3
331
146
  5
1A4
331
149
  5
1A5
331
14A
  5
1A6
331
14B
  5
1A7
331
191
  5
7F
331
192
  5
80
331
193
  5
84
331
194
  5
85
331
1A6
  5
146
331
1A7
  5
149
  0
ACDBDETAILVIEWSTYLE
  5
6B
102
{ACAD_XDICTIONARY
360
1D1
102
}
102
{ACAD_REACTORS
330
6A
102
}
330
6A
100
AcDbModelDocViewStyle
 70
     0
  3
Imperial24
290
     0
100
AcDbDetailViewStyle
 70
     0
 71
     0
 90
        3
 71
     1
340
55
 62
   256
 40
0.24
340
0
 62
   256
 40
0.24
300

 40
0.36
280
     3
 71
     2
340
5D
 90
       25
 62
   256
 71
     3
340
55
 62
   256
 40
0.24
 90
        1
 40
0.75
 90
        1
300
%<\AcVar ViewType \f "%tc1">% %<\AcVar ViewDetailId>%\PSCALE %<\AcVar ViewScale \f "%sn">%
 71
     4
340
5D
 90
       25
 62
   256
340
5D
 90
       25
 62
   256
280
     0
  0
LAYOUT
  5
6F
102
{ACAD_REACTORS
330
62
102
}
330
62
100
AcDbPlotSettings
  1

  2

  4

  6

 40
0.0
 41
0.0
 42
0.0
 43
0.0
 44
0.0
 45
0.0
 46
0.0
 47
0.0
 48
0.0
 49
0.0
140
0.0
141
0.0
142
1.0
143
1.0
 70
   688
 72
     0
 73
     0
 74
     5
  7

 75
    16
147
1.0
 76
     0
 77
     2
 78
   300
148
0.0
149
0.0
100
AcDbLayout
  1
Layout1
 70
     1
 71
     1
 10
0.0
 20
0.0
 11
12.0
 21
9.0
 12
0.0
 22
0.0
 32
0.0
 14
1.000000000000000E+20
 24
1.000000000000000E+20
 34
1.000000000000000E+20
 15
-1.000000000000000E+20
 25
-1.000000000000000E+20
 35
-1.000000000000000E+20
146
0.0
 13
0.0
 23
0.0
 33
0.0
 16
1.0
 26
0.0
 36
0.0
 17
0.0
 27
1.0
 37
0.0
 76
     0
330
6C
  0
LAYOUT
  5
77
102
{ACAD_REACTORS
330
62
102
}
330
62
100
AcDbPlotSettings
  1

  2

  4

  6

 40
0.0
 41
0.0
 42
0.0
 43
0.0
 44
0.0
 45
0.0
 46
0.0
 47
0.0
 48
0.0
 49
0.0
140
0.0
141
0.0
142
1.0
143
1.0
 70
   688
 72
     0
 73
     0
 74
     5
  7

 75
    16
147
1.0
 76
     0
 77
     2
 78
   300
148
0.0
149
0.0
100
AcDbLayout
  1
Layout2
 70
     1
 71
     2
 10
0.0
 20
0.0
 11
12.0
 21
9.0
 12
0.0
 22
0.0
 32
0.0
 14
0.0
 24
0.0
 34
0.0
 15
0.0
 25
0.0
 35
0.0
146
0.0
 13
0.0
 23
0.0
 33
0.0
 16
1.0
 26
0.0
 36
0.0
 17
0.0
 27
1.0
 37
0.0
 76
     0
330
74
  0
LAYOUT
  5
73
102
{ACAD_REACTORS
330
62
102
}
330
62
100
AcDbPlotSettings
  1

  2

  4

  6

 40
0.0
 41
0.0
 42
0.0
 43
0.0
 44
0.0
 45
0.0
 46
0.0
 47
0.0
 48
0.0
 49
0.0
140
0.0
141
0.0
142
1.0
143
1.0
 70
  1712
 72
     0
 73
     0
 74
     0
  7

 75
     0
147
1.0
 76
     0
 77
     2
 78
   300
148
0.0
149
0.0
100
AcDbLayout
  1
Model
 70
     1
 71
     0
 10
0.0
 20
0.0
 11
12.0
 21
9.0
 12
0.0
 22
0.0
 32
0.0
 14
0.0
 24
0.0
 34
0.0
 15
0.0
 25
0.0
 35
0.0
146
0.0
 13
0.0
 23
0.0
 33
0.0
 16
1.0
 26
0.0
 36
0.0
 17
0.0
 27
1.0
 37
0.0
 76
     0
330
70
331
57
  0
MATERIAL
  5
19
102
{ACAD_XDICTIONARY
360
1A
102
}
102
{ACAD_REACTORS
330
10
102
}
330
10
100
AcDbMaterial
  1
ByBlock
 72
     0
 43
0.0208333333333333
 43
0.0
 43
0.0
 43
0.0
 43
0.0
 43
0.0208333333333333
 43
0.0
 43
0.0
 43
0.0
 43
0.0
 43
1.0
 43
0.0
 43
0.0
 43
0.0
 43
0.0
 43
1.0
 77
     0
 47
0.0208333333333333
 47
0.0
 47
0.0
 47
0.0
 47
0.0
 47
0.0208333333333333
 47
0.0
 47
0.0
 47
0.0
 47
0.0
 47
1.0
 47
0.0
 47
0.0
 47
0.0
 47
0.0
 47
1.0
171
     0
 49
0.0208333333333333
 49
0.0
 49
0.0
 49
0.0
 49
0.0
 49
0.0208333333333333
 49
0.0
 49
0.0
 49
0.0
 49
0.0
 49
1.0
 49
0.0
 49
0.0
 49
0.0
 49
0.0
 49
1.0
175
     0
142
0.0208333333333333
142
0.0
142
0.0
142
0.0
142
0.0
142
0.0208333333333333
142
0.0
142
0.0
142
0.0
142
0.0
142
1.0
142
0.0
142
0.0
142
0.0
142
0.0
142
1.0
179
     0
144
0.0208333333333333
144
0.0
144
0.0
144
0.0
144
0.0
144
0.0208333333333333
144
0.0
144
0.0
144
0.0
144
0.0
144
1.0
144
0.0
144
0.0
144
0.0
144
0.0
144
1.0
147
0.0208333333333333
147
0.0
147
0.0
147
0.0
147
0.0
147
0.0208333333333333
147
0.0
147
0.0
147
0.0
147
0.0
147
1.0
147
0.0
147
0.0
147
0.0
147
0.0
147
1.0
  0
MATERIAL
  5
11
102
{ACAD_XDICTIONARY
360
12
102
}
102
{ACAD_REACTORS
330
10
102
}
330
10
100
AcDbMaterial
  1
ByLayer
 72
     0
 43
0.0208333333333333
 43
0.0
 43
0.0
 43
0.0
 43
0.0
 43
0.0208333333333333
 43
0.0
 43
0.0
 43
0.0
 43
0.0
 43
1.0
 43
0.0
 43
0.0
 43
0.0
 43
0.0
 43
1.0
 77
     0
 47
0.0208333333333333
 47
0.0
 47
0.0
 47
0.0
 47
0.0
 47
0.0208333333333333
 47
0.0
 47
0.0
 47
0.0
 47
0.0
 47
1.0
 47
0.0
 47
0.0
 47
0.0
 47
0.0
 47
1.0
171
     0
 49
0.0208333333333333
 49
0.0
 49
0.0
 49
0.0
 49
0.0
 49
0.0208333333333333
 49
0.0
 49
0.0
 49
0.0
 49
0.0
 49
1.0
 49
0.0
 49
0.0
 49
0.0
 49
0.0
 49
1.0
175
     0
142
0.0208333333333333
142
0.0
142
0.0
142
0.0
142
0.0
142
0.0208333333333333
142
0.0
142
0.0
142
0.0
142
0.0
142
1.0
142
0.0
142
0.0
142
0.0
142
0.0
142
1.0
179
     0
144
0.0208333333333333
144
0.0
144
0.0
144
0.0
144
0.0
144
0.0208333333333333
144
0.0
144
0.0
144
0.0
144
0.0
144
1.0
144
0.0
144
0.0
144
0.0
144
0.0
144
1.0
147
0.0208333333333333
147
0.0
147
0.0
147
0.0
147
0.0
147
0.0208333333333333
147
0.0
147
0.0
147
0.0
147
0.0
147
1.0
147
0.0
147
0.0
147
0.0
147
0.0
147
1.0
  0
MATERIAL
  5
21
102
{ACAD_XDICTIONARY
360
22
102
}
102
{ACAD_REACTORS
330
10
102
}
330
10
100
AcDbMaterial
  1
Global
 72
     0
 43
0.0208333333333333
 43
0.0
 43
0.0
 43
0.0
 43
0.0
 43
0.0208333333333333
 43
0.0
 43
0.0
 43
0.0
 43
0.0
 43
1.0
 43
0.0
 43
0.0
 43
0.0
 43
0.0
 43
1.0
 77
     0
 47
0.0208333333333333
 47
0.0
 47
0.0
 47
0.0
 47
0.0
 47
0.0208333333333333
 47
0.0
 47
0.0
 47
0.0
 47
0.0
 47
1.0
 47
0.0
 47
0.0
 47
0.0
 47
0.0
 47
1.0
171
     0
 49
0.0208333333333333
 49
0.0
 49
0.0
 49
0.0
 49
0.0
 49
0.0208333333333333
 49
0.0
 49
0.0
 49
0.0
 49
0.0
 49
1.0
 49
0.0
 49
0.0
 49
0.0
 49
0.0
 49
1.0
175
     0
142
0.0208333333333333
142
0.0
142
0.0
142
0.0
142
0.0
142
0.0208333333333333
142
0.0
142
0.0
142
0.0
142
0.0
142
1.0
142
0.0
142
0.0
142
0.0
142
0.0
142
1.0
179
     0
144
0.0208333333333333
144
0.0
144
0.0
144
0.0
144
0.0
144
0.0208333333333333
144
0.0
144
0.0
144
0.0
144
0.0
144
1.0
144
0.0
144
0.0
144
0.0
144
0.0
144
1.0
147
0.0208333333333333
147
0.0
147
0.0
147
0.0
147
0.0
147
0.0208333333333333
147
0.0
147
0.0
147
0.0
147
0.0
147
1.0
147
0.0
147
0.0
147
0.0
147
0.0
147
1.0
  0
MLEADERSTYLE
  5
67
102
{ACAD_REACTORS
330
66
102
}
330
66
100
AcDbMLeaderStyle
179
     2
170
     2
171
     1
172
     0
 90
        2
 40
0.0
 41
0.0
173
     1
 91
-1056964608
340
5B
 92
       -2
290
     1
 42
0.09
291
     1
 43
0.36
  3
Standard
 44
0.18
300

342
55
174
     1
178
     6
175
     1
176
     0
 93
-1056964608
 45
0.18
292
     0
297
     0
 46
0.18
 94
-1056964608
 47
1.0
 49
1.0
140
1.0
293
     1
141
0.0
294
     1
177
     0
142
1.0
295
     0
296
     0
143
0.125
271
     0
272
     9
273
     9
298
     1
  0
MLINESTYLE
  5
60
102
{ACAD_REACTORS
330
5F
102
}
330
5F
100
AcDbMlineStyle
  2
STANDARD
 70
     0
  3

 62
   256
 51
90.0
 52
90.0
 71
     2
 49
0.5
 62
   256
  6
BYLAYER
 49
-0.5
 62
   256
  6
BYLAYER
  0
ACDBPLACEHOLDER
  5
F
102
{ACAD_REACTORS
330
E
102
}
330
E
  0
SCALE
  5
43
102
{ACAD_REACTORS
330
42
102
}
330
42
100
AcDbScale
 70
     0
300
1:1
140
1.0
141
1.0
290
     1
  0
SCALE
  5
44
102
{ACAD_REACTORS
330
42
102
}
330
42
100
AcDbScale
 70
     0
300
1/128" = 1'-0"
140
0.0078125
141
12.0
290
     0
  0
SCALE
  5
45
102
{ACAD_REACTORS
330
42
102
}
330
42
100
AcDbScale
 70
     0
300
1/64" = 1'-0"
140
0.015625
141
12.0
290
     0
  0
SCALE
  5
46
102
{ACAD_REACTORS
330
42
102
}
330
42
100
AcDbScale
 70
     0
300
1/32" = 1'-0"
140
0.03125
141
12.0
290
     0
  0
SCALE
  5
47
102
{ACAD_REACTORS
330
42
102
}
330
42
100
AcDbScale
 70
     0
300
1/16" = 1'-0"
140
0.0625
141
12.0
290
     0
  0
SCALE
  5
48
102
{ACAD_REACTORS
330
42
102
}
330
42
100
AcDbScale
 70
     0
300
3/32" = 1'-0"
140
0.09375
141
12.0
290
     0
  0
SCALE
  5
49
102
{ACAD_REACTORS
330
42
102
}
330
42
100
AcDbScale
 70
     0
300
1/8" = 1'-0"
140
0.125
141
12.0
290
     0
  0
SCALE
  5
4A
102
{ACAD_REACTORS
330
42
102
}
330
42
100
AcDbScale
 70
     0
300
3/16" = 1'-0"
140
0.1875
141
12.0
290
     0
  0
SCALE
  5
4B
102
{ACAD_REACTORS
330
42
102
}
330
42
100
AcDbScale
 70
     0
300
1/4" = 1'-0"
140
0.25
141
12.0
290
     0
  0
SCALE
  5
4C
102
{ACAD_REACTORS
330
42
102
}
330
42
100
AcDbScale
 70
     0
300
3/8" = 1'-0"
140
0.375
141
12.0
290
     0
  0
SCALE
  5
4D
102
{ACAD_REACTORS
330
42
102
}
330
42
100
AcDbScale
 70
     0
300
1/2" = 1'-0"
140
0.5
141
12.0
290
     0
  0
SCALE
  5
4E
102
{ACAD_REACTORS
330
42
102
}
330
42
100
AcDbScale
 70
     0
300
3/4" = 1'-0"
140
0.75
141
12.0
290
     0
  0
SCALE
  5
4F
102
{ACAD_REACTORS
330
42
102
}
330
42
100
AcDbScale
 70
     0
300
1" = 1'-0"
140
1.0
141
12.0
290
     0
  0
SCALE
  5
50
102
{ACAD_REACTORS
330
42
102
}
330
42
100
AcDbScale
 70
     0
300
1-1/2" = 1'-0"
140
1.5
141
12.0
290
     0
  0
SCALE
  5
51
102
{ACAD_REACTORS
330
42
102
}
330
42
100
AcDbScale
 70
     0
300
3" = 1'-0"
140
3.0
141
12.0
290
     0
  0
SCALE
  5
52
102
{ACAD_REACTORS
330
42
102
}
330
42
100
AcDbScale
 70
     0
300
6" = 1'-0"
140
6.0
141
12.0
290
     0
  0
SCALE
  5
53
102
{ACAD_REACTORS
330
42
102
}
330
42
100
AcDbScale
 70
     0
300
1'-0" = 1'-0"
140
12.0
141
12.0
290
     0
  0
ACDBSECTIONVIEWSTYLE
  5
69
102
{ACAD_XDICTIONARY
360
1CF
102
}
102
{ACAD_REACTORS
330
68
102
}
330
68
100
AcDbModelDocViewStyle
 70
     0
  3
Imperial24
290
     0
100
AcDbSectionViewStyle
 70
     0
 71
     0
 90
       78
 71
     1
340
55
 62
   256
 40
0.24
340
0
340
0
 62
   256
 40
0.24
300
I, O, Q, S, X, Z
 40
0.48
 90
        3
 40
0.18
 90
        1
 71
     2
340
5D
 90
       25
 62
   256
340
5D
 90
       50
 62
   256
 40
0.24
 40
0.0
 40
0.24
 71
     3
340
55
 62
   256
 40
0.24
 90
        1
 40
0.75
 90
        1
300
%<\AcVar ViewType \f "%tc1">% %<\AcVar ViewSectionStartId>%-%<\AcVar ViewSectionEndId>%\PSCALE %<\AcVar ViewScale \f "%sn">%
 71
     4
 62
   256
 62
   257
300
ANSI31
 40
1.0
 90
        0
290
     0
290
     0
 90
        6
 40
0.0
 40
1.570796326794896
 40
0.2617993877991494
 40
1.308996938995747
 40
-0.2617993877991494
 40
1.832595714594046
  0
TABLESTYLE
  5
65
102
{ACAD_XDICTIONARY
360
1CC
102
}
102
{ACAD_REACTORS
330
64
102
}
330
64
100
AcDbTableStyle
280
     0
  3
Standard
 70
     0
 71
     0
 40
0.06
 41
0.06
280
     0
281
     0
  7
Standard
140
0.18
170
     2
 62
     0
 63
     7
283
     0
 90
      512
 91
        0
  1

274
    -2
284
     1
 64
     0
275
    -2
285
     1
 65
     0
276
    -2
286
     1
 66
     0
277
    -2
287
     1
 67
     0
278
    -2
288
     1
 68
     0
279
    -2
289
     1
 69
     0
  7
Standard
140
0.25
170
     5
 62
     0
 63
     7
283
     0
 90
      512
 91
        0
  1

274
    -2
284
     1
 64
     0
275
    -2
285
     1
 65
     0
276
    -2
286
     1
 66
     0
277
    -2
287
     1
 67
     0
278
    -2
288
     1
 68
     0
279
    -2
289
     1
 69
     0
  7
Standard
140
0.18
170
     5
 62
     0
 63
     7
283
     0
 90
      512
 91
        0
  1

274
    -2
284
     1
 64
     0
275
    -2
285
     1
 65
     0
276
    -2
286
     1
 66
     0
277
    -2
287
     1
 67
     0
278
    -2
288
     1
 68
     0
279
    -2
289
     1
 69
     0
  0
VISUALSTYLE
  5
2F
102
{ACAD_REACTORS
330
29
102
}
330
29
100
AcDbVisualStyle
  2
2dWireframe
 70
     4
177
     3
291
     0
 70
    58
 90
        0
176
     1
 90
        2
176
     1
 90
        0
176
     1
 90
        0
176
     1
 40
0.6
176
     1
 40
30.0
176
     1
 62
     7
420
 16777215
176
     1
 90
        1
176
     1
 90
        4
176
     1
 62
     7
176
     1
 62
   257
176
     1
 90
        1
176
     1
 90
        1
176
     1
 40
1.0
176
     1
 90
        0
176
     1
 62
   257
176
     1
 40
1.0
176
     1
 90
        1
176
     1
 90
        6
176
     1
 90
        2
176
     1
 62
     7
176
     1
 90
        5
176
     1
 90
        0
176
     1
 90
        0
176
     1
290
     0
176
     1
 90
        1
176
     1
 40
0.0
176
     1
 90
        0
176
     1
290
     1
176
     1
290
     1
176
     1
290
     0
176
     1
290
     0
176
     1
290
     0
176
     1
290
     0
176
     1
290
     0
176
     1
290
     0
176
     1
290
     0
176
     1
 90
       50
176
     1
 40
0.0
176
     1
 40
1.0
176
     1
 90
        0
176
     1
 62
    18
420
        0
176
     1
 90
       50
176
     1
 90
        3
176
     1
 62
     5
420
      255
176
     1
290
     0
176
     1
 90
       50
176
     1
 90
       50
176
     1
 90
       50
176
     1
290
     0
176
     1
 90
       50
176
     1
 62
   256
176
     0
 40
1.0
176
     0
 90
        2
176
     1
  1
strokes_ogs.tif
176
     1
290
     0
176
     1
 40
1.0
176
     1
 40
1.0
176
     1
1001
ACAD
1000
AcDbSavedByObjectVersion
1070
     0
  0
VISUALSTYLE
  5
2E
102
{ACAD_REACTORS
330
29
102
}
330
29
100
AcDbVisualStyle
  2
Basic
 70
     7
177
     3
291
     1
 70
    58
 90
        1
176
     1
 90
        0
176
     1
 90
        1
176
     1
 90
        0
176
     1
 40
0.6
176
     1
 40
30.0
176
     1
 62
     7
420
 16777215
176
     1
 90
        0
176
     1
 90
        4
176
     1
 62
     7
176
     1
 62
   257
176
     1
 90
        1
176
     1
 90
        1
176
     1
 40
1.0
176
     1
 90
        8
176
     1
 62
     7
176
     1
 40
1.0
176
     1
 90
        1
176
     1
 90
        6
176
     1
 90
        2
176
     1
 62
     7
176
     1
 90
        5
176
     1
 90
        0
176
     1
 90
        0
176
     1
290
     0
176
     1
 90
        1
176
     1
 40
0.0
176
     1
 90
        0
176
     1
290
     0
176
     1
290
     1
176
     1
290
     1
176
     1
290
     0
176
     1
290
     0
176
     1
290
     0
176
     1
290
     0
176
     1
290
     0
176
     1
290
     0
176
     1
 90
       50
176
     1
 40
0.0
176
     1
 40
1.0
176
     1
 90
        0
176
     1
 62
    18
420
        0
176
     1
 90
       50
176
     1
 90
        3
176
     1
 62
     5
420
      255
176
     1
290
     0
176
     1
 90
       50
176
     1
 90
       50
176
     1
 90
       50
176
     1
290
     0
176
     1
 90
       50
176
     1
 62
   256
176
     0
 40
1.0
176
     0
 90
        2
176
     1
  1
strokes_ogs.tif
176
     1
290
     0
176
     1
 40
1.0
176
     1
 40
1.0
176
     1
1001
ACAD
1000
AcDbSavedByObjectVersion
1070
     0
  0
VISUALSTYLE
  5
35
102
{ACAD_REACTORS
330
29
102
}
330
29
100
AcDbVisualStyle
  2
Brighten
 70
    12
177
     3
291
     1
 70
    58
 90
        2
176
     1
 90
        2
176
     1
 90
        0
176
     1
 90
        0
176
     1
 40
0.6
176
     1
 40
30.0
176
     1
 62
     7
420
 16777215
176
     1
 90
        1
176
     1
 90
        4
176
     1
 62
     7
176
     1
 62
   257
176
     1
 90
        1
176
     1
 90
        1
176
     1
 40
1.0
176
     1
 90
        8
176
     1
 62
     7
176
     1
 40
1.0
176
     1
 90
        1
176
     1
 90
        6
176
     1
 90
        2
176
     1
 62
     7
176
     1
 90
        5
176
     1
 90
        0
176
     1
 90
        0
176
     1
290
     0
176
     1
 90
        1
176
     1
 40
50.0
176
     1
 90
        0
176
     1
290
     0
176
     1
290
     1
176
     1
290
     1
176
     1
290
     0
176
     1
290
     0
176
     1
290
     0
176
     1
290
     0
176
     1
290
     0
176
     1
290
     0
176
     1
 90
       50
176
     1
 40
0.0
176
     1
 40
1.0
176
     1
 90
        0
176
     1
 62
    18
420
        0
176
     1
 90
       50
176
     1
 90
        3
176
     1
 62
     5
420
      255
176
     1
290
     0
176
     1
 90
       50
176
     1
 90
       50
176
     1
 90
       50
176
     1
290
     0
176
     1
 90
       50
176
     1
 62
   256
176
     0
 40
1.0
176
     0
 90
        2
176
     1
  1
strokes_ogs.tif
176
     1
290
     0
176
     1
 40
1.0
176
     1
 40
1.0
176
     1
1001
ACAD
1000
AcDbSavedByObjectVersion
1070
     0
  0
VISUALSTYLE
  5
39
102
{ACAD_REACTORS
330
29
102
}
330
29
100
AcDbVisualStyle
  2
ColorChange
 70
    16
177
     3
291
     1
 70
    58
 90
        2
176
     1
 90
        2
176
     1
 90
        3
176
     1
 90
        0
176
     1
 40
0.6
176
     1
 40
30.0
176
     1
 62
     8
420
  8421504
176
     1
 90
        1
176
     1
 90
        4
176
     1
 62
     7
176
     1
 62
   257
176
     1
 90
        1
176
     1
 90
        1
176
     1
 40
1.0
176
     1
 90
        8
176
     1
 62
     8
420
  8421504
176
     1
 40
1.0
176
     1
 90
        1
176
     1
 90
        6
176
     1
 90
        2
176
     1
 62
     7
176
     1
 90
        5
176
     1
 90
        0
176
     1
 90
        0
176
     1
290
     0
176
     1
 90
        1
176
     1
 40
0.0
176
     1
 90
        0
176
     1
290
     0
176
     1
290
     1
176
     1
290
     1
176
     1
290
     0
176
     1
290
     0
176
     1
290
     0
176
     1
290
     0
176
     1
290
     0
176
     1
290
     0
176
     1
 90
       50
176
     1
 40
0.0
176
     1
 40
1.0
176
     1
 90
        0
176
     1
 62
    18
420
        0
176
     1
 90
       50
176
     1
 90
        3
176
     1
 62
     5
420
      255
176
     1
290
     0
176
     1
 90
       50
176
     1
 90
       50
176
     1
 90
       50
176
     1
290
     0
176
     1
 90
       50
176
     1
 62
   256
176
     0
 40
1.0
176
     0
 90
        2
176
     1
  1
strokes_ogs.tif
176
     1
290
     0
176
     1
 40
1.0
176
     1
 40
1.0
176
     1
1001
ACAD
1000
AcDbSavedByObjectVersion
1070
     0
  0
VISUALSTYLE
  5
32
102
{ACAD_REACTORS
330
29
102
}
330
29
100
AcDbVisualStyle
  2
Conceptual
 70
     9
177
     3
291
     0
 70
    58
 90
        3
176
     1
 90
        2
176
     1
 90
        0
176
     1
 90
        0
176
     1
 40
0.6
176
     1
 40
30.0
176
     1
 62
     7
420
 16777215
176
     1
 90
        2
176
     1
 90
        2
176
     1
 62
     7
176
     1
 62
   257
176
     1
 90
        1
176
     1
 90
        1
176
     1
 40
179.0
176
     1
 90
        8
176
     1
 62
     7
176
     1
 40
1.0
176
     1
 90
        1
176
     1
 90
        6
176
     1
 90
        2
176
     1
 62
     7
176
     1
 90
        3
176
     1
 90
        0
176
     1
 90
        0
176
     1
290
     0
176
     1
 90
        1
176
     1
 40
0.0
176
     1
 90
        0
176
     1
290
     0
176
     1
290
     1
176
     1
290
     1
176
     1
290
     0
176
     1
290
     0
176
     1
290
     0
176
     1
290
     0
176
     1
290
     0
176
     1
290
     0
176
     1
 90
       50
176
     1
 40
0.0
176
     1
 40
1.0
176
     1
 90
        0
176
     1
 62
    18
420
        0
176
     1
 90
       50
176
     1
 90
        3
176
     1
 62
     5
420
      255
176
     1
290
     0
176
     1
 90
       50
176
     1
 90
       50
176
     1
 90
       50
176
     1
290
     0
176
     1
 90
       50
176
     1
 62
   256
176
     0
 40
1.0
176
     0
 90
        2
176
     1
  1
strokes_ogs.tif
176
     1
290
     0
176
     1
 40
1.0
176
     1
 40
1.0
176
     1
1001
ACAD
1000
AcDbSavedByObjectVersion
1070
     0
  0
VISUALSTYLE
  5
34
102
{ACAD_REACTORS
330
29
102
}
330
29
100
AcDbVisualStyle
  2
Dim
 70
    11
177
     3
291
     1
 70
    58
 90
        2
176
     1
 90
        2
176
     1
 90
        0
176
     1
 90
        0
176
     1
 40
0.6
176
     1
 40
30.0
176
     1
 62
     7
420
 16777215
176
     1
 90
        1
176
     1
 90
        4
176
     1
 62
     7
176
     1
 62
   257
176
     1
 90
        1
176
     1
 90
        1
176
     1
 40
1.0
176
     1
 90
        8
176
     1
 62
     7
176
     1
 40
1.0
176
     1
 90
        1
176
     1
 90
        6
176
     1
 90
        2
176
     1
 62
     7
176
     1
 90
        5
176
     1
 90
        0
176
     1
 90
        0
176
     1
290
     0
176
     1
 90
        1
176
     1
 40
-50.0
176
     1
 90
        0
176
     1
290
     0
176
     1
290
     1
176
     1
290
     1
176
     1
290
     0
176
     1
290
     0
176
     1
290
     0
176
     1
290
     0
176
     1
290
     0
176
     1
290
     0
176
     1
 90
       50
176
     1
 40
0.0
176
     1
 40
1.0
176
     1
 90
        0
176
     1
 62
    18
420
        0
176
     1
 90
       50
176
     1
 90
        3
176
     1
 62
     5
420
      255
176
     1
290
     0
176
     1
 90
       50
176
     1
 90
       50
176
     1
 90
       50
176
     1
290
     0
176
     1
 90
       50
176
     1
 62
   256
176
     0
 40
1.0
176
     0
 90
        2
176
     1
  1
strokes_ogs.tif
176
     1
290
     0
176
     1
 40
1.0
176
     1
 40
1.0
176
     1
1001
ACAD
1000
AcDbSavedByObjectVersion
1070
     0
  0
VISUALSTYLE
  5
41
102
{ACAD_REACTORS
330
29
102
}
330
29
100
AcDbVisualStyle
  2
EdgeColorOff
 70
    22
177
     3
291
     1
 70
    58
 90
        2
176
     0
 90
        2
176
     0
 90
        0
176
     0
 90
        0
176
     0
 40
0.6
176
     0
 40
30.0
176
     0
 62
     7
420
 16777215
176
     0
 90
        1
176
     0
 90
        4
176
     0
 62
     7
176
     0
 62
   257
176
     0
 90
        1
176
     0
 90
        1
176
     0
 40
1.0
176
     0
 90
        8
176
     2
 62
     7
176
     0
 40
1.0
176
     0
 90
        1
176
     0
 90
        6
176
     0
 90
        2
176
     0
 62
     7
176
     0
 90
        5
176
     0
 90
        0
176
     0
 90
        0
176
     0
290
     0
176
     0
 90
        1
176
     0
 40
0.0
176
     0
 90
        0
176
     0
290
     0
176
     0
290
     1
176
     0
290
     1
176
     0
290
     0
176
     0
290
     0
176
     0
290
     0
176
     0
290
     0
176
     0
290
     0
176
     0
290
     0
176
     0
 90
       50
176
     0
 40
0.0
176
     0
 40
1.0
176
     0
 90
        0
176
     0
 62
    18
420
        0
176
     0
 90
       50
176
     0
 90
        3
176
     0
 62
     5
420
      255
176
     0
290
     0
176
     0
 90
       50
176
     0
 90
       50
176
     0
 90
       50
176
     0
290
     0
176
     0
 90
       50
176
     0
 62
   256
176
     0
 40
1.0
176
     0
 90
        2
176
     0
  1
strokes_ogs.tif
176
     0
290
     0
176
     0
 40
1.0
176
     0
 40
1.0
176
     0
1001
ACAD
1000
AcDbSavedByObjectVersion
1070
     0
  0
VISUALSTYLE
  5
38
102
{ACAD_REACTORS
330
29
102
}
330
29
100
AcDbVisualStyle
  2
Facepattern
 70
    15
177
     3
291
     1
 70
    58
 90
        2
176
     1
 90
        2
176
     1
 90
        0
176
     1
 90
        0
176
     1
 40
0.6
176
     1
 40
30.0
176
     1
 62
     7
420
 16777215
176
     1
 90
        1
176
     1
 90
        4
176
     1
 62
     7
176
     1
 62
   257
176
     1
 90
        1
176
     1
 90
        1
176
     1
 40
1.0
176
     1
 90
        8
176
     1
 62
     7
176
     1
 40
1.0
176
     1
 90
        1
176
     1
 90
        6
176
     1
 90
        2
176
     1
 62
     7
176
     1
 90
        5
176
     1
 90
        0
176
     1
 90
        0
176
     1
290
     0
176
     1
 90
        1
176
     1
 40
0.0
176
     1
 90
        0
176
     1
290
     0
176
     1
290
     1
176
     1
290
     1
176
     1
290
     0
176
     1
290
     0
176
     1
290
     0
176
     1
290
     0
176
     1
290
     0
176
     1
290
     0
176
     1
 90
       50
176
     1
 40
0.0
176
     1
 40
1.0
176
     1
 90
        0
176
     1
 62
    18
420
        0
176
     1
 90
       50
176
     1
 90
        3
176
     1
 62
     5
420
      255
176
     1
290
     0
176
     1
 90
       50
176
     1
 90
       50
176
     1
 90
       50
176
     1
290
     0
176
     1
 90
       50
176
     1
 62
   256
176
     0
 40
1.0
176
     0
 90
        2
176
     1
  1
strokes_ogs.tif
176
     1
290
     0
176
     1
 40
1.0
176
     1
 40
1.0
176
     1
1001
ACAD
1000
AcDbSavedByObjectVersion
1070
     0
  0
VISUALSTYLE
  5
2A
102
{ACAD_REACTORS
330
29
102
}
330
29
100
AcDbVisualStyle
  2
Flat
 70
     0
177
     3
291
     1
 70
    58
 90
        2
176
     1
 90
        1
176
     1
 90
        1
176
     1
 90
        2
176
     1
 40
0.6
176
     1
 40
30.0
176
     1
 62
     7
420
 16777215
176
     1
 90
        0
176
     1
 90
        0
176
     1
 62
     7
176
     1
 62
   257
176
     1
 90
        1
176
     1
 90
        1
176
     1
 40
1.0
176
     1
 90
        8
176
     1
 62
     7
176
     1
 40
1.0
176
     1
 90
        1
176
     1
 90
        6
176
     1
 90
        2
176
     1
 62
     7
176
     1
 90
        5
176
     1
 90
        0
176
     1
 90
        0
176
     1
290
     0
176
     1
 90
       13
176
     1
 40
0.0
176
     1
 90
        0
176
     1
290
     0
176
     1
290
     1
176
     1
290
     1
176
     1
290
     0
176
     1
290
     0
176
     1
290
     0
176
     1
290
     0
176
     1
290
     0
176
     1
290
     0
176
     1
 90
       50
176
     1
 40
0.0
176
     1
 40
1.0
176
     1
 90
        0
176
     1
 62
    18
420
        0
176
     1
 90
       50
176
     1
 90
        3
176
     1
 62
     5
420
      255
176
     1
290
     0
176
     1
 90
       50
176
     1
 90
       50
176
     1
 90
       50
176
     1
290
     0
176
     1
 90
       50
176
     1
 62
   256
176
     0
 40
1.0
176
     0
 90
        2
176
     1
  1
strokes_ogs.tif
176
     1
290
     0
176
     1
 40
1.0
176
     1
 40
1.0
176
     1
1001
ACAD
1000
AcDbSavedByObjectVersion
1070
     0
  0
VISUALSTYLE
  5
2B
102
{ACAD_REACTORS
330
29
102
}
330
29
100
AcDbVisualStyle
  2
FlatWithEdges
 70
     1
177
     3
291
     1
 70
    58
 90
        2
176
     1
 90
        1
176
     1
 90
        1
176
     1
 90
        2
176
     1
 40
0.6
176
     1
 40
30.0
176
     1
 62
     7
420
 16777215
176
     1
 90
        1
176
     1
 90
        0
176
     1
 62
     7
176
     1
 62
   257
176
     1
 90
        1
176
     1
 90
        1
176
     1
 40
1.0
176
     1
 90
        0
176
     1
 62
   257
176
     1
 40
1.0
176
     1
 90
        1
176
     1
 90
        6
176
     1
 90
        2
176
     1
 62
     7
176
     1
 90
        5
176
     1
 90
        0
176
     1
 90
        0
176
     1
290
     0
176
     1
 90
       13
176
     1
 40
0.0
176
     1
 90
        0
176
     1
290
     0
176
     1
290
     1
176
     1
290
     1
176
     1
290
     0
176
     1
290
     0
176
     1
290
     0
176
     1
290
     0
176
     1
290
     0
176
     1
290
     0
176
     1
 90
       50
176
     1
 40
0.0
176
     1
 40
1.0
176
     1
 90
        0
176
     1
 62
    18
420
        0
176
     1
 90
       50
176
     1
 90
        3
176
     1
 62
     5
420
      255
176
     1
290
     0
176
     1
 90
       50
176
     1
 90
       50
176
     1
 90
       50
176
     1
290
     0
176
     1
 90
       50
176
     1
 62
   256
176
     0
 40
1.0
176
     0
 90
        2
176
     1
  1
strokes_ogs.tif
176
     1
290
     0
176
     1
 40
1.0
176
     1
 40
1.0
176
     1
1001
ACAD
1000
AcDbSavedByObjectVersion
1070
     0
  0
VISUALSTYLE
  5
2C
102
{ACAD_REACTORS
330
29
102
}
330
29
100
AcDbVisualStyle
  2
Gouraud
 70
     2
177
     3
291
     1
 70
    58
 90
        2
176
     1
 90
        2
176
     1
 90
        1
176
     1
 90
        2
176
     1
 40
0.6
176
     1
 40
30.0
176
     1
 62
     7
420
 16777215
176
     1
 90
        0
176
     1
 90
        0
176
     1
 62
     7
176
     1
 62
   257
176
     1
 90
        1
176
     1
 90
        1
176
     1
 40
1.0
176
     1
 90
        0
176
     1
 62
     7
176
     1
 40
1.0
176
     1
 90
        1
176
     1
 90
        6
176
     1
 90
        2
176
     1
 62
     7
176
     1
 90
        5
176
     1
 90
        0
176
     1
 90
        0
176
     1
290
     0
176
     1
 90
       13
176
     1
 40
0.0
176
     1
 90
        0
176
     1
290
     0
176
     1
290
     1
176
     1
290
     1
176
     1
290
     0
176
     1
290
     0
176
     1
290
     0
176
     1
290
     0
176
     1
290
     0
176
     1
290
     0
176
     1
 90
       50
176
     1
 40
0.0
176
     1
 40
1.0
176
     1
 90
        0
176
     1
 62
    18
420
        0
176
     1
 90
       50
176
     1
 90
        3
176
     1
 62
     5
420
      255
176
     1
290
     0
176
     1
 90
       50
176
     1
 90
       50
176
     1
 90
       50
176
     1
290
     0
176
     1
 90
       50
176
     1
 62
   256
176
     0
 40
1.0
176
     0
 90
        2
176
     1
  1
strokes_ogs.tif
176
     1
290
     0
176
     1
 40
1.0
176
     1
 40
1.0
176
     1
1001
ACAD
1000
AcDbSavedByObjectVersion
1070
     0
  0
VISUALSTYLE
  5
2D
102
{ACAD_REACTORS
330
29
102
}
330
29
100
AcDbVisualStyle
  2
GouraudWithEdges
 70
     3
177
     3
291
     1
 70
    58
 90
        2
176
     1
 90
        2
176
     1
 90
        1
176
     1
 90
        2
176
     1
 40
0.6
176
     1
 40
30.0
176
     1
 62
     7
420
 16777215
176
     1
 90
        1
176
     1
 90
        0
176
     1
 62
     7
176
     1
 62
   257
176
     1
 90
        1
176
     1
 90
        1
176
     1
 40
1.0
176
     1
 90
        0
176
     1
 62
   257
176
     1
 40
1.0
176
     1
 90
        1
176
     1
 90
        6
176
     1
 90
        2
176
     1
 62
     7
176
     1
 90
        5
176
     1
 90
        0
176
     1
 90
        0
176
     1
290
     0
176
     1
 90
       13
176
     1
 40
0.0
176
     1
 90
        0
176
     1
290
     0
176
     1
290
     1
176
     1
290
     1
176
     1
290
     0
176
     1
290
     0
176
     1
290
     0
176
     1
290
     0
176
     1
290
     0
176
     1
290
     0
176
     1
 90
       50
176
     1
 40
0.0
176
     1
 40
1.0
176
     1
 90
        0
176
     1
 62
    18
420
        0
176
     1
 90
       50
176
     1
 90
        3
176
     1
 62
     5
420
      255
176
     1
290
     0
176
     1
 90
       50
176
     1
 90
       50
176
     1
 90
       50
176
     1
290
     0
176
     1
 90
       50
176
     1
 62
   256
176
     0
 40
1.0
176
     0
 90
        2
176
     1
  1
strokes_ogs.tif
176
     1
290
     0
176
     1
 40
1.0
176
     1
 40
1.0
176
     1
1001
ACAD
1000
AcDbSavedByObjectVersion
1070
     0
  0
VISUALSTYLE
  5
31
102
{ACAD_REACTORS
330
29
102
}
330
29
100
AcDbVisualStyle
  2
Hidden
 70
     6
177
     3
291
     0
 70
    58
 90
        1
176
     1
 90
        2
176
     1
 90
        2
176
     1
 90
        0
176
     1
 40
0.6
176
     1
 40
30.0
176
     1
 62
     7
420
 16777215
176
     1
 90
        2
176
     1
 90
        2
176
     1
 62
     7
176
     1
 62
   257
176
     1
 90
        2
176
     1
 90
        1
176
     1
 40
40.0
176
     1
 90
        0
176
     1
 62
   257
176
     1
 40
1.0
176
     1
 90
        1
176
     1
 90
        6
176
     1
 90
        2
176
     1
 62
     7
176
     1
 90
        3
176
     1
 90
        0
176
     1
 90
        0
176
     1
290
     0
176
     1
 90
        1
176
     1
 40
0.0
176
     1
 90
        0
176
     1
290
     0
176
     1
290
     1
176
     1
290
     1
176
     1
290
     0
176
     1
290
     0
176
     1
290
     0
176
     1
290
     0
176
     1
290
     0
176
     1
290
     0
176
     1
 90
       50
176
     1
 40
0.0
176
     1
 40
1.0
176
     1
 90
        0
176
     1
 62
    18
420
        0
176
     1
 90
       50
176
     1
 90
        3
176
     1
 62
     5
420
      255
176
     1
290
     0
176
     1
 90
       50
176
     1
 90
       50
176
     1
 90
       50
176
     1
290
     0
176
     1
 90
       50
176
     1
 62
   256
176
     0
 40
1.0
176
     0
 90
        2
176
     1
  1
strokes_ogs.tif
176
     1
290
     0
176
     1
 40
1.0
176
     1
 40
1.0
176
     1
1001
ACAD
1000
AcDbSavedByObjectVersion
1070
     0
  0
VISUALSTYLE
  5
3F
102
{ACAD_REACTORS
330
29
102
}
330
29
100
AcDbVisualStyle
  2
JitterOff
 70
    20
177
     3
291
     1
 70
    58
 90
        2
176
     0
 90
        2
176
     0
 90
        0
176
     0
 90
        0
176
     0
 40
0.6
176
     0
 40
30.0
176
     0
 62
     7
420
 16777215
176
     0
 90
        1
176
     0
 90
        4
176
     0
 62
     7
176
     0
 62
   257
176
     0
 90
        1
176
     0
 90
        1
176
     0
 40
1.0
176
     0
 90
       10
176
     2
 62
     7
176
     0
 40
1.0
176
     0
 90
        1
176
     0
 90
        6
176
     0
 90
        2
176
     0
 62
     7
176
     0
 90
        5
176
     0
 90
        0
176
     0
 90
        0
176
     0
290
     0
176
     0
 90
        1
176
     0
 40
0.0
176
     0
 90
        0
176
     0
290
     0
176
     0
290
     1
176
     0
290
     1
176
     0
290
     0
176
     0
290
     0
176
     0
290
     0
176
     0
290
     0
176
     0
290
     0
176
     0
290
     0
176
     0
 90
       50
176
     0
 40
0.0
176
     0
 40
1.0
176
     0
 90
        0
176
     0
 62
    18
420
        0
176
     0
 90
       50
176
     0
 90
        3
176
     0
 62
     5
420
      255
176
     0
290
     0
176
     0
 90
       50
176
     0
 90
       50
176
     0
 90
       50
176
     0
290
     0
176
     0
 90
       50
176
     0
 62
   256
176
     0
 40
1.0
176
     0
 90
        2
176
     0
  1
strokes_ogs.tif
176
     0
290
     0
176
     0
 40
1.0
176
     0
 40
1.0
176
     0
1001
ACAD
1000
AcDbSavedByObjectVersion
1070
     0
  0
VISUALSTYLE
  5
37
102
{ACAD_REACTORS
330
29
102
}
330
29
100
AcDbVisualStyle
  2
Linepattern
 70
    14
177
     3
291
     1
 70
    58
 90
        2
176
     1
 90
        2
176
     1
 90
        0
176
     1
 90
        0
176
     1
 40
0.6
176
     1
 40
30.0
176
     1
 62
     7
420
 16777215
176
     1
 90
        1
176
     1
 90
        4
176
     1
 62
     7
176
     1
 62
   257
176
     1
 90
        7
176
     1
 90
        7
176
     1
 40
1.0
176
     1
 90
        8
176
     1
 62
     7
176
     1
 40
1.0
176
     1
 90
        1
176
     1
 90
        6
176
     1
 90
        2
176
     1
 62
     7
176
     1
 90
        5
176
     1
 90
        0
176
     1
 90
        0
176
     1
290
     0
176
     1
 90
        1
176
     1
 40
0.0
176
     1
 90
        0
176
     1
290
     0
176
     1
290
     1
176
     1
290
     1
176
     1
290
     0
176
     1
290
     0
176
     1
290
     0
176
     1
290
     0
176
     1
290
     0
176
     1
290
     0
176
     1
 90
       50
176
     1
 40
0.0
176
     1
 40
1.0
176
     1
 90
        0
176
     1
 62
    18
420
        0
176
     1
 90
       50
176
     1
 90
        3
176
     1
 62
     5
420
      255
176
     1
290
     0
176
     1
 90
       50
176
     1
 90
       50
176
     1
 90
       50
176
     1
290
     0
176
     1
 90
       50
176
     1
 62
   256
176
     0
 40
1.0
176
     0
 90
        2
176
     1
  1
strokes_ogs.tif
176
     1
290
     0
176
     1
 40
1.0
176
     1
 40
1.0
176
     1
1001
ACAD
1000
AcDbSavedByObjectVersion
1070
     0
  0
VISUALSTYLE
  5
40
102
{ACAD_REACTORS
330
29
102
}
330
29
100
AcDbVisualStyle
  2
OverhangOff
 70
    21
177
     3
291
     1
 70
    58
 90
        2
176
     0
 90
        2
176
     0
 90
        0
176
     0
 90
        0
176
     0
 40
0.6
176
     0
 40
30.0
176
     0
 62
     7
420
 16777215
176
     0
 90
        1
176
     0
 90
        4
176
     0
 62
     7
176
     0
 62
   257
176
     0
 90
        1
176
     0
 90
        1
176
     0
 40
1.0
176
     0
 90
        9
176
     2
 62
     7
176
     0
 40
1.0
176
     0
 90
        1
176
     0
 90
        6
176
     0
 90
        2
176
     0
 62
     7
176
     0
 90
        5
176
     0
 90
        0
176
     0
 90
        0
176
     0
290
     0
176
     0
 90
        1
176
     0
 40
0.0
176
     0
 90
        0
176
     0
290
     0
176
     0
290
     1
176
     0
290
     1
176
     0
290
     0
176
     0
290
     0
176
     0
290
     0
176
     0
290
     0
176
     0
290
     0
176
     0
290
     0
176
     0
 90
       50
176
     0
 40
0.0
176
     0
 40
1.0
176
     0
 90
        0
176
     0
 62
    18
420
        0
176
     0
 90
       50
176
     0
 90
        3
176
     0
 62
     5
420
      255
176
     0
290
     0
176
     0
 90
       50
176
     0
 90
       50
176
     0
 90
       50
176
     0
290
     0
176
     0
 90
       50
176
     0
 62
   256
176
     0
 40
1.0
176
     0
 90
        2
176
     0
  1
strokes_ogs.tif
176
     0
290
     0
176
     0
 40
1.0
176
     0
 40
1.0
176
     0
1001
ACAD
1000
AcDbSavedByObjectVersion
1070
     0
  0
VISUALSTYLE
  5
33
102
{ACAD_REACTORS
330
29
102
}
330
29
100
AcDbVisualStyle
  2
Realistic
 70
     8
177
     3
291
     0
 70
    58
 90
        2
176
     1
 90
        3
176
     1
 90
        0
176
     1
 90
        2
176
     1
 40
0.6
176
     1
 40
30.0
176
     1
 62
     7
420
 16777215
176
     1
 90
        0
176
     1
 90
        0
176
     1
 62
     7
176
     1
 62
   257
176
     1
 90
        1
176
     1
 90
        1
176
     1
 40
1.0
176
     1
 90
        8
176
     1
 62
   257
176
     1
 40
1.0
176
     1
 90
        1
176
     1
 90
        6
176
     1
 90
        2
176
     1
 62
     7
176
     1
 90
        3
176
     1
 90
        0
176
     1
 90
        0
176
     1
290
     0
176
     1
 90
       13
176
     1
 40
0.0
176
     1
 90
        0
176
     1
290
     0
176
     1
290
     1
176
     1
290
     1
176
     1
290
     0
176
     1
290
     0
176
     1
290
     0
176
     1
290
     0
176
     1
290
     0
176
     1
290
     0
176
     1
 90
       50
176
     1
 40
0.0
176
     1
 40
1.0
176
     1
 90
        0
176
     1
 62
    18
420
        0
176
     1
 90
       50
176
     1
 90
        3
176
     1
 62
     5
420
      255
176
     1
290
     0
176
     1
 90
       50
176
     1
 90
       50
176
     1
 90
       50
176
     1
290
     0
176
     1
 90
       50
176
     1
 62
   256
176
     0
 40
1.0
176
     0
 90
        2
176
     1
  1
strokes_ogs.tif
176
     1
290
     0
176
     1
 40
1.0
176
     1
 40
1.0
176
     1
1001
ACAD
1000
AcDbSavedByObjectVersion
1070
     0
  0
VISUALSTYLE
  5
3E
102
{ACAD_REACTORS
330
29
102
}
330
29
100
AcDbVisualStyle
  2
Shaded
 70
    27
177
     3
291
     0
 70
    58
 90
        2
176
     1
 90
        2
176
     1
 90
        1
176
     1
 90
        2
176
     1
 40
0.6
176
     1
 40
30.0
176
     1
 62
     7
420
 16777215
176
     1
 90
        0
176
     1
 90
        4
176
     1
 62
     7
176
     1
 62
   257
176
     1
 90
        1
176
     1
 90
        1
176
     1
 40
1.0
176
     1
 90
        8
176
     1
 62
   257
176
     1
 40
1.0
176
     1
 90
        1
176
     1
 90
        6
176
     1
 90
        2
176
     1
 62
     8
420
  7895160
176
     1
 90
        3
176
     1
 90
        0
176
     1
 90
        0
176
     1
290
     0
176
     1
 90
        5
176
     1
 40
0.0
176
     1
 90
        0
176
     1
290
     0
176
     1
290
     1
176
     1
290
     1
176
     1
290
     0
176
     1
290
     0
176
     1
290
     0
176
     1
290
     0
176
     1
290
     0
176
     1
290
     0
176
     1
 90
       50
176
     1
 40
0.0
176
     1
 40
1.0
176
     1
 90
        0
176
     1
 62
    18
420
        0
176
     1
 90
       50
176
     1
 90
        3
176
     1
 62
     5
420
      255
176
     1
290
     0
176
     1
 90
       50
176
     1
 90
       50
176
     1
 90
       50
176
     1
290
     0
176
     1
 90
       50
176
     1
 62
   256
176
     0
 40
1.0
176
     0
 90
        2
176
     1
  1
strokes_ogs.tif
176
     1
290
     0
176
     1
 40
1.0
176
     1
 40
1.0
176
     1
1001
ACAD
1000
AcDbSavedByObjectVersion
1070
     0
  0
VISUALSTYLE
  5
3D
102
{ACAD_REACTORS
330
29
102
}
330
29
100
AcDbVisualStyle
  2
Shaded with edges
 70
    26
177
     3
291
     0
 70
    58
 90
        2
176
     1
 90
        2
176
     1
 90
        1
176
     1
 90
        2
176
     1
 40
0.6
176
     1
 40
30.0
176
     1
 62
     7
420
 16777215
176
     1
 90
        1
176
     1
 90
        2
176
     1
 62
     7
176
     1
 62
   257
176
     1
 90
        2
176
     1
 90
        1
176
     1
 40
1.0
176
     1
 90
        8
176
     1
 62
   257
176
     1
 40
1.0
176
     1
 90
        1
176
     1
 90
        6
176
     1
 90
        2
176
     1
 62
     7
176
     1
 90
        3
176
     1
 90
        0
176
     1
 90
        0
176
     1
290
     0
176
     1
 90
        5
176
     1
 40
0.0
176
     1
 90
        0
176
     1
290
     0
176
     1
290
     1
176
     1
290
     1
176
     1
290
     0
176
     1
290
     0
176
     1
290
     0
176
     1
290
     0
176
     1
290
     0
176
     1
290
     0
176
     1
 90
       50
176
     1
 40
0.0
176
     1
 40
1.0
176
     1
 90
        0
176
     1
 62
    18
420
        0
176
     1
 90
       50
176
     1
 90
        3
176
     1
 62
     5
420
      255
176
     1
290
     0
176
     1
 90
       50
176
     1
 90
       50
176
     1
 90
       50
176
     1
290
     0
176
     1
 90
       50
176
     1
 62
   256
176
     0
 40
1.0
176
     0
 90
        2
176
     1
  1
strokes_ogs.tif
176
     1
290
     0
176
     1
 40
1.0
176
     1
 40
1.0
176
     1
1001
ACAD
1000
AcDbSavedByObjectVersion
1070
     0
  0
VISUALSTYLE
  5
3A
102
{ACAD_REACTORS
330
29
102
}
330
29
100
AcDbVisualStyle
  2
Shades of Gray
 70
    23
177
     3
291
     0
 70
    58
 90
        2
176
     1
 90
        2
176
     1
 90
        3
176
     1
 90
        0
176
     1
 40
0.6
176
     1
 40
30.0
176
     1
 62
     7
420
 16777215
176
     1
 90
        2
176
     1
 90
        2
176
     1
 62
     7
176
     1
 62
     7
176
     1
 90
        1
176
     1
 90
        1
176
     1
 40
40.0
176
     1
 90
        8
176
     1
 62
     7
176
     1
 40
1.0
176
     1
 90
        1
176
     1
 90
        6
176
     1
 90
        2
176
     1
 62
     7
176
     1
 90
        3
176
     1
 90
        0
176
     1
 90
        0
176
     1
290
     0
176
     1
 90
        1
176
     1
 40
0.0
176
     1
 90
        0
176
     1
290
     0
176
     1
290
     1
176
     1
290
     1
176
     1
290
     0
176
     1
290
     0
176
     1
290
     0
176
     1
290
     0
176
     1
290
     0
176
     1
290
     0
176
     1
 90
       50
176
     1
 40
0.0
176
     1
 40
1.0
176
     1
 90
        0
176
     1
 62
    18
420
        0
176
     1
 90
       50
176
     1
 90
        3
176
     1
 62
     5
420
      255
176
     1
290
     0
176
     1
 90
       50
176
     1
 90
       50
176
     1
 90
       50
176
     1
290
     0
176
     1
 90
       50
176
     1
 62
   256
176
     0
 40
1.0
176
     0
 90
        2
176
     1
  1
strokes_ogs.tif
176
     1
290
     0
176
     1
 40
1.0
176
     1
 40
1.0
176
     1
1001
ACAD
1000
AcDbSavedByObjectVersion
1070
     0
  0
VISUALSTYLE
  5
3B
102
{ACAD_REACTORS
330
29
102
}
330
29
100
AcDbVisualStyle
  2
Sketchy
 70
    24
177
     3
291
     0
 70
    58
 90
        1
176
     1
 90
        2
176
     1
 90
        2
176
     1
 90
        0
176
     1
 40
0.6
176
     1
 40
30.0
176
     1
 62
     7
420
 16777215
176
     1
 90
        2
176
     1
 90
        2
176
     1
 62
     7
176
     1
 62
     7
176
     1
 90
        1
176
     1
 90
        1
176
     1
 40
40.0
176
     1
 90
       11
176
     1
 62
     7
176
     1
 40
1.0
176
     1
 90
        1
176
     1
 90
        6
176
     1
 90
        2
176
     1
 62
     7
176
     1
 90
        6
176
     1
 90
        0
176
     1
 90
        0
176
     1
290
     0
176
     1
 90
        1
176
     1
 40
0.0
176
     1
 90
        0
176
     1
290
     0
176
     1
290
     1
176
     1
290
     1
176
     1
290
     0
176
     1
290
     0
176
     1
290
     0
176
     1
290
     0
176
     1
290
     0
176
     1
290
     0
176
     1
 90
       50
176
     1
 40
0.0
176
     1
 40
1.0
176
     1
 90
        0
176
     1
 62
    18
420
        0
176
     1
 90
       50
176
     1
 90
        3
176
     1
 62
     5
420
      255
176
     1
290
     0
176
     1
 90
       50
176
     1
 90
       50
176
     1
 90
       50
176
     1
290
     0
176
     1
 90
       50
176
     1
 62
   256
176
     0
 40
1.0
176
     0
 90
        2
176
     1
  1
strokes_ogs.tif
176
     1
290
     0
176
     1
 40
1.0
176
     1
 40
1.0
176
     1
1001
ACAD
1000
AcDbSavedByObjectVersion
1070
     0
  0
VISUALSTYLE
  5
36
102
{ACAD_REACTORS
330
29
102
}
330
29
100
AcDbVisualStyle
  2
Thicken
 70
    13
177
     3
291
     1
 70
    58
 90
        2
176
     1
 90
        2
176
     1
 90
        0
176
     1
 90
        0
176
     1
 40
0.6
176
     1
 40
30.0
176
     1
 62
     7
420
 16777215
176
     1
 90
        1
176
     1
 90
        4
176
     1
 62
     7
176
     1
 62
   257
176
     1
 90
        1
176
     1
 90
        1
176
     1
 40
1.0
176
     1
 90
       12
176
     1
 62
     7
176
     1
 40
1.0
176
     1
 90
        1
176
     1
 90
        6
176
     1
 90
        2
176
     1
 62
     7
176
     1
 90
        5
176
     1
 90
        0
176
     1
 90
        0
176
     1
290
     0
176
     1
 90
        1
176
     1
 40
0.0
176
     1
 90
        0
176
     1
290
     0
176
     1
290
     1
176
     1
290
     1
176
     1
290
     0
176
     1
290
     0
176
     1
290
     0
176
     1
290
     0
176
     1
290
     0
176
     1
290
     0
176
     1
 90
       50
176
     1
 40
0.0
176
     1
 40
1.0
176
     1
 90
        0
176
     1
 62
    18
420
        0
176
     1
 90
       50
176
     1
 90
        3
176
     1
 62
     5
420
      255
176
     1
290
     0
176
     1
 90
       50
176
     1
 90
       50
176
     1
 90
       50
176
     1
290
     0
176
     1
 90
       50
176
     1
 62
   256
176
     0
 40
1.0
176
     0
 90
        2
176
     1
  1
strokes_ogs.tif
176
     1
290
     0
176
     1
 40
1.0
176
     1
 40
1.0
176
     1
1001
ACAD
1000
AcDbSavedByObjectVersion
1070
     0
  0
VISUALSTYLE
  5
30
102
{ACAD_REACTORS
330
29
102
}
330
29
100
AcDbVisualStyle
  2
Wireframe
 70
     5
177
     3
291
     0
 70
    58
 90
        0
176
     1
 90
        2
176
     1
 90
        0
176
     1
 90
        0
176
     1
 40
0.6
176
     1
 40
30.0
176
     1
 62
     7
420
 16777215
176
     1
 90
        1
176
     1
 90
        4
176
     1
 62
     7
176
     1
 62
   257
176
     1
 90
        1
176
     1
 90
        1
176
     1
 40
1.0
176
     1
 90
        0
176
     1
 62
   257
176
     1
 40
1.0
176
     1
 90
        1
176
     1
 90
        6
176
     1
 90
        2
176
     1
 62
     7
176
     1
 90
        3
176
     1
 90
        0
176
     1
 90
        0
176
     1
290
     0
176
     1
 90
        1
176
     1
 40
0.0
176
     1
 90
        0
176
     1
290
     0
176
     1
290
     1
176
     1
290
     1
176
     1
290
     0
176
     1
290
     0
176
     1
290
     0
176
     1
290
     0
176
     1
290
     0
176
     1
290
     0
176
     1
 90
       50
176
     1
 40
0.0
176
     1
 40
1.0
176
     1
 90
        0
176
     1
 62
    18
420
        0
176
     1
 90
       50
176
     1
 90
        3
176
     1
 62
     5
420
      255
176
     1
290
     0
176
     1
 90
       50
176
     1
 90
       50
176
     1
 90
       50
176
     1
290
     0
176
     1
 90
       50
176
     1
 62
   256
176
     0
 40
1.0
176
     0
 90
        2
176
     1
  1
strokes_ogs.tif
176
     1
290
     0
176
     1
 40
1.0
176
     1
 40
1.0
176
     1
1001
ACAD
1000
AcDbSavedByObjectVersion
1070
     0
  0
VISUALSTYLE
  5
3C
102
{ACAD_REACTORS
330
29
102
}
330
29
100
AcDbVisualStyle
  2
X-Ray
 70
    25
177
     3
291
     0
 70
    58
 90
        2
176
     1
 90
        2
176
     1
 90
        1
176
     1
 90
        1
176
     1
 40
0.5
176
     1
 40
30.0
176
     1
 62
     7
420
 16777215
176
     1
 90
        1
176
     1
 90
        0
176
     1
 62
     7
176
     1
 62
   257
176
     1
 90
        1
176
     1
 90
        1
176
     1
 40
1.0
176
     1
 90
        8
176
     1
 62
     7
176
     1
 40
1.0
176
     1
 90
        1
176
     1
 90
        6
176
     1
 90
        2
176
     1
 62
     7
176
     1
 90
        3
176
     1
 90
        0
176
     1
 90
        0
176
     1
290
     0
176
     1
 90
       13
176
     1
 40
0.0
176
     1
 90
        0
176
     1
290
     0
176
     1
290
     1
176
     1
290
     1
176
     1
290
     0
176
     1
290
     0
176
     1
290
     0
176
     1
290
     0
176
     1
290
     0
176
     1
290
     0
176
     1
 90
       50
176
     1
 40
0.0
176
     1
 40
1.0
176
     1
 90
        0
176
     1
 62
    18
420
        0
176
     1
 90
       50
176
     1
 90
        3
176
     1
 62
     5
420
      255
176
     1
290
     0
176
     1
 90
       50
176
     1
 90
       50
176
     1
 90
       50
176
     1
290
     0
176
     1
 90
       50
176
     1
 62
   256
176
     0
 40
1.0
176
     0
 90
        2
176
     1
  1
strokes_ogs.tif
176
     1
290
     0
176
     1
 40
1.0
176
     1
 40
1.0
176
     1
1001
ACAD
1000
AcDbSavedByObjectVersion
1070
     0
  0
DICTIONARYVAR
  5
189
102
{ACAD_REACTORS
330
184
102
}
330
184
100
DictionaryVariables
280
     0
  1
1:1
  0
DICTIONARYVAR
  5
186
102
{ACAD_REACTORS
330
184
102
}
330
184
100
DictionaryVariables
280
     0
  1
STANDARD
  0
DICTIONARYVAR
  5
185
102
{ACAD_REACTORS
330
184
102
}
330
184
100
DictionaryVariables
280
     0
  1
STANDARD
  0
DICTIONARYVAR
  5
187
102
{ACAD_REACTORS
330
184
102
}
330
184
100
DictionaryVariables
280
     0
  1
Imperial24
  0
DICTIONARYVAR
  5
188
102
{ACAD_REACTORS
330
184
102
}
330
184
100
DictionaryVariables
280
     0
  1
Imperial24
  0
DICTIONARY
  5
1D1
330
6B
100
AcDbDictionary
280
     1
281
     1
  3
ACAD_XREC_ROUNDTRIP
360
1D2
  0
DICTIONARY
  5
1A
330
19
100
AcDbDictionary
280
     1
281
     1
  3
BUMPTILE
360
1C
  3
DIFFUSETILE
360
1B
  3
OPACITYTILE
360
1F
  3
REFLECTIONTILE
360
1E
  3
REFRACTIONTILE
360
20
  3
SPECULARTILE
360
1D
  0
DICTIONARY
  5
12
330
11
100
AcDbDictionary
280
     1
281
     1
  3
BUMPTILE
360
14
  3
DIFFUSETILE
360
13
  3
OPACITYTILE
360
17
  3
REFLECTIONTILE
360
16
  3
REFRACTIONTILE
360
18
  3
SPECULARTILE
360
15
  0
DICTIONARY
  5
22
330
21
100
AcDbDictionary
280
     1
281
     1
  3
BUMPTILE
360
24
  3
DIFFUSETILE
360
23
  3
OPACITYTILE
360
27
  3
REFLECTIONTILE
360
26
  3
REFRACTIONTILE
360
28
  3
SPECULARTILE
360
25
  0
DICTIONARY
  5
1CF
330
69
100
AcDbDictionary
280
     1
281
     1
  3
ACAD_XREC_ROUNDTRIP
360
1D0
  0
DICTIONARY
  5
1CC
330
65
100
AcDbDictionary
280
     1
281
     1
  3
ACAD_ROUNDTRIP_2008_TABLESTYLE_CELLSTYLEMAP
360
1CD
  0
XRECORD
  5
1D2
102
{ACAD_REACTORS
330
1D1
102
}
330
1D1
100
AcDbXrecord
280
     1
102
DISPLAYNAME
  1
Imperial24
102
FLAGS
 90
        0
  0
XRECORD
  5
1C
102
{ACAD_REACTORS
330
1A
102
}
330
1A
100
AcDbXrecord
280
     1
270
     1
271
     1
  0
XRECORD
  5
1B
102
{ACAD_REACTORS
330
1A
102
}
330
1A
100
AcDbXrecord
280
     1
270
     1
271
     1
  0
XRECORD
  5
1F
102
{ACAD_REACTORS
330
1A
102
}
330
1A
100
AcDbXrecord
280
     1
270
     1
271
     1
  0
XRECORD
  5
1E
102
{ACAD_REACTORS
330
1A
102
}
330
1A
100
AcDbXrecord
280
     1
270
     1
271
     1
  0
XRECORD
  5
20
102
{ACAD_REACTORS
330
1A
102
}
330
1A
100
AcDbXrecord
280
     1
270
     1
271
     1
  0
XRECORD
  5
1D
102
{ACAD_REACTORS
330
1A
102
}
330
1A
100
AcDbXrecord
280
     1
270
     1
271
     1
  0
XRECORD
  5
14
102
{ACAD_REACTORS
330
12
102
}
330
12
100
AcDbXrecord
280
     1
270
     1
271
     1
  0
XRECORD
  5
13
102
{ACAD_REACTORS
330
12
102
}
330
12
100
AcDbXrecord
280
     1
270
     1
271
     1
  0
XRECORD
  5
17
102
{ACAD_REACTORS
330
12
102
}
330
12
100
AcDbXrecord
280
     1
270
     1
271
     1
  0
XRECORD
  5
16
102
{ACAD_REACTORS
330
12
102
}
330
12
100
AcDbXrecord
280
     1
270
     1
271
     1
  0
XRECORD
  5
18
102
{ACAD_REACTORS
330
12
102
}
330
12
100
AcDbXrecord
280
     1
270
     1
271
     1
  0
XRECORD
  5
15
102
{ACAD_REACTORS
330
12
102
}
330
12
100
AcDbXrecord
280
     1
270
     1
271
     1
  0
XRECORD
  5
24
102
{ACAD_REACTORS
330
22
102
}
330
22
100
AcDbXrecord
280
     1
270
     1
271
     1
  0
XRECORD
  5
23
102
{ACAD_REACTORS
330
22
102
}
330
22
100
AcDbXrecord
280
     1
270
     1
271
     1
  0
XRECORD
  5
27
102
{ACAD_REACTORS
330
22
102
}
330
22
100
AcDbXrecord
280
     1
270
     1
271
     1
  0
XRECORD
  5
26
102
{ACAD_REACTORS
330
22
102
}
330
22
100
AcDbXrecord
280
     1
270
     1
271
     1
  0
XRECORD
  5
28
102
{ACAD_REACTORS
330
22
102
}
330
22
100
AcDbXrecord
280
     1
270
     1
271
     1
  0
XRECORD
  5
25
102
{ACAD_REACTORS
330
22
102
}
330
22
100
AcDbXrecord
280
     1
270
     1
271
     1
  0
XRECORD
  5
1D0
102
{ACAD_REACTORS
330
1CF
102
}
330
1CF
100
AcDbXrecord
280
     1
102
DISPLAYNAME
  1
Imperial24
102
FLAGS
 90
        0
  0
CELLSTYLEMAP
  5
1CD
102
{ACAD_REACTORS
330
1CC
102
}
330
1CC
100
AcDbCellStyleMap
 90
        3
300
CELLSTYLE
  1
TABLEFORMAT_BEGIN
 90
        5
170
     1
 91
        0
 92
    32768
 62
   257
 93
        1
300
CONTENTFORMAT
  1
CONTENTFORMAT_BEGIN
 90
        0
 91
        0
 92
      512
 93
        0
300

 40
0.0
140
1.0
 94
        5
 62
     0
340
55
144
0.25
309
CONTENTFORMAT_END
171
     0
 94
        0
309
TABLEFORMAT_END
  1
CELLSTYLE_BEGIN
 90
        1
 91
        1
300
_TITLE
309
CELLSTYLE_END
300
CELLSTYLE
  1
TABLEFORMAT_BEGIN
 90
        5
170
     1
 91
        0
 92
        0
 62
   257
 93
        1
300
CONTENTFORMAT
  1
CONTENTFORMAT_BEGIN
 90
        0
 91
        0
 92
      512
 93
        0
300

 40
0.0
140
1.0
 94
        5
 62
     0
340
55
144
0.18
309
CONTENTFORMAT_END
171
     0
 94
        0
309
TABLEFORMAT_END
  1
CELLSTYLE_BEGIN
 90
        2
 91
        1
300
_HEADER
309
CELLSTYLE_END
300
CELLSTYLE
  1
TABLEFORMAT_BEGIN
 90
        5
170
     1
 91
        0
 92
        0
 62
   257
 93
        1
300
CONTENTFORMAT
  1
CONTENTFORMAT_BEGIN
 90
        0
 91
        0
 92
      512
 93
        0
300

 40
0.0
140
1.0
 94
        2
 62
     0
340
55
144
0.18
309
CONTENTFORMAT_END
171
     0
 94
        0
309
TABLEFORMAT_END
  1
CELLSTYLE_BEGIN
 90
        3
 91
        2
300
_DATA
309
CELLSTYLE_END
  0
ENDSEC
  0
EOF
