  0
SECTION
  2
HEADER
  9
$ACADVER
  1
AC1032
  9
$ACADMAINTVER
 90
      199
  9
$DWGCODEPAGE
  3
ANSI_1252
  9
$LASTSAVEDBY
  1
ufficio.tecnico
  9
$REQUIREDVERSIONS
160
                 0
  9
$INSBASE
 10
0.0
 20
0.0
 30
0.0
  9
$EXTMIN
 10
7.250230643128334
 20
-43.8402099846284
 30
0.0
  9
$EXTMAX
 10
98.14505868802934
 20
-9.273015870697756
 30
0.0
  9
$LIMMIN
 10
0.0
 20
0.0
  9
$LIMMAX
 10
12.0
 20
9.0
  9
$ORTHOMODE
 70
     1
  9
$REGENMODE
 70
     1
  9
$FILLMODE
 70
     1
  9
$QTEXTMODE
 70
     0
  9
$MIRRTEXT
 70
     0
  9
$LTSCALE
 40
1.0
  9
$ATTMODE
 70
     1
  9
$TEXTSIZE
 40
0.2
  9
$TRACEWID
 40
0.05
  9
$TEXTSTYLE
  7
Standard
  9
$CLAYER
  8
0
  9
$CELTYPE
  6
ByLayer
  9
$CECOLOR
 62
   256
  9
$CELTSCALE
 40
1.0
  9
$DISPSILH
 70
     0
  9
$DIMSCALE
 40
1.0
  9
$DIMASZ
 40
0.18
  9
$DIMEXO
 40
0.0625
  9
$DIMDLI
 40
0.38
  9
$DIMRND
 40
0.0
  9
$DIMDLE
 40
0.0
  9
$DIMEXE
 40
0.18
  9
$DIMTP
 40
0.0
  9
$DIMTM
 40
0.0
  9
$DIMTXT
 40
0.18
  9
$DIMCEN
 40
0.09
  9
$DIMTSZ
 40
0.0
  9
$DIMTOL
 70
     0
  9
$DIMLIM
 70
     0
  9
$DIMTIH
 70
     1
  9
$DIMTOH
 70
     1
  9
$DIMSE1
 70
     0
  9
$DIMSE2
 70
     0
  9
$DIMTAD
 70
     0
  9
$DIMZIN
 70
     0
  9
$DIMBLK
  1

  9
$DIMASO
 70
     1
  9
$DIMSHO
 70
     1
  9
$DIMPOST
  1

  9
$DIMAPOST
  1

  9
$DIMALT
 70
     0
  9
$DIMALTD
 70
     2
  9
$DIMALTF
 40
25.4
  9
$DIMLFAC
 40
1.0
  9
$DIMTOFL
 70
     0
  9
$DIMTVP
 40
0.0
  9
$DIMTIX
 70
     0
  9
$DIMSOXD
 70
     0
  9
$DIMSAH
 70
     0
  9
$DIMBLK1
  1

  9
$DIMBLK2
  1

  9
$DIMSTYLE
  2
Standard
  9
$DIMCLRD
 70
     0
  9
$DIMCLRE
 70
     0
  9
$DIMCLRT
 70
     0
  9
$DIMTFAC
 40
1.0
  9
$DIMGAP
 40
0.09
  9
$DIMJUST
 70
     0
  9
$DIMSD1
 70
     0
  9
$DIMSD2
 70
     0
  9
$DIMTOLJ
 70
     1
  9
$DIMTZIN
 70
     0
  9
$DIMALTZ
 70
     0
  9
$DIMALTTZ
 70
     0
  9
$DIMUPT
 70
     0
  9
$DIMDEC
 70
     4
  9
$DIMTDEC
 70
     4
  9
$DIMALTU
 70
     2
  9
$DIMALTTD
 70
     2
  9
$DIMTXSTY
  7
Standard
  9
$DIMAUNIT
 70
     0
  9
$DIMADEC
 70
     0
  9
$DIMALTRND
 40
0.0
  9
$DIMAZIN
 70
     0
  9
$DIMDSEP
 70
    46
  9
$DIMATFIT
 70
     3
  9
$DIMFRAC
 70
     0
  9
$DIMLDRBLK
  1

  9
$DIMLUNIT
 70
     2
  9
$DIMLWD
 70
    -2
  9
$DIMLWE
 70
    -2
  9
$DIMTMOVE
 70
     0
  9
$DIMFXL
 40
1.0
  9
$DIMFXLON
 70
     0
  9
$DIMJOGANG
 40
0.7853981633974483
  9
$DIMTFILL
 70
     0
  9
$DIMTFILLCLR
 70
     0
  9
$DIMARCSYM
 70
     0
  9
$DIMLTYPE
  6

  9
$DIMLTEX1
  6

  9
$DIMLTEX2
  6

  9
$DIMTXTDIRECTION
 70
     0
  9
$LUNITS
 70
     2
  9
$LUPREC
 70
     4
  9
$SKETCHINC
 40
0.1
  9
$FILLETRAD
 40
0.0
  9
$AUNITS
 70
     0
  9
$AUPREC
 70
     0
  9
$MENU
  1
.
  9
$ELEVATION
 40
0.0
  9
$PELEVATION
 40
0.0
  9
$THICKNESS
 40
0.0
  9
$LIMCHECK
 70
     0
  9
$CHAMFERA
 40
0.0
  9
$CHAMFERB
 40
0.0
  9
$CHAMFERC
 40
0.0
  9
$CHAMFERD
 40
0.0
  9
$SKPOLY
 70
     0
  9
$TDCREATE
 40
2460266.445752315
  9
$TDUCREATE
 40
2460266.404085648
  9
$TDUPDATE
 40
2460266.461539352
  9
$TDUUPDATE
 40
2460266.419872685
  9
$TDINDWG
 40
0.0154976852
  9
$TDUSRTIMER
 40
0.0154976852
  9
$USRTIMER
 70
     1
  9
$ANGBASE
 50
0.0
  9
$ANGDIR
 70
     0
  9
$PDMODE
 70
     0
  9
$PDSIZE
 40
0.0
  9
$PLINEWID
 40
0.0
  9
$SPLFRAME
 70
     0
  9
$SPLINETYPE
 70
     6
  9
$SPLINESEGS
 70
     8
  9
$HANDSEED
  5
2EA
  9
$SURFTAB1
 70
     6
  9
$SURFTAB2
 70
     6
  9
$SURFTYPE
 70
     6
  9
$SURFU
 70
     6
  9
$SURFV
 70
     6
  9
$UCSBASE
  2

  9
$UCSNAME
  2

  9
$UCSORG
 10
0.0
 20
0.0
 30
0.0
  9
$UCSXDIR
 10
1.0
 20
0.0
 30
0.0
  9
$UCSYDIR
 10
0.0
 20
1.0
 30
0.0
  9
$UCSORTHOREF
  2

  9
$UCSORTHOVIEW
 70
     0
  9
$UCSORGTOP
 10
0.0
 20
0.0
 30
0.0
  9
$UCSORGBOTTOM
 10
0.0
 20
0.0
 30
0.0
  9
$UCSORGLEFT
 10
0.0
 20
0.0
 30
0.0
  9
$UCSORGRIGHT
 10
0.0
 20
0.0
 30
0.0
  9
$UCSORGFRONT
 10
0.0
 20
0.0
 30
0.0
  9
$UCSORGBACK
 10
0.0
 20
0.0
 30
0.0
  9
$PUCSBASE
  2

  9
$PUCSNAME
  2

  9
$PUCSORG
 10
0.0
 20
0.0
 30
0.0
  9
$PUCSXDIR
 10
1.0
 20
0.0
 30
0.0
  9
$PUCSYDIR
 10
0.0
 20
1.0
 30
0.0
  9
$PUCSORTHOREF
  2

  9
$PUCSORTHOVIEW
 70
     0
  9
$PUCSORGTOP
 10
0.0
 20
0.0
 30
0.0
  9
$PUCSORGBOTTOM
 10
0.0
 20
0.0
 30
0.0
  9
$PUCSORGLEFT
 10
0.0
 20
0.0
 30
0.0
  9
$PUCSORGRIGHT
 10
0.0
 20
0.0
 30
0.0
  9
$PUCSORGFRONT
 10
0.0
 20
0.0
 30
0.0
  9
$PUCSORGBACK
 10
0.0
 20
0.0
 30
0.0
  9
$USERI1
 70
     0
  9
$USERI2
 70
     0
  9
$USERI3
 70
     0
  9
$USERI4
 70
     0
  9
$USERI5
 70
     0
  9
$USERR1
 40
0.0
  9
$USERR2
 40
0.0
  9
$USERR3
 40
0.0
  9
$USERR4
 40
0.0
  9
$USERR5
 40
0.0
  9
$WORLDVIEW
 70
     1
  9
$SHADEDGE
 70
     3
  9
$SHADEDIF
 70
    70
  9
$TILEMODE
 70
     1
  9
$MAXACTVP
 70
    64
  9
$PINSBASE
 10
0.0
 20
0.0
 30
0.0
  9
$PLIMCHECK
 70
     0
  9
$PEXTMIN
 10
1.000000000000000E+20
 20
1.000000000000000E+20
 30
1.000000000000000E+20
  9
$PEXTMAX
 10
-1.000000000000000E+20
 20
-1.000000000000000E+20
 30
-1.000000000000000E+20
  9
$PLIMMIN
 10
0.0
 20
0.0
  9
$PLIMMAX
 10
12.0
 20
9.0
  9
$UNITMODE
 70
     0
  9
$VISRETAIN
 70
     1
  9
$PLINEGEN
 70
     0
  9
$PSLTSCALE
 70
     1
  9
$TREEDEPTH
 70
  3020
  9
$CMLSTYLE
  2
Standard
  9
$CMLJUST
 70
     0
  9
$CMLSCALE
 40
1.0
  9
$PROXYGRAPHICS
 70
     1
  9
$MEASUREMENT
 70
     0
  9
$CELWEIGHT
370
    -1
  9
$ENDCAPS
280
     0
  9
$JOINSTYLE
280
     0
  9
$LWDISPLAY
290
     1
  9
$INSUNITS
 70
     4
  9
$HYPERLINKBASE
  1

  9
$STYLESHEET
  1

  9
$XEDIT
290
     1
  9
$CEPSNTYPE
380
     0
  9
$PSTYLEMODE
290
     1
  9
$FINGERPRINTGUID
  2
{42889501-D8C5-2442-BB6F-AD136B8965DD}
  9
$VERSIONGUID
  2
{078E78BA-799E-E846-B563-3287500AF11F}
  9
$EXTNAMES
290
     1
  9
$PSVPSCALE
 40
0.0
  9
$OLESTARTUP
290
     0
  9
$SORTENTS
280
   127
  9
$INDEXCTL
280
     0
  9
$HIDETEXT
280
     1
  9
$XCLIPFRAME
280
     2
  9
$HALOGAP
280
     0
  9
$OBSCOLOR
 70
   257
  9
$OBSLTYPE
280
     0
  9
$INTERSECTIONDISPLAY
280
     0
  9
$INTERSECTIONCOLOR
 70
   257
  9
$DIMASSOC
280
     2
  9
$PROJECTNAME
  1

  9
$CAMERADISPLAY
290
     0
  9
$LENSLENGTH
 40
50.0
  9
$CAMERAHEIGHT
 40
0.0
  9
$STEPSPERSEC
 40
2.0
  9
$STEPSIZE
 40
6.0
  9
$3DDWFPREC
 40
2.0
  9
$PSOLWIDTH
 40
0.25
  9
$PSOLHEIGHT
 40
4.0
  9
$LOFTANG1
 40
1.570796326794896
  9
$LOFTANG2
 40
1.570796326794896
  9
$LOFTMAG1
 40
0.0
  9
$LOFTMAG2
 40
0.0
  9
$LOFTPARAM
 70
     7
  9
$LOFTNORMALS
280
     1
  9
$LATITUDE
 40
37.795
  9
$LONGITUDE
 40
-122.394
  9
$NORTHDIRECTION
 40
0.0
  9
$TIMEZONE
 70
 -8000
  9
$LIGHTGLYPHDISPLAY
280
     1
  9
$TILEMODELIGHTSYNCH
280
     1
  9
$CMATERIAL
347
11
  9
$SOLIDHIST
280
     0
  9
$SHOWHIST
280
     1
  9
$DWFFRAME
280
     2
  9
$DGNFRAME
280
     0
  9
$REALWORLDSCALE
290
     1
  9
$INTERFERECOLOR
 62
     1
  9
$INTERFEREOBJVS
345
33
  9
$INTERFEREVPVS
346
30
  9
$CSHADOW
280
     0
  9
$SHADOWPLANELOCATION
 40
0.0
  0
ENDSEC
  0
SECTION
  2
CLASSES
  0
CLASS
  1
ACDBDICTIONARYWDFLT
  2
AcDbDictionaryWithDefault
  3
ObjectDBX Classes
 90
        0
 91
        1
280
     0
281
     0
  0
CLASS
  1
MATERIAL
  2
AcDbMaterial
  3
ObjectDBX Classes
 90
     1153
 91
        3
280
     0
281
     0
  0
CLASS
  1
VISUALSTYLE
  2
AcDbVisualStyle
  3
ObjectDBX Classes
 90
     4095
 91
       24
280
     0
281
     0
  0
CLASS
  1
SCALE
  2
AcDbScale
  3
ObjectDBX Classes
 90
     1153
 91
       17
280
     0
281
     0
  0
CLASS
  1
TABLESTYLE
  2
AcDbTableStyle
  3
ObjectDBX Classes
 90
     4095
 91
        1
280
     0
281
     0
  0
CLASS
  1
MLEADERSTYLE
  2
AcDbMLeaderStyle
  3
ACDB_MLEADERSTYLE_CLASS
 90
     4095
 91
        1
280
     0
281
     0
  0
CLASS
  1
ACDBSECTIONVIEWSTYLE
  2
AcDbSectionViewStyle
  3
ObjectDBX Classes
 90
     1025
 91
        1
280
     0
281
     0
  0
CLASS
  1
ACDBDETAILVIEWSTYLE
  2
AcDbDetailViewStyle
  3
ObjectDBX Classes
 90
     1025
 91
        1
280
     0
281
     0
  0
CLASS
  1
DICTIONARYVAR
  2
AcDbDictionaryVar
  3
ObjectDBX Classes
 90
        0
 91
        5
280
     0
281
     0
  0
CLASS
  1
EXACXREFPANELOBJECT
  2
ExAcXREFPanelObject
  3
EXAC_ESW
 90
     1025
 91
        1
280
     0
281
     0
  0
CLASS
  1
NPOCOLLECTION
  2
AcDbImpNonPersistentObjectsCollection
  3
ObjectDBX Classes
 90
     1153
 91
        1
280
     0
281
     0
  0
CLASS
  1
SORTENTSTABLE
  2
AcDbSortentsTable
  3
ObjectDBX Classes
 90
        0
 91
        3
280
     0
281
     0
  0
CLASS
  1
CELLSTYLEMAP
  2
AcDbCellStyleMap
  3
ObjectDBX Classes
 90
     1152
 91
        3
280
     0
281
     0
  0
ENDSEC
  0
SECTION
  2
TABLES
  0
TABLE
  2
VPORT
  5
8
330
0
100
AcDbSymbolTable
 70
     1
  0
VPORT
  5
57
330
8
100
AcDbSymbolTableRecord
100
AcDbViewportTableRecord
  2
*Active
 70
     0
 10
0.0
 20
0.0
 11
1.0
 21
1.0
 12
-84.95141159594766
 22
10.37665631670218
 13
0.0
 23
0.0
 14
1.0
 24
1.0
 15
0.0
 25
0.0
 16
0.0
 26
0.0
 36
1.0
 17
37.4999999906338
 27
-24.99999999375587
 37
0.0
 40
160.5238281657656
 41
2.246006389776357
 42
50.0
 43
0.0
 44
0.0
 50
0.0
 51
0.0
 71
     0
 72
   100
 73
     1
 74
     1
 75
     0
 76
     0
 77
     0
 78
     0
281
     0
 65
     1
110
0.0
120
0.0
130
0.0
111
1.0
121
0.0
131
0.0
112
0.0
122
1.0
132
0.0
 79
     0
146
0.0
348
2F
 60
     3
 61
     5
292
     1
282
     1
141
0.0
142
0.0
 63
   250
421
  3355443
1001
ACAD_NAV_VCDISPLAY
1070
     3
  0
ENDTAB
  0
TABLE
  2
LTYPE
  5
5
330
0
100
AcDbSymbolTable
 70
     3
  0
LTYPE
  5
5B
330
5
100
AcDbSymbolTableRecord
100
AcDbLinetypeTableRecord
  2
ByBlock
 70
     0
  3

 72
    65
 73
     0
 40
0.0
  0
LTYPE
  5
5C
330
5
100
AcDbSymbolTableRecord
100
AcDbLinetypeTableRecord
  2
ByLayer
 70
     0
  3

 72
    65
 73
     0
 40
0.0
  0
LTYPE
  5
5D
330
5
100
AcDbSymbolTableRecord
100
AcDbLinetypeTableRecord
  2
Continuous
 70
     0
  3
Solid line
 72
    65
 73
     0
 40
0.0
  0
ENDTAB
  0
TABLE
  2
LAYER
  5
2
330
0
100
AcDbSymbolTable
 70
     3
  0
LAYER
  5
54
330
2
100
AcDbSymbolTableRecord
100
AcDbLayerTableRecord
  2
0
 70
     0
 62
     7
  6
Continuous
370
    -3
390
F
347
21
348
0
  0
LAYER
  5
78
330
2
100
AcDbSymbolTableRecord
100
AcDbLayerTableRecord
  2
Livello 1
 70
     0
 62
     7
  6
Continuous
370
     0
390
F
347
21
348
0
  0
LAYER
  5
2CE
330
2
100
AcDbSymbolTableRecord
100
AcDbLayerTableRecord
  2
Livello 2
 70
     0
 62
     7
  6
Continuous
370
     0
390
F
347
21
348
0
  0
ENDTAB
  0
TABLE
  2
STYLE
  5
3
330
0
100
AcDbSymbolTable
 70
     2
  0
STYLE
  5
55
330
3
100
AcDbSymbolTableRecord
100
AcDbTextStyleTableRecord
  2
Standard
 70
     0
 40
0.0
 41
1.0
 50
0.0
 71
     0
 42
0.2
  3
txt
  4

  0
STYLE
  5
5A
330
3
100
AcDbSymbolTableRecord
100
AcDbTextStyleTableRecord
  2
Annotative
 70
     0
 40
0.0
 41
1.0
 50
0.0
 71
     0
 42
0.2
  3
txt
  4

1001
AcadAnnotative
1000
AnnotativeData
1002
{
1070
     1
1070
     1
1002
}
  0
ENDTAB
  0
TABLE
  2
VIEW
  5
6
330
0
100
AcDbSymbolTable
 70
     0
  0
ENDTAB
  0
TABLE
  2
UCS
  5
7
330
0
100
AcDbSymbolTable
 70
     0
  0
ENDTAB
  0
TABLE
  2
APPID
  5
9
330
0
100
AcDbSymbolTable
 70
     4
  0
APPID
  5
56
330
9
100
AcDbSymbolTableRecord
100
AcDbRegAppTableRecord
  2
ACAD
 70
     0
  0
APPID
  5
5E
330
9
100
AcDbSymbolTableRecord
100
AcDbRegAppTableRecord
  2
AcadAnnotative
 70
     0
  0
APPID
  5
2C5
330
9
100
AcDbSymbolTableRecord
100
AcDbRegAppTableRecord
  2
ACAD_EXEMPT_FROM_CAD_STANDARDS
 70
     0
  0
APPID
  5
2CF
330
9
100
AcDbSymbolTableRecord
100
AcDbRegAppTableRecord
  2
ACAD_NAV_VCDISPLAY
 70
     0
  0
ENDTAB
  0
TABLE
  2
DIMSTYLE
  5
A
330
0
100
AcDbSymbolTable
 70
     3
100
AcDbDimStyleTable
 71
     1
340
58
  0
DIMSTYLE
105
58
330
A
100
AcDbSymbolTableRecord
100
AcDbDimStyleTableRecord
  2
Standard
 70
     0
340
55
  0
DIMSTYLE
105
59
330
A
100
AcDbSymbolTableRecord
100
AcDbDimStyleTableRecord
  2
Annotative
 70
     0
340
55
1001
AcadAnnotative
1000
AnnotativeData
1002
{
1070
     1
1070
     1
1002
}
  0
ENDTAB
  0
TABLE
  2
BLOCK_RECORD
  5
1
330
0
100
AcDbSymbolTable
 70
     4
  0
BLOCK_RECORD
  5
70
102
{ACAD_XDICTIONARY
360
228
102
}
330
1
100
AcDbSymbolTableRecord
100
AcDbBlockTableRecord
  2
*Model_Space
340
73
 70
     0
280
     1
281
     0
  0
BLOCK_RECORD
  5
6C
330
1
100
AcDbSymbolTableRecord
100
AcDbBlockTableRecord
  2
*Paper_Space
340
6F
 70
     0
280
     1
281
     0
  0
BLOCK_RECORD
  5
74
330
1
100
AcDbSymbolTableRecord
100
AcDbBlockTableRecord
  2
*Paper_Space0
340
77
 70
     0
280
     1
281
     0
  0
ENDTAB
  0
ENDSEC
  0
SECTION
  2
BLOCKS
  0
BLOCK
  5
71
330
70
100
AcDbEntity
  8
0
100
AcDbBlockBegin
  2
*Model_Space
 70
     0
 10
0.0
 20
0.0
 30
0.0
  3
*Model_Space
  1

  0
ENDBLK
  5
72
330
70
100
AcDbEntity
  8
0
100
AcDbBlockEnd
  0
BLOCK
  5
6D
330
6C
100
AcDbEntity
 67
     1
  8
0
100
AcDbBlockBegin
  2
*Paper_Space
 70
     0
 10
0.0
 20
0.0
 30
0.0
  3
*Paper_Space
  1

  0
ENDBLK
  5
6E
330
6C
100
AcDbEntity
 67
     1
  8
0
100
AcDbBlockEnd
  0
BLOCK
  5
75
330
74
100
AcDbEntity
 67
     1
  8
0
100
AcDbBlockBegin
  2
*Paper_Space0
 70
     0
 10
0.0
 20
0.0
 30
0.0
  3
*Paper_Space0
  1

  0
ENDBLK
  5
76
330
74
100
AcDbEntity
 67
     1
  8
0
100
AcDbBlockEnd
  0
ENDSEC
  0
SECTION
  2
ENTITIES
  0
SPLINE
  5
79
330
70
100
AcDbEntity
  8
0
370
     9
100
AcDbSpline
210
0.0
220
0.0
230
1.0
 70
     8
 71
     3
 72
     8
 73
     4
 74
     0
 42
0.000000001
 43
0.0000000001
 40
0.0
 40
0.0
 40
0.0
 40
0.0
 40
1.0
 40
1.0
 40
1.0
 40
1.0
 10
16.90464875072686
 20
-18.00838802640759
 30
0.0
 10
16.95444545678189
 20
-17.97961228346355
 30
0.0
 10
17.00435071330737
 20
-17.95082996170257
 30
0.0
 10
17.05414906406591
 20
-17.92205421875756
 30
0.0
  0
SPLINE
  5
7A
330
70
100
AcDbEntity
  8
0
370
     9
100
AcDbSpline
210
0.0
220
0.0
230
1.0
 70
     8
 71
     3
 72
     8
 73
     4
 74
     0
 42
0.000000001
 43
0.0000000001
 40
0.0
 40
0.0
 40
0.0
 40
0.0
 40
1.0
 40
1.0
 40
1.0
 40
1.0
 10
58.8620371802347
 20
-17.92467258768631
 30
0.0
 10
58.79984104996479
 20
-17.96056660997839
 30
0.0
 10
58.73753965863403
 20
-17.99646063227015
 30
0.0
 10
58.67534352836413
 20
-18.03245991562469
 30
0.0
  0
SPLINE
  5
7B
330
70
100
AcDbEntity
  8
0
370
     9
100
AcDbSpline
210
0.0
220
0.0
230
1.0
 70
     8
 71
     3
 72
     8
 73
     4
 74
     0
 42
0.000000001
 43
0.0000000001
 40
0.0
 40
0.0
 40
0.0
 40
0.0
 40
1.0
 40
1.0
 40
1.0
 40
1.0
 10
58.88892480287223
 20
-18.36718351536839
 30
0.0
 10
58.81756438135393
 20
-18.40836032723179
 30
0.0
 10
58.74631579971504
 20
-18.44953713909518
 30
0.0
 10
58.67496195701336
 20
-18.4907139509589
 30
0.0
  0
SPLINE
  5
7C
330
70
100
AcDbEntity
  8
0
370
     9
100
AcDbSpline
210
0.0
220
0.0
230
1.0
 70
     8
 71
     3
 72
     8
 73
     4
 74
     0
 42
0.000000001
 43
0.0000000001
 40
0.0
 40
0.0
 40
0.0
 40
0.0
 40
1.0
 40
1.0
 40
1.0
 40
1.0
 10
17.09230619920055
 20
-18.26162640619042
 30
0.0
 10
17.02774005032242
 20
-18.22433767482105
 30
0.0
 10
16.96306864038151
 20
-18.18704236463506
 30
0.0
 10
16.89850413620721
 20
-18.14974705444842
 30
0.0
  0
SPLINE
  5
7D
330
70
100
AcDbEntity
  8
0
370
     9
100
AcDbSpline
210
0.0
220
0.0
230
1.0
 70
     8
 71
     3
 72
     8
 73
     4
 74
     0
 42
0.000000001
 43
0.0000000001
 40
0.0
 40
0.0
 40
0.0
 40
0.0
 40
1.0
 40
1.0
 40
1.0
 40
1.0
 10
17.09178811740931
 20
-18.71984096862488
 30
0.0
 10
17.02733051900132
 20
-18.68265749831798
 30
0.0
 10
16.96287292059366
 20
-18.64547402801107
 30
0.0
 10
16.89841696689014
 20
-18.60817871782541
 30
0.0
  0
LINE
  5
7E
330
70
100
AcDbEntity
  8
0
370
     9
100
AcDbLine
 10
58.67546852587615
 20
-18.03386778233491
 30
0.0
 11
58.67546852587615
 21
-18.15179306634975
 31
0.0
  0
LINE
  5
7F
330
70
100
AcDbEntity
  8
0
370
     9
100
AcDbLine
 10
58.67510669097398
 20
-18.49276654167653
 30
0.0
 11
58.67510669097398
 21
-18.61015236274643
 31
0.0
  0
LINE
  5
80
330
70
100
AcDbEntity
  8
0
370
     9
100
AcDbLine
 10
17.09218778050547
 20
-18.3809858721807
 30
0.0
 11
17.09218778050547
 21
-18.26371846980588
 31
0.0
  0
LINE
  5
81
330
70
100
AcDbEntity
  8
0
370
     9
100
AcDbLine
 10
17.09178811740931
 20
-18.74476810397432
 30
0.0
 11
17.09178811740931
 21
-18.71976202282859
 31
0.0
  0
SPLINE
  5
82
330
70
100
AcDbEntity
  8
0
370
     9
100
AcDbSpline
210
0.0
220
0.0
230
1.0
 70
     8
 71
     3
 72
     8
 73
     4
 74
     0
 42
0.000000001
 43
0.0000000001
 40
0.0
 40
0.0
 40
0.0
 40
0.0
 40
1.0
 40
1.0
 40
1.0
 40
1.0
 10
58.67535010718139
 20
-18.15149701961222
 30
0.0
 10
58.74206588431917
 20
-18.19008835662935
 30
0.0
 10
58.80878824027291
 20
-18.2285678537677
 30
0.0
 10
58.87551059622667
 20
-18.26704735090605
 30
0.0
  0
SPLINE
  5
83
330
70
100
AcDbEntity
  8
0
370
     9
100
AcDbSpline
210
0.0
220
0.0
230
1.0
 70
     8
 71
     3
 72
     8
 73
     4
 74
     0
 42
0.000000001
 43
0.0000000001
 40
0.0
 40
0.0
 40
0.0
 40
0.0
 40
1.0
 40
1.0
 40
1.0
 40
1.0
 10
58.6749553781961
 20
-18.60981026429285
 30
0.0
 10
58.73994750543721
 20
-18.64732267542008
 30
0.0
 10
58.80494621149495
 20
-18.68483508654795
 30
0.0
 10
58.86983307767263
 20
-18.72234091885856
 30
0.0
  0
SPLINE
  5
84
330
70
100
AcDbEntity
  8
0
370
     9
100
AcDbSpline
210
0.0
220
0.0
230
1.0
 70
     8
 71
     3
 72
     8
 73
     4
 74
     0
 42
0.000000001
 43
0.0000000001
 40
0.0
 40
0.0
 40
0.0
 40
0.0
 40
1.0
 40
1.0
 40
1.0
 40
1.0
 10
16.89569004749125
 20
-18.49422703891782
 30
0.0
 10
16.96122328238049
 20
-18.45639884460319
 30
0.0
 10
17.02675816197422
 20
-18.41856407147257
 30
0.0
 10
17.09229304156794
 20
-18.38072929834099
 30
0.0
  0
LINE
  5
85
330
70
100
AcDbEntity
  8
0
370
     9
100
AcDbLine
 10
58.88941821410241
 20
-17.82814819342842
 30
0.0
 11
58.88941821410241
 21
-17.90856106631635
 31
0.0
  0
LINE
  5
86
330
70
100
AcDbEntity
  8
0
370
     9
100
AcDbLine
 10
36.84991616970759
 20
-10.49521522432419
 30
0.0
 11
36.7379249780881
 21
-12.63339634330607
 31
0.0
  0
LINE
  5
87
330
70
100
AcDbEntity
  8
0
370
     9
100
AcDbLine
 10
38.91728948775032
 20
-10.49521522432419
 30
0.0
 11
39.02938594043227
 21
-12.63339634330607
 31
0.0
  0
LINE
  5
88
330
70
100
AcDbEntity
  8
0
370
     9
100
AcDbLine
 10
39.09337150876316
 20
-10.49521522432419
 30
0.0
 11
39.00530747239855
 21
-12.17519493850422
 31
0.0
  0
LINE
  5
89
330
70
100
AcDbEntity
  8
0
370
     9
100
AcDbLine
 10
58.72719775924829
 20
-12.48121516228321
 30
0.0
 11
58.81870909540879
 21
-17.725393660037
 31
0.0
  0
LINE
  5
8A
330
70
100
AcDbEntity
  8
0
370
     9
100
AcDbLine
 10
17.03999638528052
 20
-12.48121516228321
 30
0.0
 11
16.94848340441684
 21
-17.725393660037
 31
0.0
  0
LINE
  5
8B
330
70
100
AcDbEntity
  8
0
370
     9
100
AcDbLine
 10
36.67383414869475
 20
-10.49521522432419
 30
0.0
 11
36.76189489565105
 21
-12.17519493850422
 31
0.0
  0
LINE
  5
8C
330
70
100
AcDbEntity
  8
0
370
     9
100
AcDbLine
 10
58.81874198949063
 20
-17.725393660037
 30
0.0
 11
58.83134700171701
 21
-17.82811529934594
 31
0.0
  0
LINE
  5
8D
330
70
100
AcDbEntity
  8
0
370
     9
100
AcDbLine
 10
17.05386946436898
 20
-17.91987663052855
 30
0.0
 11
17.05386946436898
 21
-17.80271448921619
 31
0.0
  0
LINE
  5
8E
330
70
100
AcDbEntity
  8
0
370
     9
100
AcDbLine
 10
16.95435993216865
 20
-17.74464327683111
 30
0.0
 11
16.94940114930519
 21
-17.74184727985959
 31
0.0
  0
LINE
  5
8F
330
70
100
AcDbEntity
  8
0
370
     9
100
AcDbLine
 10
17.05573291411506
 20
-17.80319474281376
 30
0.0
 11
16.9747838676905
 21
-17.75652461925443
 31
0.0
  0
LINE
  5
90
330
70
100
AcDbEntity
  8
0
370
     9
100
AcDbLine
 10
58.61308160993119
 20
-10.74145374345374
 30
0.0
 11
58.81442628593042
 21
-11.07904570714895
 31
0.0
  0
LINE
  5
91
330
70
100
AcDbEntity
  8
0
370
     9
100
AcDbLine
 10
63.01280981307399
 20
-18.71406476782435
 30
0.0
 11
58.5520301937155
 21
-11.23556890699754
 31
0.0
  0
LINE
  5
92
330
70
100
AcDbEntity
  8
0
370
     9
100
AcDbLine
 10
63.27520590528891
 20
-18.55756788324098
 30
0.0
 11
58.81442628593042
 21
-11.07896018253636
 31
0.0
  0
LINE
  5
93
330
70
100
AcDbEntity
  8
0
370
     9
100
AcDbLine
 10
16.95276456919104
 20
-11.07901281306775
 30
0.0
 11
17.09612026801012
 21
-10.83854391592211
 31
0.0
  0
LINE
  5
94
330
70
100
AcDbEntity
  8
0
370
     9
100
AcDbLine
 10
16.96398474056571
 20
-11.65666578729006
 30
0.0
 11
17.10841936527435
 21
-11.41447324024776
 31
0.0
  0
LINE
  5
95
330
70
100
AcDbEntity
  8
0
370
     9
100
AcDbLine
 10
16.75468298612765
 20
-12.00754696011849
 30
0.0
 11
16.80545006760146
 21
-11.92250917929991
 31
0.0
  0
LINE
  5
96
330
70
100
AcDbEntity
  8
0
370
     9
100
AcDbLine
 10
16.70078932215814
 20
-11.50148466598769
 30
0.0
 11
16.95279581856905
 21
-11.07907202241513
 31
0.0
  0
SPLINE
  5
98
330
70
100
AcDbEntity
  8
0
370
     9
100
AcDbSpline
210
0.0
220
0.0
230
1.0
 70
     8
 71
     3
 72
     8
 73
     4
 74
     0
 42
0.000000001
 43
0.0000000001
 40
0.0
 40
0.0
 40
0.0
 40
0.0
 40
1.0
 40
1.0
 40
1.0
 40
1.0
 10
37.83885371955861
 20
-17.80829332552536
 30
0.0
 10
37.68590281701698
 20
-17.80883278847031
 30
0.0
 10
37.53295191447501
 20
-17.80937225141557
 30
0.0
 10
37.37989246146195
 20
-17.80991171436052
 30
0.0
  0
SPLINE
  5
99
330
70
100
AcDbEntity
  8
0
370
     9
100
AcDbSpline
210
0.0
220
0.0
230
1.0
 70
     8
 71
     3
 72
     8
 73
     4
 74
     0
 42
0.000000001
 43
0.0000000001
 40
0.0
 40
0.0
 40
0.0
 40
0.0
 40
1.0
 40
1.0
 40
1.0
 40
1.0
 10
38.36413602580968
 20
-17.80645783574897
 30
0.0
 10
38.20396158285786
 20
-17.80699729869391
 30
0.0
 10
38.0437904293137
 20
-17.80753676163918
 30
0.0
 10
37.8835107252991
 20
-17.8081880644629
 30
0.0
  0
LINE
  5
9A
330
70
100
AcDbEntity
  8
0
370
     9
100
AcDbLine
 10
36.90668806585355
 20
-17.82814819342842
 30
0.0
 11
38.81570927308696
 21
-17.82814819342842
 31
0.0
  0
LINE
  5
9B
330
70
100
AcDbEntity
  8
0
370
     9
100
AcDbLine
 10
36.61398007706468
 20
-17.82814819342842
 30
0.0
 11
36.80659466369767
 21
-17.82814819342842
 31
0.0
  0
SPLINE
  5
A2
330
70
100
AcDbEntity
  8
0
370
     9
100
AcDbSpline
210
0.0
220
0.0
230
1.0
 70
     8
 71
     3
 72
     8
 73
     4
 74
     0
 42
0.000000001
 43
0.0000000001
 40
0.0
 40
0.0
 40
0.0
 40
0.0
 40
1.0
 40
1.0
 40
1.0
 40
1.0
 10
58.88715510125983
 20
-17.82812845697951
 30
0.0
 10
53.27369448120019
 20
-17.82866791992445
 30
0.0
 10
47.66024043995588
 20
-17.82812845697951
 30
0.0
 10
42.04689494918204
 20
-17.82812845697951
 30
0.0
  0
LINE
  5
A5
330
70
100
AcDbEntity
  8
0
370
     9
100
AcDbLine
 10
16.87785158681567
 20
-18.1377538721473
 30
0.0
 11
16.87785158681567
 21
-18.02436797144988
 31
0.0
  0
LINE
  5
A6
330
70
100
AcDbEntity
  8
0
370
     9
100
AcDbLine
 10
58.88941821410241
 20
-18.27530376549039
 30
0.0
 11
58.88941821410241
 21
-18.36692694152836
 31
0.0
  0
LINE
  5
A7
330
70
100
AcDbEntity
  8
0
370
     9
100
AcDbLine
 10
16.87782033743766
 20
-18.59611974735931
 30
0.0
 11
16.87782033743766
 21
-18.5046084112001
 31
0.0
  0
SPLINE
  5
A8
330
70
100
AcDbEntity
  8
0
370
     9
100
AcDbSpline
210
0.0
220
0.0
230
1.0
 70
    24
 71
     3
 72
    17
 73
    13
 74
     0
 42
0.000000001
 43
0.0000000001
 40
0.0
 40
0.0
 40
0.0
 40
0.0
 40
1.0
 40
1.0
 40
1.0
 40
2.0
 40
2.0
 40
2.0
 40
3.0
 40
3.0
 40
3.0
 40
4.0
 40
4.0
 40
4.0
 40
4.0
 10
36.86052451115733
 20
-10.49521522432419
 30
0.0
 10
36.81945624976471
 20
-10.49521522432419
 30
0.0
 10
36.90158948314195
 20
-10.49521522432419
 30
0.0
 10
36.92206933860223
 20
-10.49521522432419
 30
0.0
 10
36.94966418400351
 20
-10.49521522432419
 30
0.0
 10
36.97725573999488
 20
-10.49521522432419
 30
0.0
 10
37.00485058539584
 20
-10.49521522432419
 30
0.0
 10
37.06003698678816
 20
-10.49521522432419
 30
0.0
 10
37.1152233881808
 20
-10.49521522432419
 30
0.0
 10
37.1705183400439
 20
-10.49521522432419
 30
0.0
 10
37.28089443223687
 20
-10.49521522432419
 30
0.0
 10
37.39126723502153
 20
-10.49521522432419
 30
0.0
 10
37.5016433272148
 20
-10.49521522432419
 30
0.0
  0
LINE
  5
A9
330
70
100
AcDbEntity
  8
0
370
     9
100
AcDbLine
 10
38.26554259379387
 20
-10.49521522432419
 30
0.0
 11
38.90666140985231
 21
-10.49521522432419
 31
0.0
  0
SPLINE
  5
AA
330
70
100
AcDbEntity
  8
0
370
     9
100
AcDbSpline
210
0.0
220
0.0
230
1.0
 70
     8
 71
     3
 72
     8
 73
     4
 74
     0
 42
0.000000001
 43
0.0000000001
 40
0.0
 40
0.0
 40
0.0
 40
0.0
 40
1.0
 40
1.0
 40
1.0
 40
1.0
 10
17.27171710131356
 20
-17.725393660037
 30
0.0
 10
17.77335843082201
 20
-16.58209405152613
 30
0.0
 10
18.27834179906292
 20
-15.44041283184976
 30
0.0
 10
18.78041568574938
 20
-14.29733032428013
 30
0.0
  0
SPLINE
  5
AB
330
70
100
AcDbEntity
  8
0
370
     9
100
AcDbSpline
210
0.0
220
0.0
230
1.0
 70
     8
 71
     3
 72
     8
 73
     4
 74
     0
 42
0.000000001
 43
0.0000000001
 40
0.0
 40
0.0
 40
0.0
 40
0.0
 40
1.0
 40
1.0
 40
1.0
 40
1.0
 10
17.27171710131356
 20
-17.725393660037
 30
0.0
 10
17.30804039137596
 20
-15.26439659900061
 30
0.0
 10
17.34350185648972
 20
-12.80339295914695
 30
0.0
 10
17.37993534172706
 20
-10.34239589811056
 30
0.0
  0
LINE
  5
AC
330
70
100
AcDbEntity
  8
0
370
     9
100
AcDbLine
 10
18.12496162875031
 20
-10.34241563455947
 30
0.0
 11
19.10981373361497
 21
-11.66141569273274
 31
0.0
  0
SPLINE
  5
AD
330
70
100
AcDbEntity
  8
0
370
     9
100
AcDbSpline
210
0.0
220
0.0
230
1.0
 70
     8
 71
     3
 72
     8
 73
     4
 74
     0
 42
0.000000001
 43
0.0000000001
 40
0.0
 40
0.0
 40
0.0
 40
0.0
 40
1.0
 40
1.0
 40
1.0
 40
1.0
 10
50.41229749627247
 20
-17.7399986324509
 30
0.0
 10
50.20803840460727
 20
-15.77245227450166
 30
0.0
 10
50.00561480271751
 20
-13.80468881561055
 30
0.0
 10
49.80480301084756
 20
-11.83670825577787
 30
0.0
  0
SPLINE
  5
AF
330
70
100
AcDbEntity
  8
0
370
     9
100
AcDbSpline
210
0.0
220
0.0
230
1.0
 70
     8
 71
     3
 72
     8
 73
     4
 74
     0
 42
0.000000001
 43
0.0000000001
 40
0.0
 40
0.0
 40
0.0
 40
0.0
 40
1.0
 40
1.0
 40
1.0
 40
1.0
 10
51.17862434610331
 20
-11.83671483459417
 30
0.0
 10
51.24253754745325
 20
-13.80459013336406
 30
0.0
 10
51.3086151794015
 20
-15.7723535922555
 30
0.0
 10
51.37662698337009
 20
-17.74001179008351
 30
0.0
  0
SPLINE
  5
B0
330
70
100
AcDbEntity
  8
0
370
     9
100
AcDbSpline
210
0.0
220
0.0
230
1.0
 70
     8
 71
     3
 72
     8
 73
     4
 74
     0
 42
0.000000001
 43
0.0000000001
 40
0.0
 40
0.0
 40
0.0
 40
0.0
 40
1.0
 40
1.0
 40
1.0
 40
1.0
 10
51.37667303508518
 20
-17.7399986324509
 30
0.0
 10
51.01601574108181
 20
-16.13397139345272
 30
0.0
 10
50.67572646266219
 20
-14.52405607395955
 30
0.0
 10
50.35548941663732
 20
-12.90951584653604
 30
0.0
  0
SPLINE
  5
B1
330
70
100
AcDbEntity
  8
0
370
     9
100
AcDbSpline
210
0.0
220
0.0
230
1.0
 70
     8
 71
     3
 72
     8
 73
     4
 74
     0
 42
0.000000001
 43
0.0000000001
 40
0.0
 40
0.0
 40
0.0
 40
0.0
 40
1.0
 40
1.0
 40
1.0
 40
1.0
 10
50.35544336492223
 20
-12.90952242535235
 30
0.0
 10
50.33571349453055
 20
-12.81003756371372
 30
0.0
 10
50.27492523097279
 20
-12.63402133086489
 30
0.0
 10
50.13878978315366
 20
-12.63402133086489
 30
0.0
  0
LINE
  5
B2
330
70
100
AcDbEntity
  8
0
370
     9
100
AcDbLine
 10
49.07508069547989
 20
-10.49521522432419
 30
0.0
 11
50.37434430444678
 21
-10.49521522432419
 31
0.0
  0
LINE
  5
B5
330
70
100
AcDbEntity
  8
0
370
     9
100
AcDbLine
 10
51.02233140482921
 20
-10.49521522432419
 30
0.0
 11
52.2335375562462
 21
-10.49521522432419
 31
0.0
  0
SPLINE
  5
B7
330
70
100
AcDbEntity
  8
0
370
     9
100
AcDbSpline
210
0.0
220
0.0
230
1.0
 70
     8
 71
     3
 72
     8
 73
     4
 74
     0
 42
0.000000001
 43
0.0000000001
 40
0.0
 40
0.0
 40
0.0
 40
0.0
 40
1.0
 40
1.0
 40
1.0
 40
1.0
 10
53.1716570387968
 20
-11.83671483459417
 30
0.0
 10
53.26661567474998
 20
-13.80459013336406
 30
0.0
 10
53.36405452448792
 20
-15.7723535922555
 30
0.0
 10
53.46375648706906
 20
-17.74001179008351
 30
0.0
  0
SPLINE
  5
B8
330
70
100
AcDbEntity
  8
0
370
     9
100
AcDbSpline
210
0.0
220
0.0
230
1.0
 70
     8
 71
     3
 72
     8
 73
     4
 74
     0
 42
0.000000001
 43
0.0000000001
 40
0.0
 40
0.0
 40
0.0
 40
0.0
 40
1.0
 40
1.0
 40
1.0
 40
1.0
 10
53.46378280233428
 20
-17.7399986324509
 30
0.0
 10
53.03252165069944
 20
-16.13547794240814
 30
0.0
 10
52.62411530724718
 20
-14.52556920173224
 30
0.0
 10
52.23823483115844
 20
-12.90951584653604
 30
0.0
  0
SPLINE
  5
B9
330
70
100
AcDbEntity
  8
0
370
     9
100
AcDbSpline
210
0.0
220
0.0
230
1.0
 70
     8
 71
     3
 72
     8
 73
     4
 74
     0
 42
0.000000001
 43
0.0000000001
 40
0.0
 40
0.0
 40
0.0
 40
0.0
 40
1.0
 40
1.0
 40
1.0
 40
1.0
 10
52.23829404050614
 20
-12.90952242535235
 30
0.0
 10
52.22697189747796
 20
-12.77101860363043
 30
0.0
 10
52.12350027309915
 20
-12.65773138517949
 30
0.0
 10
51.98649642151505
 20
-12.63402133086489
 30
0.0
  0
SPLINE
  5
BB
330
70
100
AcDbEntity
  8
0
370
     9
100
AcDbSpline
210
0.0
220
0.0
230
1.0
 70
     8
 71
     3
 72
     8
 73
     4
 74
     0
 42
0.000000001
 43
0.0000000001
 40
0.0
 40
0.0
 40
0.0
 40
0.0
 40
1.0
 40
1.0
 40
1.0
 40
1.0
 10
55.09969102543194
 20
-11.83671483459417
 30
0.0
 10
55.23701066020182
 20
-13.80470197324284
 30
0.0
 10
55.37723813182104
 20
-15.77246543213427
 30
0.0
 10
55.52016291816595
 20
-17.74001179008351
 30
0.0
  0
SPLINE
  5
BC
330
70
100
AcDbEntity
  8
0
370
     9
100
AcDbSpline
210
0.0
220
0.0
230
1.0
 70
     8
 71
     3
 72
     8
 73
     4
 74
     0
 42
0.000000001
 43
0.0000000001
 40
0.0
 40
0.0
 40
0.0
 40
0.0
 40
1.0
 40
1.0
 40
1.0
 40
1.0
 10
55.5202023910657
 20
-17.7399986324509
 30
0.0
 10
54.9926865766456
 20
-16.13774105525071
 30
0.0
 10
54.49126234807966
 20
-14.52793757563759
 30
0.0
 10
54.01559418572646
 20
-12.90951584653604
 30
0.0
  0
SPLINE
  5
BD
330
70
100
AcDbEntity
  8
0
370
     9
100
AcDbSpline
210
0.0
220
0.0
230
1.0
 70
     8
 71
     3
 72
     8
 73
     4
 74
     0
 42
0.000000001
 43
0.0000000001
 40
0.0
 40
0.0
 40
0.0
 40
0.0
 40
1.0
 40
1.0
 40
1.0
 40
1.0
 10
54.015607343361
 20
-12.90952242535235
 30
0.0
 10
53.9891933955044
 20
-12.80529423708735
 30
0.0
 10
53.94015489804004
 20
-12.7350193202762
 30
0.0
 10
53.85133429778989
 20
-12.6742244778999
 30
0.0
  0
LINE
  5
BE
330
70
100
AcDbEntity
  8
0
370
     9
100
AcDbLine
 10
52.72553434090836
 20
-10.49521522432419
 30
0.0
 11
53.97856202819808
 21
-10.49521522432419
 31
0.0
  0
SPLINE
  5
BF
330
70
100
AcDbEntity
  8
0
370
     9
100
AcDbSpline
210
0.0
220
0.0
230
1.0
 70
     8
 71
     3
 72
     8
 73
     4
 74
     0
 42
0.000000001
 43
0.0000000001
 40
0.0
 40
0.0
 40
0.0
 40
0.0
 40
1.0
 40
1.0
 40
1.0
 40
1.0
 10
41.35423110660989
 20
-11.83671483459417
 30
0.0
 10
41.30831096812108
 20
-13.8044848723016
 30
0.0
 10
41.26325594398892
 20
-15.77224833119303
 30
0.0
 10
41.21906274480508
 20
-17.74001179008351
 30
0.0
  0
SPLINE
  5
C0
330
70
100
AcDbEntity
  8
0
370
     9
100
AcDbSpline
210
0.0
220
0.0
230
1.0
 70
     8
 71
     3
 72
     8
 73
     4
 74
     0
 42
0.000000001
 43
0.0000000001
 40
0.0
 40
0.0
 40
0.0
 40
0.0
 40
1.0
 40
1.0
 40
1.0
 40
1.0
 10
41.21908577066263
 20
-17.7399986324509
 30
0.0
 10
41.13490323597575
 20
-16.13019515283747
 30
0.0
 10
41.05891132770953
 20
-14.52006931121936
 30
0.0
 10
40.99122188574401
 20
-12.90951584653604
 30
0.0
  0
SPLINE
  5
C2
330
70
100
AcDbEntity
  8
0
370
     9
100
AcDbSpline
210
0.0
220
0.0
230
1.0
 70
    24
 71
     3
 72
    20
 73
    16
 74
     0
 42
0.000000001
 43
0.0000000001
 40
0.0
 40
0.0
 40
0.0
 40
0.0
 40
1.0
 40
1.0
 40
1.0
 40
2.0
 40
2.0
 40
2.0
 40
3.0
 40
3.0
 40
3.0
 40
4.0
 40
4.0
 40
4.0
 40
5.0
 40
5.0
 40
5.0
 40
5.0
 10
39.1012496414044
 20
-10.49521522432419
 30
0.0
 10
39.07936849804957
 20
-10.49521522432419
 30
0.0
 10
39.12312749535092
 20
-10.49521522432419
 30
0.0
 10
39.13412398696901
 20
-10.49521522432419
 30
0.0
 10
39.20116541551752
 20
-10.49521522432419
 30
0.0
 10
39.26831868394607
 20
-10.49521522432419
 30
0.0
 10
39.33546866296696
 20
-10.49521522432419
 30
0.0
 10
39.41878937270615
 20
-10.49521522432419
 30
0.0
 10
39.50211008244342
 20
-10.49521522432419
 30
0.0
 10
39.58542750277302
 20
-10.49521522432419
 30
0.0
 10
39.75206892224948
 20
-10.49521522432419
 30
0.0
 10
39.91859850184653
 20
-10.49521522432419
 30
0.0
 10
40.08523992132106
 20
-10.49521522432419
 30
0.0
 10
40.41884183286745
 20
-10.49521522432419
 30
0.0
 10
40.7523351939453
 20
-10.49521522432419
 30
0.0
 10
41.08582855502123
 20
-10.49521522432419
 30
0.0
  0
SPLINE
  5
C4
330
70
100
AcDbEntity
  8
0
370
     9
100
AcDbSpline
210
0.0
220
0.0
230
1.0
 70
     8
 71
     3
 72
     8
 73
     4
 74
     0
 42
0.000000001
 43
0.0000000001
 40
0.0
 40
0.0
 40
0.0
 40
0.0
 40
1.0
 40
1.0
 40
1.0
 40
1.0
 10
42.7285195378306
 20
-17.7399986324509
 30
0.0
 10
42.57114767066662
 20
-15.7723470134392
 30
0.0
 10
42.41453236738816
 20
-13.80457697573145
 30
0.0
 10
42.25878217846701
 20
-11.83670825577787
 30
0.0
  0
SPLINE
  5
C6
330
70
100
AcDbEntity
  8
0
370
     9
100
AcDbSpline
210
0.0
220
0.0
230
1.0
 70
     8
 71
     3
 72
     8
 73
     4
 74
     0
 42
0.000000001
 43
0.0000000001
 40
0.0
 40
0.0
 40
0.0
 40
0.0
 40
1.0
 40
1.0
 40
1.0
 40
1.0
 10
43.88427942460885
 20
-11.83671483459417
 30
0.0
 10
43.85010905221408
 20
-13.8044848723016
 30
0.0
 10
43.81680379417594
 20
-15.77224833119303
 30
0.0
 10
43.78446562214893
 20
-17.74001179008351
 30
0.0
  0
SPLINE
  5
C7
330
70
100
AcDbEntity
  8
0
370
     9
100
AcDbSpline
210
0.0
220
0.0
230
1.0
 70
     8
 71
     3
 72
     8
 73
     4
 74
     0
 42
0.000000001
 43
0.0000000001
 40
0.0
 40
0.0
 40
0.0
 40
0.0
 40
1.0
 40
1.0
 40
1.0
 40
1.0
 10
43.78448864800583
 20
-17.7399986324509
 30
0.0
 10
43.67238890591621
 20
-16.13041225377871
 30
0.0
 10
43.56988107814021
 20
-14.5202864121606
 30
0.0
 10
43.47686319302461
 20
-12.90951584653604
 30
0.0
  0
LINE
  5
C9
330
70
100
AcDbEntity
  8
0
370
     9
100
AcDbLine
 10
41.85735924862582
 20
-10.49521522432419
 30
0.0
 11
43.56298318914204
 21
-10.49521522432419
 31
0.0
  0
SPLINE
  5
CB
330
70
100
AcDbEntity
  8
0
370
     9
100
AcDbSpline
210
0.0
220
0.0
230
1.0
 70
     8
 71
     3
 72
     8
 73
     4
 74
     0
 42
0.000000001
 43
0.0000000001
 40
0.0
 40
0.0
 40
0.0
 40
0.0
 40
1.0
 40
1.0
 40
1.0
 40
1.0
 10
49.05586397276826
 20
-11.83671483459417
 30
0.0
 10
49.08636336561088
 20
-13.8044848723016
 30
0.0
 10
49.11869824822894
 20
-15.77224833119303
 30
0.0
 10
49.15276335956157
 20
-17.74001179008351
 30
0.0
  0
SPLINE
  5
CC
330
70
100
AcDbEntity
  8
0
370
     9
100
AcDbSpline
210
0.0
220
0.0
230
1.0
 70
     8
 71
     3
 72
     8
 73
     4
 74
     0
 42
0.000000001
 43
0.0000000001
 40
0.0
 40
0.0
 40
0.0
 40
0.0
 40
1.0
 40
1.0
 40
1.0
 40
1.0
 10
49.15271730784649
 20
-17.7399986324509
 30
0.0
 10
48.87376233474779
 20
-16.13246484449634
 30
0.0
 10
48.6116228163729
 20
-14.52254952500349
 30
0.0
 10
48.36640730319418
 20
-12.90951584653604
 30
0.0
  0
SPLINE
  5
CD
330
70
100
AcDbEntity
  8
0
370
     9
100
AcDbSpline
210
0.0
220
0.0
230
1.0
 70
     8
 71
     3
 72
     8
 73
     4
 74
     0
 42
0.000000001
 43
0.0000000001
 40
0.0
 40
0.0
 40
0.0
 40
0.0
 40
1.0
 40
1.0
 40
1.0
 40
1.0
 10
48.36644348668433
 20
-12.90952242535235
 30
0.0
 10
48.35372334517022
 20
-12.82599119349014
 30
0.0
 10
48.31567476050476
 20
-12.63402133086489
 30
0.0
 10
48.19128907878351
 20
-12.63402133086489
 30
0.0
  0
LINE
  5
CE
330
70
100
AcDbEntity
  8
0
370
     9
100
AcDbLine
 10
46.34651988194562
 20
-10.49521522432419
 30
0.0
 11
48.40902816525795
 21
-10.49521522432419
 31
0.0
  0
SPLINE
  5
D0
330
70
100
AcDbEntity
  8
0
370
     9
100
AcDbSpline
210
0.0
220
0.0
230
1.0
 70
     8
 71
     3
 72
     8
 73
     4
 74
     0
 42
0.000000001
 43
0.0000000001
 40
0.0
 40
0.0
 40
0.0
 40
0.0
 40
1.0
 40
1.0
 40
1.0
 40
1.0
 10
47.42397211708336
 20
-17.7399986324509
 30
0.0
 10
47.24773878329329
 20
-15.7723470134392
 30
0.0
 10
47.07258437539311
 20
-13.80457697573145
 30
0.0
 10
46.8986141544456
 20
-11.83670825577787
 30
0.0
  0
SPLINE
  5
D2
330
70
100
AcDbEntity
  8
0
370
     9
100
AcDbSpline
210
0.0
220
0.0
230
1.0
 70
     8
 71
     3
 72
     8
 73
     4
 74
     0
 42
0.000000001
 43
0.0000000001
 40
0.0
 40
0.0
 40
0.0
 40
0.0
 40
1.0
 40
1.0
 40
1.0
 40
1.0
 10
45.14802071440821
 20
-17.7399986324509
 30
0.0
 10
44.9819187578783
 20
-15.7723470134392
 30
0.0
 10
44.81668191570438
 20
-13.80457697573145
 30
0.0
 10
44.65252071001269
 20
-11.83670825577787
 30
0.0
  0
SPLINE
  5
D4
330
70
100
AcDbEntity
  8
0
370
     9
100
AcDbSpline
210
0.0
220
0.0
230
1.0
 70
     8
 71
     3
 72
     8
 73
     4
 74
     0
 42
0.000000001
 43
0.0000000001
 40
0.0
 40
0.0
 40
0.0
 40
0.0
 40
1.0
 40
1.0
 40
1.0
 40
1.0
 10
46.07617657951745
 20
-11.83671483459417
 30
0.0
 10
46.06248606258392
 20
-13.8044848723016
 30
0.0
 10
46.05009157248055
 20
-15.77224833119303
 30
0.0
 10
46.03877271885941
 20
-17.74001179008351
 30
0.0
  0
SPLINE
  5
D5
330
70
100
AcDbEntity
  8
0
370
     9
100
AcDbSpline
210
0.0
220
0.0
230
1.0
 70
     8
 71
     3
 72
     8
 73
     4
 74
     0
 42
0.000000001
 43
0.0000000001
 40
0.0
 40
0.0
 40
0.0
 40
0.0
 40
1.0
 40
1.0
 40
1.0
 40
1.0
 10
46.03878587649393
 20
-17.7399986324509
 30
0.0
 10
45.87386810691477
 20
-16.13095171672365
 30
0.0
 10
45.7208119433097
 20
-14.52093113616833
 30
0.0
 10
45.57961080686274
 20
-12.90951584653604
 30
0.0
  0
SPLINE
  5
D8
330
70
100
AcDbEntity
  8
0
370
     9
100
AcDbSpline
210
0.0
220
0.0
230
1.0
 70
     8
 71
     3
 72
     8
 73
     4
 74
     0
 42
0.000000001
 43
0.0000000001
 40
0.0
 40
0.0
 40
0.0
 40
0.0
 40
1.0
 40
1.0
 40
1.0
 40
1.0
 10
56.83448543787814
 20
-17.7399986324509
 30
0.0
 10
56.54992531320377
 20
-16.95638923193099
 30
0.0
 10
56.27183216505278
 20
-16.17061540081468
 30
0.0
 10
56.00020599342641
 20
-15.38247977460963
 30
0.0
  0
LINE
  5
D9
330
70
100
AcDbEntity
  8
0
370
     9
100
AcDbLine
 10
54.39316561670107
 20
-10.49521522432419
 30
0.0
 11
55.11264471492852
 21
-10.49521522432419
 31
0.0
  0
LINE
  5
DA
330
70
100
AcDbEntity
  8
0
370
     9
100
AcDbLine
 10
50.13884241368602
 20
-12.63399501559871
 30
0.0
 11
49.88607770868446
 21
-12.63399501559871
 31
0.0
  0
LINE
  5
DB
330
70
100
AcDbEntity
  8
0
370
     9
100
AcDbLine
 10
51.98655563086468
 20
-12.63399501559871
 30
0.0
 11
51.93912894341821
 21
-12.63399501559871
 31
0.0
  0
LINE
  5
DC
330
70
100
AcDbEntity
  8
0
370
     9
100
AcDbLine
 10
40.91587141207753
 20
-12.63399501559871
 30
0.0
 11
38.37758641594475
 21
-12.63399501559871
 31
0.0
  0
LINE
  5
DD
330
70
100
AcDbEntity
  8
0
370
     9
100
AcDbLine
 10
43.38759523325938
 20
-12.63399501559871
 30
0.0
 11
42.32189934303294
 21
-12.63399501559871
 31
0.0
  0
LINE
  5
DE
330
70
100
AcDbEntity
  8
0
370
     9
100
AcDbLine
 10
48.1913088152321
 20
-12.63399501559871
 30
0.0
 11
46.96921472266876
 21
-12.63399501559871
 31
0.0
  0
LINE
  5
DF
330
70
100
AcDbEntity
  8
0
370
     9
100
AcDbLine
 10
45.46321180825255
 20
-12.63399501559871
 30
0.0
 11
44.71904570147412
 21
-12.63399501559871
 31
0.0
  0
SPLINE
  5
E0
330
70
100
AcDbEntity
  8
0
370
     9
100
AcDbSpline
210
0.0
220
0.0
230
1.0
 70
     8
 71
     3
 72
     8
 73
     4
 74
     0
 42
0.000000001
 43
0.0000000001
 40
0.0
 40
0.0
 40
0.0
 40
0.0
 40
1.0
 40
1.0
 40
1.0
 40
1.0
 10
56.98887052239649
 20
-14.30196181102709
 30
0.0
 10
57.4901829110843
 20
-15.44353776964098
 30
0.0
 10
57.99452155531747
 20
-16.58371244036128
 30
0.0
 10
58.4955181608182
 20
-17.72540023885331
 30
0.0
  0
LINE
  5
E1
330
70
100
AcDbEntity
  8
0
370
     9
100
AcDbLine
 10
56.65745606730277
 20
-11.66136306220167
 30
0.0
 11
57.64219962169731
 21
-10.3423695828447
 31
0.0
  0
SPLINE
  5
E2
330
70
100
AcDbEntity
  8
0
370
     9
100
AcDbSpline
210
0.0
220
0.0
230
1.0
 70
     8
 71
     3
 72
     8
 73
     4
 74
     0
 42
0.000000001
 43
0.0000000001
 40
0.0
 40
0.0
 40
0.0
 40
0.0
 40
1.0
 40
1.0
 40
1.0
 40
1.0
 10
58.38722426401639
 20
-10.34241563455947
 30
0.0
 10
58.42344064831218
 20
-12.80341927441313
 30
0.0
 10
58.45943993166576
 20
-15.26441633544952
 30
0.0
 10
58.49543921502127
 20
-17.72541997530318
 30
0.0
  0
LINE
  5
E3
330
70
100
AcDbEntity
  8
0
370
     9
100
AcDbLine
 10
58.38722426401639
 20
-10.34241563455947
 30
0.0
 11
58.64440335482368
 21
-10.34241563455947
 31
0.0
  0
SPLINE
  5
E4
330
70
100
AcDbEntity
  8
0
370
     9
100
AcDbSpline
210
0.0
220
0.0
230
1.0
 70
     8
 71
     3
 72
     8
 73
     4
 74
     0
 42
0.000000001
 43
0.0000000001
 40
0.0
 40
0.0
 40
0.0
 40
0.0
 40
1.0
 40
1.0
 40
1.0
 40
1.0
 10
58.66771210133797
 20
-10.64798849882338
 30
0.0
 10
58.67266595008832
 20
-10.54440503456579
 30
0.0
 10
58.66501478661292
 20
-10.4440583479782
 30
0.0
 10
58.6444296700889
 20
-10.34241563455947
 30
0.0
  0
LINE
  5
E5
330
70
100
AcDbEntity
  8
0
370
     9
100
AcDbLine
 10
58.67104098243654
 20
-10.8385833888209
 30
0.0
 11
58.66769894370536
 21
-10.64802139290586
 31
0.0
  0
LINE
  5
E6
330
70
100
AcDbEntity
  8
0
370
     9
100
AcDbLine
 10
58.62077882512167
 20
-11.41183513487009
 30
0.0
 11
58.66313324512048
 21
-11.41183513487009
 31
0.0
  0
SPLINE
  5
E7
330
70
100
AcDbEntity
  8
0
370
     9
100
AcDbSpline
210
0.0
220
0.0
230
1.0
 70
     8
 71
     3
 72
     8
 73
     4
 74
     0
 42
0.000000001
 43
0.0000000001
 40
0.0
 40
0.0
 40
0.0
 40
0.0
 40
1.0
 40
1.0
 40
1.0
 40
1.0
 10
58.59570037699499
 20
-11.71526988380378
 30
0.0
 10
58.58449007384622
 20
-11.61082459459722
 30
0.0
 10
58.59256886038682
 20
-11.51306338285622
 30
0.0
 10
58.62081171920415
 20
-11.41185487131997
 30
0.0
  0
SPLINE
  5
E8
330
70
100
AcDbEntity
  8
0
370
     9
100
AcDbSpline
210
0.0
220
0.0
230
1.0
 70
     8
 71
     3
 72
     8
 73
     4
 74
     0
 42
0.000000001
 43
0.0000000001
 40
0.0
 40
0.0
 40
0.0
 40
0.0
 40
1.0
 40
1.0
 40
1.0
 40
1.0
 10
58.60379232117012
 20
-12.17568177091809
 30
0.0
 10
58.60109500644508
 20
-12.0229479693164
 30
0.0
 10
58.59839769172004
 20
-11.87010890665321
 30
0.0
 10
58.59570695581226
 20
-11.71737510505249
 30
0.0
  0
SPLINE
  5
E9
330
70
100
AcDbEntity
  8
0
370
     9
100
AcDbSpline
210
0.0
220
0.0
230
1.0
 70
     8
 71
     3
 72
     8
 73
     4
 74
     0
 42
0.000000001
 43
0.0000000001
 40
0.0
 40
0.0
 40
0.0
 40
0.0
 40
1.0
 40
1.0
 40
1.0
 40
1.0
 10
58.63954818831821
 20
-12.48121516228321
 30
0.0
 10
58.60785802970757
 20
-12.38000665074697
 30
0.0
 10
58.59632536455445
 20
-12.28148887511946
 30
0.0
 10
58.60375942708764
 20
-12.1756422980193
 30
0.0
  0
LINE
  5
EA
330
70
100
AcDbEntity
  8
0
370
     9
100
AcDbLine
 10
58.72719775924829
 20
-12.48121516228321
 30
0.0
 11
58.63956134595082
 21
-12.48121516228321
 31
0.0
  0
LINE
  5
EB
330
70
100
AcDbEntity
  8
0
370
     9
100
AcDbLine
 10
17.3799682358089
 20
-10.34241563455947
 30
0.0
 11
18.12499287812864
 21
-10.34241563455947
 31
0.0
  0
LINE
  5
EC
330
70
100
AcDbEntity
  8
0
370
     9
100
AcDbLine
 10
57.64223251577786
 20
-10.34241563455947
 30
0.0
 11
58.38725715809888
 21
-10.34241563455947
 31
0.0
  0
SPLINE
  5
ED
330
70
100
AcDbEntity
  8
0
370
     9
100
AcDbSpline
210
0.0
220
0.0
230
1.0
 70
     8
 71
     3
 72
     8
 73
     4
 74
     0
 42
0.000000001
 43
0.0000000001
 40
0.0
 40
0.0
 40
0.0
 40
0.0
 40
1.0
 40
1.0
 40
1.0
 40
1.0
 10
17.09948368789596
 20
-10.64798849882338
 30
0.0
 10
17.09452490503251
 20
-10.54440503456579
 30
0.0
 10
17.1021777132127
 20
-10.4440583479782
 30
0.0
 10
17.12287302491069
 20
-10.34241563455947
 30
0.0
  0
LINE
  5
EE
330
70
100
AcDbEntity
  8
0
370
     9
100
AcDbLine
 10
17.3799682358089
 20
-10.34241563455947
 30
0.0
 11
17.12278750029746
 21
-10.34241563455947
 31
0.0
  0
LINE
  5
EF
330
70
100
AcDbEntity
  8
0
370
     9
100
AcDbLine
 10
17.12769200792569
 20
-12.48121516228321
 30
0.0
 11
17.03995197826959
 21
-12.48121516228321
 31
0.0
  0
SPLINE
  5
F0
330
70
100
AcDbEntity
  8
0
370
     9
100
AcDbSpline
210
0.0
220
0.0
230
1.0
 70
     8
 71
     3
 72
     8
 73
     4
 74
     0
 42
0.000000001
 43
0.0000000001
 40
0.0
 40
0.0
 40
0.0
 40
0.0
 40
1.0
 40
1.0
 40
1.0
 40
1.0
 10
17.16340182335869
 20
-12.17568177091809
 30
0.0
 10
17.1709460810681
 20
-12.28153492683359
 30
0.0
 10
17.15941341591434
 20
-12.37994086258296
 30
0.0
 10
17.12772325730369
 20
-12.48126121399798
 30
0.0
  0
SPLINE
  5
F1
330
70
100
AcDbEntity
  8
0
370
     9
100
AcDbSpline
210
0.0
220
0.0
230
1.0
 70
     8
 71
     3
 72
     8
 73
     4
 74
     0
 42
0.000000001
 43
0.0000000001
 40
0.0
 40
0.0
 40
0.0
 40
0.0
 40
1.0
 40
1.0
 40
1.0
 40
1.0
 10
17.17147567578875
 20
-11.71733563215402
 30
0.0
 10
17.16878000576786
 20
-11.87018127363416
 30
0.0
 10
17.1660859804508
 20
-12.02291507523488
 30
0.0
 10
17.16339031042991
 20
-12.1756488768356
 30
0.0
  0
SPLINE
  5
F2
330
70
100
AcDbEntity
  8
0
370
     9
100
AcDbSpline
210
0.0
220
0.0
230
1.0
 70
     8
 71
     3
 72
     8
 73
     4
 74
     0
 42
0.000000001
 43
0.0000000001
 40
0.0
 40
0.0
 40
0.0
 40
0.0
 40
1.0
 40
1.0
 40
1.0
 40
1.0
 10
17.14641531940714
 20
-11.41183513487009
 30
0.0
 10
17.17465488881519
 20
-11.51305022522361
 30
0.0
 10
17.18273860946955
 20
-11.61081143696461
 30
0.0
 10
17.17152830631982
 20
-11.71525672617117
 30
0.0
  0
LINE
  5
F3
330
70
100
AcDbEntity
  8
0
370
     9
100
AcDbLine
 10
17.10409708289849
 20
-11.41183513487009
 30
0.0
 11
17.14645643700976
 21
-11.41183513487009
 31
0.0
  0
SPLINE
  5
F4
330
70
100
AcDbEntity
  8
0
370
     9
100
AcDbSpline
210
0.0
220
0.0
230
1.0
 70
     8
 71
     3
 72
     8
 73
     4
 74
     0
 42
0.000000001
 43
0.0000000001
 40
0.0
 40
0.0
 40
0.0
 40
0.0
 40
1.0
 40
1.0
 40
1.0
 40
1.0
 10
17.10409708289849
 20
-11.41183513487009
 30
0.0
 10
17.08706617193633
 20
-11.30976479838519
 30
0.0
 10
17.0828623082549
 20
-11.20941153298161
 30
0.0
 10
17.0914854918542
 20
-11.1062622706065
 30
0.0
  0
LINE
  5
F5
330
70
100
AcDbEntity
  8
0
370
     9
100
AcDbLine
 10
17.09150851771175
 20
-11.10492677087626
 30
0.0
 11
17.09948368789596
 21
-10.64802139290586
 31
0.0
  0
SPLINE
  5
F6
330
70
100
AcDbEntity
  8
0
370
     9
100
AcDbSpline
210
0.0
220
0.0
230
1.0
 70
     8
 71
     3
 72
     8
 73
     4
 74
     0
 42
0.000000001
 43
0.0000000001
 40
0.0
 40
0.0
 40
0.0
 40
0.0
 40
1.0
 40
1.0
 40
1.0
 40
1.0
 10
24.39153260246633
 20
-17.71241365527552
 30
0.0
 10
24.4593305949023
 20
-15.75391974869527
 30
0.0
 10
24.5249707355585
 20
-13.7953205810532
 30
0.0
 10
24.58856486431336
 20
-11.83671483459417
 30
0.0
  0
LINE
  5
F8
330
70
100
AcDbEntity
  8
0
370
     9
100
AcDbLine
 10
25.39287780005237
 20
-10.49521522432419
 30
0.0
 11
26.72534469540163
 21
-10.49521522432419
 31
0.0
  0
SPLINE
  5
F9
330
70
100
AcDbEntity
  8
0
370
     9
100
AcDbSpline
210
0.0
220
0.0
230
1.0
 70
     8
 71
     3
 72
     8
 73
     4
 74
     0
 42
0.000000001
 43
0.0000000001
 40
0.0
 40
0.0
 40
0.0
 40
0.0
 40
1.0
 40
1.0
 40
1.0
 40
1.0
 10
25.62839284844574
 20
-12.63399501559871
 30
0.0
 10
25.49225740062885
 20
-12.63399501559871
 30
0.0
 10
25.43146255825319
 20
-12.8101230883276
 30
0.0
 10
25.41173926667845
 20
-12.90950268890344
 30
0.0
  0
SPLINE
  5
FA
330
70
100
AcDbEntity
  8
0
370
     9
100
AcDbSpline
210
0.0
220
0.0
230
1.0
 70
     8
 71
     3
 72
     8
 73
     4
 74
     0
 42
0.000000001
 43
0.0000000001
 40
0.0
 40
0.0
 40
0.0
 40
0.0
 40
1.0
 40
1.0
 40
1.0
 40
1.0
 10
25.41176229253568
 20
-12.90952242535235
 30
0.0
 10
25.09324889640779
 20
-14.51523388116409
 30
0.0
 10
24.75490365823438
 20
-16.11630727141128
 30
0.0
 10
24.39651276648318
 20
-17.71349915998204
 30
0.0
  0
SPLINE
  5
FC
330
70
100
AcDbEntity
  8
0
370
     9
100
AcDbSpline
210
0.0
220
0.0
230
1.0
 70
     8
 71
     3
 72
     8
 73
     4
 74
     0
 42
0.000000001
 43
0.0000000001
 40
0.0
 40
0.0
 40
0.0
 40
0.0
 40
1.0
 40
1.0
 40
1.0
 40
1.0
 10
22.30532084365603
 20
-17.71541359555472
 30
0.0
 10
22.40437479282081
 20
-15.75595260296399
 30
0.0
 10
22.50116891855101
 20
-13.79637977049353
 30
0.0
 10
22.59559138096788
 20
-11.83669509814526
 30
0.0
  0
LINE
  5
FE
330
70
100
AcDbEntity
  8
0
370
     9
100
AcDbLine
 10
23.53370757410953
 20
-10.49521522432419
 30
0.0
 11
24.74491372552748
 21
-10.49521522432419
 31
0.0
  0
SPLINE
  5
FF
330
70
100
AcDbEntity
  8
0
370
     9
100
AcDbSpline
210
0.0
220
0.0
230
1.0
 70
     8
 71
     3
 72
     8
 73
     4
 74
     0
 42
0.000000001
 43
0.0000000001
 40
0.0
 40
0.0
 40
0.0
 40
0.0
 40
1.0
 40
1.0
 40
1.0
 40
1.0
 10
23.78064015836958
 20
-12.63399501559871
 30
0.0
 10
23.64374814666586
 20
-12.65771164872962
 30
0.0
 10
23.54027323287905
 20
-12.77110412824398
 30
0.0
 10
23.52895437925854
 20
-12.90950268890344
 30
0.0
  0
SPLINE
  5
100
330
70
100
AcDbEntity
  8
0
370
     9
100
AcDbSpline
210
0.0
220
0.0
230
1.0
 70
     8
 71
     3
 72
     8
 73
     4
 74
     0
 42
0.000000001
 43
0.0000000001
 40
0.0
 40
0.0
 40
0.0
 40
0.0
 40
1.0
 40
1.0
 40
1.0
 40
1.0
 10
23.52894451103425
 20
-12.90952242535235
 30
0.0
 10
23.14511333625387
 20
-14.51771409494789
 30
0.0
 10
22.73886155517404
 20
-16.1198664110853
 30
0.0
 10
22.30997535626086
 20
-17.71662409777261
 30
0.0
  0
LINE
  5
102
330
70
100
AcDbEntity
  8
0
370
     9
100
AcDbLine
 10
21.78865349748477
 20
-10.49521522432419
 30
0.0
 11
23.00093528538461
 21
-10.49521522432419
 31
0.0
  0
SPLINE
  5
103
330
70
100
AcDbEntity
  8
0
370
     9
100
AcDbSpline
210
0.0
220
0.0
230
1.0
 70
     8
 71
     3
 72
     8
 73
     4
 74
     0
 42
0.000000001
 43
0.0000000001
 40
0.0
 40
0.0
 40
0.0
 40
0.0
 40
1.0
 40
1.0
 40
1.0
 40
1.0
 10
21.91618714285574
 20
-12.67407974393961
 30
0.0
 10
21.82715273107203
 20
-12.73487458631495
 30
0.0
 10
21.77800239372889
 20
-12.80504424206459
 30
0.0
 10
21.75159502468924
 20
-12.90948953127115
 30
0.0
  0
SPLINE
  5
104
330
70
100
AcDbEntity
  8
0
370
     9
100
AcDbSpline
210
0.0
220
0.0
230
1.0
 70
     8
 71
     3
 72
     8
 73
     4
 74
     0
 42
0.000000001
 43
0.0000000001
 40
0.0
 40
0.0
 40
0.0
 40
0.0
 40
1.0
 40
1.0
 40
1.0
 40
1.0
 10
21.75159502468924
 20
-12.90952242535235
 30
0.0
 10
21.27689888246155
 20
-14.52277978357733
 30
0.0
 10
20.77655029037623
 20
-16.12740573468224
 30
0.0
 10
20.25011669125529
 20
-17.7246042020693
 30
0.0
  0
SPLINE
  5
105
330
70
100
AcDbEntity
  8
0
370
     9
100
AcDbSpline
210
0.0
220
0.0
230
1.0
 70
     8
 71
     3
 72
     8
 73
     4
 74
     0
 42
0.000000001
 43
0.0000000001
 40
0.0
 40
0.0
 40
0.0
 40
0.0
 40
1.0
 40
1.0
 40
1.0
 40
1.0
 10
31.98213478419907
 20
-17.69851261621705
 30
0.0
 10
31.95001371311394
 20
-15.74454493532194
 30
0.0
 10
31.91692226660937
 20
-13.79068909430559
 30
0.0
 10
31.88296899515615
 20
-11.83671483459417
 30
0.0
  0
LINE
  5
107
330
70
100
AcDbEntity
  8
0
370
     9
100
AcDbLine
 10
32.20426194121369
 20
-10.49521522432419
 30
0.0
 11
33.90978062066777
 21
-10.49521522432419
 31
0.0
  0
SPLINE
  5
109
330
70
100
AcDbEntity
  8
0
370
     9
100
AcDbSpline
210
0.0
220
0.0
230
1.0
 70
     8
 71
     3
 72
     8
 73
     4
 74
     0
 42
0.000000001
 43
0.0000000001
 40
0.0
 40
0.0
 40
0.0
 40
0.0
 40
1.0
 40
1.0
 40
1.0
 40
1.0
 10
32.29036220088189
 20
-12.90952242535235
 30
0.0
 10
32.1980943008365
 20
-14.50660905286063
 30
0.0
 10
32.09656013788823
 20
-16.10293911648145
 30
0.0
 10
31.98564458275
 20
-17.69872971715829
 30
0.0
  0
SPLINE
  5
10A
330
70
100
AcDbEntity
  8
0
370
     9
100
AcDbSpline
210
0.0
220
0.0
230
1.0
 70
     8
 71
     3
 72
     8
 73
     4
 74
     0
 42
0.000000001
 43
0.0000000001
 40
0.0
 40
0.0
 40
0.0
 40
0.0
 40
1.0
 40
1.0
 40
1.0
 40
1.0
 10
26.61510017953668
 20
-17.70807163644946
 30
0.0
 10
26.64894490051911
 20
-15.75097901776377
 30
0.0
 10
26.68095742113346
 20
-13.79388639907712
 30
0.0
 10
26.71135155291362
 20
-11.83668194051265
 30
0.0
  0
LINE
  5
10C
330
70
100
AcDbEntity
  8
0
370
     9
100
AcDbLine
 10
27.358164334568
 20
-10.49521522432419
 30
0.0
 11
29.42067261787968
 21
-10.49521522432419
 31
0.0
  0
SPLINE
  5
10D
330
70
100
AcDbEntity
  8
0
370
     9
100
AcDbSpline
210
0.0
220
0.0
230
1.0
 70
     8
 71
     3
 72
     8
 73
     4
 74
     0
 42
0.000000001
 43
0.0000000001
 40
0.0
 40
0.0
 40
0.0
 40
0.0
 40
1.0
 40
1.0
 40
1.0
 40
1.0
 10
27.57592644689902
 20
-12.63399501559871
 30
0.0
 10
27.45153747576849
 20
-12.63399501559871
 30
0.0
 10
27.41348889110463
 20
-12.82596487822396
 30
0.0
 10
27.40077203899851
 20
-12.90950268890344
 30
0.0
  0
SPLINE
  5
10E
330
70
100
AcDbEntity
  8
0
370
     9
100
AcDbSpline
210
0.0
220
0.0
230
1.0
 70
     8
 71
     3
 72
     8
 73
     4
 74
     0
 42
0.000000001
 43
0.0000000001
 40
0.0
 40
0.0
 40
0.0
 40
0.0
 40
1.0
 40
1.0
 40
1.0
 40
1.0
 10
27.4007621707739
 20
-12.90952242535235
 30
0.0
 10
27.1571617570217
 20
-14.51210894337255
 30
0.0
 10
26.89685443901521
 20
-16.11178104572711
 30
0.0
 10
26.6199487672252
 20
-17.7089729342969
 30
0.0
  0
SPLINE
  5
10F
330
70
100
AcDbEntity
  8
0
370
     9
100
AcDbSpline
210
0.0
220
0.0
230
1.0
 70
     8
 71
     3
 72
     8
 73
     4
 74
     0
 42
0.000000001
 43
0.0000000001
 40
0.0
 40
0.0
 40
0.0
 40
0.0
 40
1.0
 40
1.0
 40
1.0
 40
1.0
 10
28.86853558307388
 20
-11.83671483459417
 30
0.0
 10
28.69564428801594
 20
-13.79284036726939
 30
0.0
 10
28.5216740670678
 20
-15.74874879900337
 30
0.0
 10
28.34641110869652
 20
-17.70465723073638
 30
0.0
  0
SPLINE
  5
111
330
70
100
AcDbEntity
  8
0
370
     9
100
AcDbSpline
210
0.0
220
0.0
230
1.0
 70
     8
 71
     3
 72
     8
 73
     4
 74
     0
 42
0.000000001
 43
0.0000000001
 40
0.0
 40
0.0
 40
0.0
 40
0.0
 40
1.0
 40
1.0
 40
1.0
 40
1.0
 10
31.11467178981293
 20
-11.83671483459417
 30
0.0
 10
30.9515895100108
 20
-13.79143907937547
 30
0.0
 10
30.78753685478957
 20
-15.74605806309462
 30
0.0
 10
30.62262237461937
 20
-17.70067046799715
 30
0.0
  0
SPLINE
  5
113
330
70
100
AcDbEntity
  8
0
370
     9
100
AcDbSpline
210
0.0
220
0.0
230
1.0
 70
     8
 71
     3
 72
     8
 73
     4
 74
     0
 42
0.000000001
 43
0.0000000001
 40
0.0
 40
0.0
 40
0.0
 40
0.0
 40
1.0
 40
1.0
 40
1.0
 40
1.0
 10
29.72832109871877
 20
-17.70211122878889
 30
0.0
 10
29.71711079556904
 20
-15.7469593609411
 30
0.0
 10
29.70460775499553
 20
-13.79191275415674
 30
0.0
 10
29.69102578853309
 20
-11.83676088630894
 30
0.0
  0
LINE
  5
115
330
70
100
AcDbEntity
  8
0
370
     9
100
AcDbLine
 10
30.11531997359683
 20
-10.49521522432419
 30
0.0
 11
31.58467559124116
 21
-10.49521522432419
 31
0.0
  0
SPLINE
  5
117
330
70
100
AcDbEntity
  8
0
370
     9
100
AcDbSpline
210
0.0
220
0.0
230
1.0
 70
     8
 71
     3
 72
     8
 73
     4
 74
     0
 42
0.000000001
 43
0.0000000001
 40
0.0
 40
0.0
 40
0.0
 40
0.0
 40
1.0
 40
1.0
 40
1.0
 40
1.0
 10
30.18754879888008
 20
-12.90952242535235
 30
0.0
 10
30.04753184938515
 20
-14.50833270275826
 30
0.0
 10
29.89576842320385
 20
-16.10595879321052
 30
0.0
 10
29.73236049198971
 20
-17.70250595777258
 30
0.0
  0
LINE
  5
118
330
70
100
AcDbEntity
  8
0
370
     9
100
AcDbLine
 10
20.65458067897766
 20
-10.49521522432419
 30
0.0
 11
21.39949677082661
 21
-10.49521522432419
 31
0.0
  0
SPLINE
  5
119
330
70
100
AcDbEntity
  8
0
370
     9
100
AcDbSpline
210
0.0
220
0.0
230
1.0
 70
     8
 71
     3
 72
     8
 73
     4
 74
     0
 42
0.000000001
 43
0.0000000001
 40
0.0
 40
0.0
 40
0.0
 40
0.0
 40
1.0
 40
1.0
 40
1.0
 40
1.0
 10
19.76894534898346
 20
-15.37428256937139
 30
0.0
 10
19.49742772782691
 20
-16.16145768838162
 30
0.0
 10
19.21944477485053
 20
-16.94614601479238
 30
0.0
 10
18.93521030158819
 20
-17.72879490811716
 30
0.0
  0
LINE
  5
11A
330
70
100
AcDbEntity
  8
0
370
     9
100
AcDbLine
 10
25.88043388364296
 20
-12.63399501559871
 30
0.0
 11
25.62842574252822
 21
-12.63399501559871
 31
0.0
  0
LINE
  5
11B
330
70
100
AcDbEntity
  8
0
370
     9
100
AcDbLine
 10
23.82815237042864
 20
-12.63399501559871
 30
0.0
 11
23.78061713251203
 21
-12.63399501559871
 31
0.0
  0
LINE
  5
11C
330
70
100
AcDbEntity
  8
0
370
     9
100
AcDbLine
 10
33.44529315679269
 20
-12.63399501559871
 30
0.0
 11
32.3795972665656
 21
-12.63399501559871
 31
0.0
  0
LINE
  5
11D
330
70
100
AcDbEntity
  8
0
370
     9
100
AcDbLine
 10
37.38958634743132
 20
-12.63399501559871
 30
0.0
 11
34.85130135129725
 21
-12.63399501559871
 31
0.0
  0
LINE
  5
11E
330
70
100
AcDbEntity
  8
0
370
     9
100
AcDbLine
 10
28.79802053946331
 20
-12.63399501559871
 30
0.0
 11
27.57592644689902
 21
-12.63399501559871
 31
0.0
  0
LINE
  5
11F
330
70
100
AcDbEntity
  8
0
370
     9
100
AcDbLine
 10
31.04813364071761
 20
-12.63399501559871
 30
0.0
 11
30.30396753393886
 21
-12.63399501559871
 31
0.0
  0
SPLINE
  5
120
330
70
100
AcDbEntity
  8
0
370
     9
100
AcDbSpline
210
0.0
220
0.0
230
1.0
 70
     8
 71
     3
 72
     8
 73
     4
 74
     0
 42
0.000000001
 43
0.0000000001
 40
0.0
 40
0.0
 40
0.0
 40
0.0
 40
1.0
 40
1.0
 40
1.0
 40
1.0
 10
34.54712648551927
 20
-17.69478242731689
 30
0.0
 10
34.50314709786803
 20
-15.7421107732529
 30
0.0
 10
34.45852298620972
 20
-13.78943254037293
 30
0.0
 10
34.41292849913228
 20
-11.83676088630894
 30
0.0
  0
LINE
  5
122
330
70
100
AcDbEntity
  8
0
370
     9
100
AcDbLine
 10
34.68132118249761
 20
-10.49521522432419
 30
0.0
 11
36.66600864658426
 21
-10.49521522432419
 31
0.0
  0
SPLINE
  5
124
330
70
100
AcDbEntity
  8
0
370
     9
100
AcDbSpline
210
0.0
220
0.0
230
1.0
 70
     8
 71
     3
 72
     8
 73
     4
 74
     0
 42
0.000000001
 43
0.0000000001
 40
0.0
 40
0.0
 40
0.0
 40
0.0
 40
1.0
 40
1.0
 40
1.0
 40
1.0
 10
34.7759475882231
 20
-12.90952242535235
 30
0.0
 10
34.708902870265
 20
-14.50510250390425
 30
0.0
 10
34.63377607635671
 20
-16.10013654069394
 30
0.0
 10
34.55045536661879
 20
-17.69496005535934
 30
0.0
  0
LINE
  5
125
330
70
100
AcDbEntity
  8
0
370
     9
100
AcDbLine
 10
41.08587131732672
 20
-10.49521522432419
 30
0.0
 11
41.85741187915753
 21
-10.49521522432419
 31
0.0
  0
LINE
  5
126
330
70
100
AcDbEntity
  8
0
370
     9
100
AcDbLine
 10
43.56294371624422
 20
-10.49521522432419
 30
0.0
 11
44.18250375095024
 21
-10.49521522432419
 31
0.0
  0
LINE
  5
127
330
70
100
AcDbEntity
  8
0
370
     9
100
AcDbLine
 10
45.65188239445341
 20
-10.49521522432419
 30
0.0
 11
46.34656922306838
 21
-10.49521522432419
 31
0.0
  0
LINE
  5
128
330
70
100
AcDbEntity
  8
0
370
     9
100
AcDbLine
 10
48.40903145466562
 20
-10.49521522432419
 30
0.0
 11
49.04184451501503
 21
-10.49521522432419
 31
0.0
  0
LINE
  5
129
330
70
100
AcDbEntity
  8
0
370
     9
100
AcDbLine
 10
50.4003240504209
 20
-10.49521522432419
 30
0.0
 11
50.94216852696468
 21
-10.49521522432419
 31
0.0
  0
LINE
  5
12A
330
70
100
AcDbEntity
  8
0
370
     9
100
AcDbLine
 10
52.31290439732735
 20
-10.49521522432419
 30
0.0
 11
52.72550802564314
 21
-10.49521522432419
 31
0.0
  0
SPLINE
  5
12B
330
70
100
AcDbEntity
  8
0
370
     9
100
AcDbSpline
210
0.0
220
0.0
230
1.0
 70
     8
 71
     3
 72
     8
 73
     4
 74
     0
 42
0.000000001
 43
0.0000000001
 40
0.0
 40
0.0
 40
0.0
 40
0.0
 40
1.0
 40
1.0
 40
1.0
 40
1.0
 10
55.56041869573396
 20
-11.83671483459417
 30
0.0
 10
55.48755172525992
 20
-11.24539765870323
 30
0.0
 10
55.06965872855491
 20
-10.49519548787528
 30
0.0
 10
54.3676398090593
 20
-10.49519548787528
 30
0.0
  0
SPLINE
  5
12C
330
70
100
AcDbEntity
  8
0
370
     9
100
AcDbSpline
210
0.0
220
0.0
230
1.0
 70
     8
 71
     3
 72
     8
 73
     4
 74
     0
 42
0.000000001
 43
0.0000000001
 40
0.0
 40
0.0
 40
0.0
 40
0.0
 40
1.0
 40
1.0
 40
1.0
 40
1.0
 10
53.97858176464795
 20
-10.49521522432419
 30
0.0
 10
54.68146250909125
 20
-10.49521522432419
 30
0.0
 10
55.05828395499566
 20
-11.24369374525548
 30
0.0
 10
55.09967128898399
 20
-11.83674114986035
 30
0.0
  0
LINE
  5
12D
330
70
100
AcDbEntity
  8
0
370
     9
100
AcDbLine
 10
53.97858176464795
 20
-10.49521522432419
 30
0.0
 11
54.36769243958973
 21
-10.49521522432419
 31
0.0
  0
SPLINE
  5
12E
330
70
100
AcDbEntity
  8
0
370
     9
100
AcDbSpline
210
0.0
220
0.0
230
1.0
 70
     8
 71
     3
 72
     8
 73
     4
 74
     0
 42
0.000000001
 43
0.0000000001
 40
0.0
 40
0.0
 40
0.0
 40
0.0
 40
1.0
 40
1.0
 40
1.0
 40
1.0
 10
56.68836992557801
 20
-11.83671483459417
 30
0.0
 10
56.60935834058367
 20
-11.20281955894592
 30
0.0
 10
56.1331572941031
 20
-10.49519548787528
 30
0.0
 10
55.41302689305162
 20
-10.49519548787528
 30
0.0
  0
SPLINE
  5
12F
330
70
100
AcDbEntity
  8
0
370
     9
100
AcDbSpline
210
0.0
220
0.0
230
1.0
 70
     8
 71
     3
 72
     8
 73
     4
 74
     0
 42
0.000000001
 43
0.0000000001
 40
0.0
 40
0.0
 40
0.0
 40
0.0
 40
1.0
 40
1.0
 40
1.0
 40
1.0
 10
55.11261182084797
 20
-10.49521522432419
 30
0.0
 10
55.83295274402503
 20
-10.49521522432419
 30
0.0
 10
56.27962148367345
 20
-11.20068802243199
 30
0.0
 10
56.33265332269302
 20
-11.83674114986035
 30
0.0
  0
LINE
  5
130
330
70
100
AcDbEntity
  8
0
370
     9
100
AcDbLine
 10
55.11261182084797
 20
-10.49521522432419
 30
0.0
 11
55.41301373541901
 21
-10.49521522432419
 31
0.0
  0
LINE
  5
131
330
70
100
AcDbEntity
  8
0
370
     9
100
AcDbLine
 10
33.90983325119884
 20
-10.49521522432419
 30
0.0
 11
34.68137381302901
 21
-10.49521522432419
 31
0.0
  0
LINE
  5
132
330
70
100
AcDbEntity
  8
0
370
     9
100
AcDbLine
 10
31.58472164295626
 20
-10.49521522432419
 30
0.0
 11
32.20428167766325
 21
-10.49521522432419
 31
0.0
  0
LINE
  5
133
330
70
100
AcDbEntity
  8
0
370
     9
100
AcDbLine
 10
29.42067590728799
 20
-10.49521522432419
 30
0.0
 11
30.07084717471574
 21
-10.49521522432419
 31
0.0
  0
LINE
  5
134
330
70
100
AcDbEntity
  8
0
370
     9
100
AcDbLine
 10
26.7253348271767
 20
-10.49521522432419
 30
0.0
 11
27.34640470024806
 21
-10.49521522432419
 31
0.0
  0
LINE
  5
135
330
70
100
AcDbEntity
  8
0
370
     9
100
AcDbLine
 10
24.8250667351674
 20
-10.49521522432419
 30
0.0
 11
25.36691121171151
 21
-10.49521522432419
 31
0.0
  0
LINE
  5
136
330
70
100
AcDbEntity
  8
0
370
     9
100
AcDbLine
 10
23.04170421063075
 20
-10.49521522432419
 30
0.0
 11
23.43458783678107
 21
-10.49521522432419
 31
0.0
  0
SPLINE
  5
137
330
70
100
AcDbEntity
  8
0
370
     9
100
AcDbSpline
210
0.0
220
0.0
230
1.0
 70
     8
 71
     3
 72
     8
 73
     4
 74
     0
 42
0.000000001
 43
0.0000000001
 40
0.0
 40
0.0
 40
0.0
 40
0.0
 40
1.0
 40
1.0
 40
1.0
 40
1.0
 10
20.66750311909624
 20
-11.83671483459417
 30
0.0
 10
20.70889209778904
 20
-11.24377926986807
 30
0.0
 10
21.08582538357094
 20
-10.49519548787528
 30
0.0
 10
21.78870612801552
 20
-10.49519548787528
 30
0.0
  0
SPLINE
  5
138
330
70
100
AcDbEntity
  8
0
370
     9
100
AcDbSpline
210
0.0
220
0.0
230
1.0
 70
     8
 71
     3
 72
     8
 73
     4
 74
     0
 42
0.000000001
 43
0.0000000001
 40
0.0
 40
0.0
 40
0.0
 40
0.0
 40
1.0
 40
1.0
 40
1.0
 40
1.0
 10
21.399552690766
 20
-10.49521522432419
 30
0.0
 10
20.69753377127007
 20
-10.49521522432419
 30
0.0
 10
20.27964077456538
 20
-11.24541739515214
 30
0.0
 10
20.20677709349965
 20
-11.83674114986035
 30
0.0
  0
LINE
  5
139
330
70
100
AcDbEntity
  8
0
370
     9
100
AcDbLine
 10
21.399552690766
 20
-10.49521522432419
 30
0.0
 11
21.78866336570938
 21
-10.49521522432419
 31
0.0
  0
SPLINE
  5
13A
330
70
100
AcDbEntity
  8
0
370
     9
100
AcDbSpline
210
0.0
220
0.0
230
1.0
 70
     8
 71
     3
 72
     8
 73
     4
 74
     0
 42
0.000000001
 43
0.0000000001
 40
0.0
 40
0.0
 40
0.0
 40
0.0
 40
1.0
 40
1.0
 40
1.0
 40
1.0
 10
19.43453588772301
 20
-11.83671483459417
 30
0.0
 10
19.48756608203938
 20
-11.20077354704458
 30
0.0
 10
19.9342364663926
 20
-10.49519548787528
 30
0.0
 10
20.65458067897766
 20
-10.49519548787528
 30
0.0
  0
SPLINE
  5
13B
330
70
100
AcDbEntity
  8
0
370
     9
100
AcDbSpline
210
0.0
220
0.0
230
1.0
 70
     8
 71
     3
 72
     8
 73
     4
 74
     0
 42
0.000000001
 43
0.0000000001
 40
0.0
 40
0.0
 40
0.0
 40
0.0
 40
1.0
 40
1.0
 40
1.0
 40
1.0
 10
20.35417711970181
 20
-10.49521522432419
 30
0.0
 10
19.63394145758753
 20
-10.49521522432419
 30
0.0
 10
19.15784402746592
 20
-11.20283929539579
 30
0.0
 10
19.07883737658406
 20
-11.83674114986035
 30
0.0
  0
LINE
  5
13C
330
70
100
AcDbEntity
  8
0
370
     9
100
AcDbLine
 10
20.35417711970181
 20
-10.49521522432419
 30
0.0
 11
20.65457903427383
 21
-10.49521522432419
 31
0.0
  0
LINE
  5
13D
330
70
100
AcDbEntity
  8
0
370
     9
100
AcDbLine
 10
37.5016959577462
 20
-10.49521522432419
 30
0.0
 11
38.26558206669169
 21
-10.49521522432419
 31
0.0
  0
LINE
  5
13E
330
70
100
AcDbEntity
  8
0
370
     9
100
AcDbLine
 10
44.18248401450229
 20
-10.49521522432419
 30
0.0
 11
45.65183963214599
 21
-10.49521522432419
 31
0.0
  0
LINE
  5
13F
330
70
100
AcDbEntity
  8
0
370
     9
100
AcDbLine
 10
38.26554259379387
 20
-10.49521522432419
 30
0.0
 11
38.33581751060502
 21
-11.83674114986035
 31
0.0
  0
LINE
  5
140
330
70
100
AcDbEntity
  8
0
370
     9
100
AcDbLine
 10
38.64446926094506
 20
-17.72573575849058
 30
0.0
 11
38.33587343054504
 21
-11.83666878287908
 31
0.0
  0
LINE
  5
141
330
70
100
AcDbEntity
  8
0
370
     9
100
AcDbLine
 10
37.4313848574449
 20
-11.83671483459417
 30
0.0
 11
37.50165977425605
 21
-10.49519548787528
 31
0.0
  0
LINE
  5
142
330
70
100
AcDbEntity
  8
0
370
     9
100
AcDbLine
 10
37.4313848574449
 20
-11.83671483459417
 30
0.0
 11
37.12472977788247
 21
-17.68697995106361
 31
0.0
  0
SPLINE
  5
143
330
70
100
AcDbEntity
  8
0
370
     9
100
AcDbSpline
210
0.0
220
0.0
230
1.0
 70
     8
 71
     3
 72
     8
 73
     4
 74
     0
 42
0.000000001
 43
0.0000000001
 40
0.0
 40
0.0
 40
0.0
 40
0.0
 40
1.0
 40
1.0
 40
1.0
 40
1.0
 10
22.30870564469526
 20
-17.72036086548908
 30
0.0
 10
22.62742956294809
 20
-17.71961088042016
 30
0.0
 10
22.94615677060859
 20
-17.71885431653366
 30
0.0
 10
23.26488397826972
 20
-17.71820959252625
 30
0.0
  0
SPLINE
  5
144
330
70
100
AcDbEntity
  8
0
370
     9
100
AcDbSpline
210
0.0
220
0.0
230
1.0
 70
     8
 71
     3
 72
     8
 73
     4
 74
     0
 42
0.000000001
 43
0.0000000001
 40
0.0
 40
0.0
 40
0.0
 40
0.0
 40
1.0
 40
1.0
 40
1.0
 40
1.0
 10
34.55000471769507
 20
-17.70282174095999
 30
0.0
 10
35.40756001457956
 20
-17.70929529630061
 30
0.0
 10
36.26522386193482
 20
-17.71856484861148
 30
0.0
 10
37.12277915881867
 20
-17.72503182513547
 30
0.0
  0
SPLINE
  5
145
330
70
100
AcDbEntity
  8
0
370
     9
100
AcDbSpline
210
0.0
220
0.0
230
1.0
 70
     8
 71
     3
 72
     8
 73
     4
 74
     0
 42
0.000000001
 43
0.0000000001
 40
0.0
 40
0.0
 40
0.0
 40
0.0
 40
1.0
 40
1.0
 40
1.0
 40
1.0
 10
33.50845637307338
 20
-11.83671483459417
 30
0.0
 10
33.35377853122549
 20
-13.79025489242312
 30
0.0
 10
33.19835070430803
 20
-15.7435778493105
 30
0.0
 10
33.04216631350375
 20
-17.69700606726067
 30
0.0
  0
LINE
  5
147
330
70
100
AcDbEntity
  8
0
370
     9
100
AcDbLine
 10
36.80661768955521
 20
-17.82814819342842
 30
0.0
 11
36.90664201413878
 21
-17.82814819342842
 31
0.0
  0
LINE
  5
148
330
70
100
AcDbEntity
  8
0
370
     9
100
AcDbLine
 10
35.73247459906712
 20
-17.82814819342842
 30
0.0
 11
36.61395705120745
 21
-17.82814819342842
 31
0.0
  0
SPLINE
  5
149
330
70
100
AcDbEntity
  8
0
370
     9
100
AcDbSpline
210
0.0
220
0.0
230
1.0
 70
     8
 71
     3
 72
     8
 73
     4
 74
     0
 42
0.000000001
 43
0.0000000001
 40
0.0
 40
0.0
 40
0.0
 40
0.0
 40
1.0
 40
1.0
 40
1.0
 40
1.0
 10
41.37634908735679
 20
-17.79591857187187
 30
0.0
 10
40.26312124862109
 20
-17.80239212721249
 30
0.0
 10
39.14978485941558
 20
-17.80864200279525
 30
0.0
 10
38.03655702067923
 20
-17.81499713943951
 30
0.0
  0
SPLINE
  5
14A
330
70
100
AcDbEntity
  8
0
370
     9
100
AcDbSpline
210
0.0
220
0.0
230
1.0
 70
     8
 71
     3
 72
     8
 73
     4
 74
     0
 42
0.000000001
 43
0.0000000001
 40
0.0
 40
0.0
 40
0.0
 40
0.0
 40
1.0
 40
1.0
 40
1.0
 40
1.0
 10
52.50893338967215
 20
-17.7399986324509
 30
0.0
 10
52.28753648127817
 20
-15.77245227450166
 30
0.0
 10
52.06818558478648
 20
-13.80468881561055
 30
0.0
 10
51.85099911889056
 20
-11.83670825577787
 30
0.0
  0
SPLINE
  5
14B
330
70
100
AcDbEntity
  8
0
370
     9
100
AcDbSpline
210
0.0
220
0.0
230
1.0
 70
     8
 71
     3
 72
     8
 73
     4
 74
     0
 42
0.000000001
 43
0.0000000001
 40
0.0
 40
0.0
 40
0.0
 40
0.0
 40
1.0
 40
1.0
 40
1.0
 40
1.0
 10
54.44496063823817
 20
-17.7399986324509
 30
0.0
 10
54.2123534266935
 20
-15.77255753556317
 30
0.0
 10
53.98212116787146
 20
-13.80479407667302
 30
0.0
 10
53.75425728295412
 20
-11.83670825577787
 30
0.0
  0
SPLINE
  5
14C
330
70
100
AcDbEntity
  8
0
370
     9
100
AcDbSpline
210
0.0
220
0.0
230
1.0
 70
     8
 71
     3
 72
     8
 73
     4
 74
     0
 42
0.000000001
 43
0.0000000001
 40
0.0
 40
0.0
 40
0.0
 40
0.0
 40
1.0
 40
1.0
 40
1.0
 40
1.0
 10
56.29612115521015
 20
-17.7399986324509
 30
0.0
 10
56.04809977683593
 20
-15.77255753556317
 30
0.0
 10
55.80288097424761
 20
-13.80479407667302
 30
0.0
 10
55.56035948638626
 20
-11.83670825577787
 30
0.0
  0
SPLINE
  5
14D
330
70
100
AcDbEntity
  8
0
370
     9
100
AcDbSpline
210
0.0
220
0.0
230
1.0
 70
     8
 71
     3
 72
     8
 73
     4
 74
     0
 42
0.000000001
 43
0.0000000001
 40
0.0
 40
0.0
 40
0.0
 40
0.0
 40
1.0
 40
1.0
 40
1.0
 40
1.0
 10
56.33269279559277
 20
-11.83671483459417
 30
0.0
 10
56.4969592623466
 20
-13.8048072343053
 30
0.0
 10
56.66424540582919
 20
-15.77246543213427
 30
0.0
 10
56.83443938616305
 20
-17.74001179008351
 30
0.0
  0
SPLINE
  5
14E
330
70
100
AcDbEntity
  8
0
370
     9
100
AcDbSpline
210
0.0
220
0.0
230
1.0
 70
     8
 71
     3
 72
     8
 73
     4
 74
     0
 42
0.000000001
 43
0.0000000001
 40
0.0
 40
0.0
 40
0.0
 40
0.0
 40
1.0
 40
1.0
 40
1.0
 40
1.0
 10
57.4335261442251
 20
-17.7399986324509
 30
0.0
 10
57.18216272711842
 20
-15.77255753556317
 30
0.0
 10
56.9338189867392
 20
-13.80489933773548
 30
0.0
 10
56.68838966202788
 20
-11.83670825577787
 30
0.0
  0
SPLINE
  5
14F
330
70
100
AcDbEntity
  8
0
370
     9
100
AcDbSpline
210
0.0
220
0.0
230
1.0
 70
    24
 71
     3
 72
    17
 73
    13
 74
     0
 42
0.000000001
 43
0.0000000001
 40
0.0
 40
0.0
 40
0.0
 40
0.0
 40
1.0
 40
1.0
 40
1.0
 40
2.0
 40
2.0
 40
2.0
 40
3.0
 40
3.0
 40
3.0
 40
4.0
 40
4.0
 40
4.0
 40
4.0
 10
58.81874198949063
 20
-17.725393660037
 30
0.0
 10
58.84568882147394
 20
-17.725393660037
 30
0.0
 10
58.79179515750603
 20
-17.725393660037
 30
0.0
 10
58.77832174151277
 20
-17.725393660037
 30
0.0
 10
58.76484832552144
 20
-17.725393660037
 30
0.0
 10
58.75137490952817
 20
-17.725393660037
 30
0.0
 10
58.7379014935362
 20
-17.725393660037
 30
0.0
 10
58.71095466155161
 20
-17.725393660037
 30
0.0
 10
58.68411309062916
 20
-17.725393660037
 30
0.0
 10
58.65716625864457
 20
-17.725393660037
 30
0.0
 10
58.60327259467537
 20
-17.725393660037
 30
0.0
 10
58.54937893070554
 20
-17.725393660037
 30
0.0
 10
58.49548526673572
 20
-17.725393660037
 30
0.0
  0
SPLINE
  5
150
330
70
100
AcDbEntity
  8
0
370
     9
100
AcDbSpline
210
0.0
220
0.0
230
1.0
 70
    24
 71
     3
 72
    17
 73
    13
 74
     0
 42
0.000000001
 43
0.0000000001
 40
0.0
 40
0.0
 40
0.0
 40
0.0
 40
1.0
 40
1.0
 40
1.0
 40
2.0
 40
2.0
 40
2.0
 40
3.0
 40
3.0
 40
3.0
 40
4.0
 40
4.0
 40
4.0
 40
4.0
 10
17.2714490145454
 20
-17.725393660037
 30
0.0
 10
17.21755535057557
 20
-17.725393660037
 30
0.0
 10
17.16376859237301
 20
-17.725393660037
 30
0.0
 10
17.1099834788746
 20
-17.725393660037
 30
0.0
 10
17.08303664688968
 20
-17.725393660037
 30
0.0
 10
17.05608981490477
 20
-17.725393660037
 30
0.0
 10
17.02924988868648
 20
-17.725393660037
 30
0.0
 10
17.0157764726945
 20
-17.725393660037
 30
0.0
 10
17.0023030567022
 20
-17.725393660037
 30
0.0
 10
16.98882964070991
 20
-17.725393660037
 30
0.0
 10
16.97535622471729
 20
-17.725393660037
 30
0.0
 10
16.92157111121856
 20
-17.725393660037
 30
0.0
 10
16.94851794320315
 20
-17.725393660037
 30
0.0
  0
SPLINE
  5
151
330
70
100
AcDbEntity
  8
0
370
     9
100
AcDbSpline
210
0.0
220
0.0
230
1.0
 70
     8
 71
     3
 72
     8
 73
     4
 74
     0
 42
0.000000001
 43
0.0000000001
 40
0.0
 40
0.0
 40
0.0
 40
0.0
 40
1.0
 40
1.0
 40
1.0
 40
1.0
 10
16.94976791831951
 20
-17.74113018887219
 30
0.0
 10
17.05701578331359
 20
-17.73574213823904
 30
0.0
 10
17.16404819207026
 20
-17.73369612633771
 30
0.0
 10
17.27140460753479
 20
-17.73509741423131
 30
0.0
  0
SPLINE
  5
152
330
70
100
AcDbEntity
  8
0
370
     9
100
AcDbSpline
210
0.0
220
0.0
230
1.0
 70
     8
 71
     3
 72
     8
 73
     4
 74
     0
 42
0.000000001
 43
0.0000000001
 40
0.0
 40
0.0
 40
0.0
 40
0.0
 40
1.0
 40
1.0
 40
1.0
 40
1.0
 10
19.07882586365528
 20
-11.83671483459417
 30
0.0
 10
18.83425507448366
 20
-13.80189939745532
 30
0.0
 10
18.58666789799127
 20
-15.76653791855522
 30
0.0
 10
18.33616959524091
 20
-17.73095933871388
 30
0.0
  0
SPLINE
  5
153
330
70
100
AcDbEntity
  8
0
370
     9
100
AcDbSpline
210
0.0
220
0.0
230
1.0
 70
     8
 71
     3
 72
     8
 73
     4
 74
     0
 42
0.000000001
 43
0.0000000001
 40
0.0
 40
0.0
 40
0.0
 40
0.0
 40
1.0
 40
1.0
 40
1.0
 40
1.0
 10
18.93525306389497
 20
-17.72878832930117
 30
0.0
 10
19.10469376974999
 20
-15.76501163314993
 30
0.0
 10
19.27111808828457
 20
-13.80102441487406
 30
0.0
 10
19.4345227300904
 20
-11.83670167696156
 30
0.0
  0
SPLINE
  5
154
330
70
100
AcDbEntity
  8
0
370
     9
100
AcDbSpline
210
0.0
220
0.0
230
1.0
 70
     8
 71
     3
 72
     8
 73
     4
 74
     0
 42
0.000000001
 43
0.0000000001
 40
0.0
 40
0.0
 40
0.0
 40
0.0
 40
1.0
 40
1.0
 40
1.0
 40
1.0
 10
18.3361284776386
 20
-17.73095275989758
 30
0.0
 10
18.53585805421068
 20
-17.73020277482738
 30
0.0
 10
18.73547908031229
 20
-17.72944621094119
 30
0.0
 10
18.93521030158819
 20
-17.72880148693346
 30
0.0
  0
SPLINE
  5
155
330
70
100
AcDbEntity
  8
0
370
     9
100
AcDbSpline
210
0.0
220
0.0
230
1.0
 70
     8
 71
     3
 72
     8
 73
     4
 74
     0
 42
0.000000001
 43
0.0000000001
 40
0.0
 40
0.0
 40
0.0
 40
0.0
 40
1.0
 40
1.0
 40
1.0
 40
1.0
 10
20.20681985580611
 20
-11.83671483459417
 30
0.0
 10
19.96548255489647
 20
-13.80049810956141
 30
0.0
 10
19.72123741713622
 20
-15.76384060382985
 30
0.0
 10
19.47440351512234
 20
-17.72697257597434
 30
0.0
  0
SPLINE
  5
156
330
70
100
AcDbEntity
  8
0
370
     9
100
AcDbSpline
210
0.0
220
0.0
230
1.0
 70
     8
 71
     3
 72
     8
 73
     4
 74
     0
 42
0.000000001
 43
0.0000000001
 40
0.0
 40
0.0
 40
0.0
 40
0.0
 40
1.0
 40
1.0
 40
1.0
 40
1.0
 10
20.25013971711284
 20
-17.72454499272192
 30
0.0
 10
20.39198722227137
 20
-15.76216958446459
 30
0.0
 10
20.53114070211317
 20
-13.79957707526506
 30
0.0
 10
20.66749160616779
 20
-11.83666220406278
 30
0.0
  0
SPLINE
  5
157
330
70
100
AcDbEntity
  8
0
370
     9
100
AcDbSpline
210
0.0
220
0.0
230
1.0
 70
     8
 71
     3
 72
     8
 73
     4
 74
     0
 42
0.000000001
 43
0.0000000001
 40
0.0
 40
0.0
 40
0.0
 40
0.0
 40
1.0
 40
1.0
 40
1.0
 40
1.0
 10
22.01298126858595
 20
-11.83671483459417
 30
0.0
 10
21.78651867156221
 20
-13.79866261978501
 30
0.0
 10
21.55757915016266
 20
-15.7602814641568
 30
0.0
 10
21.32648177698333
 20
-17.72168978640301
 30
0.0
  0
SPLINE
  5
158
330
70
100
AcDbEntity
  8
0
370
     9
100
AcDbSpline
210
0.0
220
0.0
230
1.0
 70
     8
 71
     3
 72
     8
 73
     4
 74
     0
 42
0.000000001
 43
0.0000000001
 40
0.0
 40
0.0
 40
0.0
 40
0.0
 40
1.0
 40
1.0
 40
1.0
 40
1.0
 10
21.32649493461594
 20
-17.72167662877041
 30
0.0
 10
21.6525509437494
 20
-17.7209266437002
 30
0.0
 10
21.97849840241176
 20
-17.71780170590867
 30
0.0
 10
22.30455441154523
 20
-17.71704514202248
 30
0.0
  0
SPLINE
  5
159
330
70
100
AcDbEntity
  8
0
370
     9
100
AcDbSpline
210
0.0
220
0.0
230
1.0
 70
     8
 71
     3
 72
     8
 73
     4
 74
     0
 42
0.000000001
 43
0.0000000001
 40
0.0
 40
0.0
 40
0.0
 40
0.0
 40
1.0
 40
1.0
 40
1.0
 40
1.0
 10
23.91626903732368
 20
-11.83671483459417
 30
0.0
 10
23.6999378175601
 20
-13.79629424588094
 30
0.0
 10
23.48166913636565
 20
-15.75554471634673
 30
0.0
 10
23.2612426033911
 20
-17.71446624599251
 30
0.0
  0
LINE
  5
15A
330
70
100
AcDbEntity
  8
0
370
     9
100
AcDbLine
 10
39.29113730863978
 20
-17.7399986324509
 30
0.0
 11
41.21912853296812
 21
-17.7399986324509
 31
0.0
  0
LINE
  5
15B
330
70
100
AcDbEntity
  8
0
370
     9
100
AcDbLine
 10
57.4335261442251
 20
-17.7399986324509
 30
0.0
 11
58.49178139310108
 21
-17.7399986324509
 31
0.0
  0
SPLINE
  5
15C
330
70
100
AcDbEntity
  8
0
370
     9
100
AcDbSpline
210
0.0
220
0.0
230
1.0
 70
     8
 71
     3
 72
     8
 73
     4
 74
     0
 42
0.000000001
 43
0.0000000001
 40
0.0
 40
0.0
 40
0.0
 40
0.0
 40
1.0
 40
1.0
 40
1.0
 40
1.0
 10
57.07857926285955
 20
-14.50697088776216
 30
0.0
 10
57.07340173435166
 20
-14.49533296154594
 30
0.0
 10
57.06833604572126
 20
-14.48369503533004
 30
0.0
 10
57.06327035709086
 20
-14.47205053029783
 30
0.0
  0
LINE
  5
15D
330
70
100
AcDbEntity
  8
0
370
     9
100
AcDbLine
 10
56.29612115521015
 20
-17.7399986324509
 30
0.0
 11
56.83451833196062
 21
-17.7399986324509
 31
0.0
  0
LINE
  5
15E
330
70
100
AcDbEntity
  8
0
370
     9
100
AcDbLine
 10
54.44496063823817
 20
-17.7399986324509
 30
0.0
 11
55.52024186396352
 21
-17.7399986324509
 31
0.0
  0
LINE
  5
15F
330
70
100
AcDbEntity
  8
0
370
     9
100
AcDbLine
 10
52.50893338967215
 20
-17.7399986324509
 30
0.0
 11
53.46381569641613
 21
-17.7399986324509
 31
0.0
  0
LINE
  5
160
330
70
100
AcDbEntity
  8
0
370
     9
100
AcDbLine
 10
50.41229749627247
 20
-17.7399986324509
 30
0.0
 11
51.37666645626791
 21
-17.7399986324509
 31
0.0
  0
LINE
  5
161
330
70
100
AcDbEntity
  8
0
370
     9
100
AcDbLine
 10
47.42397211708336
 20
-17.7399986324509
 30
0.0
 11
49.15266467731605
 21
-17.7399986324509
 31
0.0
  0
LINE
  5
162
330
70
100
AcDbEntity
  8
0
370
     9
100
AcDbLine
 10
45.14802071440821
 20
-17.7399986324509
 30
0.0
 11
46.03877271885941
 21
-17.7399986324509
 31
0.0
  0
LINE
  5
163
330
70
100
AcDbEntity
  8
0
370
     9
100
AcDbLine
 10
42.7285195378306
 20
-17.7399986324509
 30
0.0
 11
43.78451167386338
 21
-17.7399986324509
 31
0.0
  0
SPLINE
  5
164
330
70
100
AcDbEntity
  8
0
370
     9
100
AcDbSpline
210
0.0
220
0.0
230
1.0
 70
     8
 71
     3
 72
     8
 73
     4
 74
     0
 42
0.000000001
 43
0.0000000001
 40
0.0
 40
0.0
 40
0.0
 40
0.0
 40
1.0
 40
1.0
 40
1.0
 40
1.0
 10
37.12477582959723
 20
-17.68693389934853
 30
0.0
 10
37.63137429726466
 20
-17.69987443121218
 30
0.0
 10
38.13786750386931
 20
-17.71280838425953
 30
0.0
 10
38.64446926094506
 20
-17.72574233730688
 30
0.0
  0
LINE
  5
165
330
70
100
AcDbEntity
  8
0
370
     9
100
AcDbLine
 10
37.12279231645223
 20
-17.72500550986961
 30
0.0
 11
37.12472977788247
 21
-17.68696021461374
 31
0.0
  0
SPLINE
  5
166
330
70
100
AcDbEntity
  8
0
370
     9
100
AcDbSpline
210
0.0
220
0.0
230
1.0
 70
     8
 71
     3
 72
     8
 73
     4
 74
     0
 42
0.000000001
 43
0.0000000001
 40
0.0
 40
0.0
 40
0.0
 40
0.0
 40
1.0
 40
1.0
 40
1.0
 40
1.0
 10
39.2027213055973
 20
-17.7399986324509
 30
0.0
 10
39.92726609245515
 20
-17.75854431588991
 30
0.0
 10
40.65181416872196
 20
-17.77718868157411
 30
0.0
 10
41.37635895558109
 20
-17.79594488713805
 30
0.0
  0
SPLINE
  5
167
330
70
100
AcDbEntity
  8
0
370
     9
100
AcDbSpline
210
0.0
220
0.0
230
1.0
 70
     8
 71
     3
 72
     8
 73
     4
 74
     0
 42
0.000000001
 43
0.0000000001
 40
0.0
 40
0.0
 40
0.0
 40
0.0
 40
1.0
 40
1.0
 40
1.0
 40
1.0
 10
38.64498569803278
 20
-17.73596581799658
 30
0.0
 10
38.83091620720053
 20
-17.7373671058905
 30
0.0
 10
39.01674145530679
 20
-17.73866313272163
 30
0.0
 10
39.20267525388285
 20
-17.73995915955212
 30
0.0
  0
SPLINE
  5
168
330
70
100
AcDbEntity
  8
0
370
     9
100
AcDbSpline
210
0.0
220
0.0
230
1.0
 70
     8
 71
     3
 72
     8
 73
     4
 74
     0
 42
0.000000001
 43
0.0000000001
 40
0.0
 40
0.0
 40
0.0
 40
0.0
 40
1.0
 40
1.0
 40
1.0
 40
1.0
 10
20.25013971711284
 20
-17.72454499272192
 30
0.0
 10
20.60896316604301
 20
-17.72347264564801
 30
0.0
 10
20.96767970920623
 20
-17.7223937197578
 30
0.0
 10
21.32650151343256
 20
-17.72163715587162
 30
0.0
  0
SPLINE
  5
169
330
70
100
AcDbEntity
  8
0
370
     9
100
AcDbSpline
210
0.0
220
0.0
230
1.0
 70
     8
 71
     3
 72
     8
 73
     4
 74
     0
 42
0.000000001
 43
0.0000000001
 40
0.0
 40
0.0
 40
0.0
 40
0.0
 40
1.0
 40
1.0
 40
1.0
 40
1.0
 10
19.47440515982618
 20
-17.72695941834108
 30
0.0
 10
19.73298553852706
 20
-17.72599233232964
 30
0.0
 10
19.99156756193242
 20
-17.7253476083232
 30
0.0
 10
20.25014958533713
 20
-17.72459104443669
 30
0.0
  0
SPLINE
  5
16A
330
70
100
AcDbEntity
  8
0
370
     9
100
AcDbSpline
210
0.0
220
0.0
230
1.0
 70
     8
 71
     3
 72
     8
 73
     4
 74
     0
 42
0.000000001
 43
0.0000000001
 40
0.0
 40
0.0
 40
0.0
 40
0.0
 40
1.0
 40
1.0
 40
1.0
 40
1.0
 10
18.93525306389497
 20
-17.72878832930117
 30
0.0
 10
19.11493369748029
 20
-17.72825544517221
 30
0.0
 10
19.29472288153639
 20
-17.72749888128603
 30
0.0
 10
19.47440515982618
 20
-17.72695941834108
 30
0.0
  0
SPLINE
  5
16B
330
70
100
AcDbEntity
  8
0
370
     9
100
AcDbSpline
210
0.0
220
0.0
230
1.0
 70
     8
 71
     3
 72
     8
 73
     4
 74
     0
 42
0.000000001
 43
0.0000000001
 40
0.0
 40
0.0
 40
0.0
 40
0.0
 40
1.0
 40
1.0
 40
1.0
 40
1.0
 10
17.2714490145454
 20
-17.73505136251654
 30
0.0
 10
17.626392606502
 20
-17.73246588766994
 30
0.0
 10
17.98122764798814
 20
-17.731926424725
 30
0.0
 10
18.33617123994474
 20
-17.73095933871388
 30
0.0
  0
SPLINE
  5
16C
330
70
100
AcDbEntity
  8
0
370
     9
100
AcDbSpline
210
0.0
220
0.0
230
1.0
 70
     8
 71
     3
 72
     8
 73
     4
 74
     0
 42
0.000000001
 43
0.0000000001
 40
0.0
 40
0.0
 40
0.0
 40
0.0
 40
1.0
 40
1.0
 40
1.0
 40
1.0
 10
27.47247455896975
 20
-17.7260712781269
 30
0.0
 10
24.0416020686081
 20
-17.72995277980462
 30
0.0
 10
20.61105522965878
 20
-17.7526957481081
 30
0.0
 10
17.18050839070946
 20
-17.79451728397891
 30
0.0
  0
SPLINE
  5
16D
330
70
100
AcDbEntity
  8
0
370
     9
100
AcDbSpline
210
0.0
220
0.0
230
1.0
 70
     8
 71
     3
 72
     8
 73
     4
 74
     0
 42
0.000000001
 43
0.0000000001
 40
0.0
 40
0.0
 40
0.0
 40
0.0
 40
1.0
 40
1.0
 40
1.0
 40
1.0
 10
29.03120668685075
 20
-17.7191306268226
 30
0.0
 10
28.81131961682147
 20
-17.72010429165002
 30
0.0
 10
28.59132399632109
 20
-17.7210713776605
 30
0.0
 10
28.37144021569979
 20
-17.72204504248792
 30
0.0
  0
SPLINE
  5
16E
330
70
100
AcDbEntity
  8
0
370
     9
100
AcDbSpline
210
0.0
220
0.0
230
1.0
 70
     8
 71
     3
 72
     8
 73
     4
 74
     0
 42
0.000000001
 43
0.0000000001
 40
0.0
 40
0.0
 40
0.0
 40
0.0
 40
1.0
 40
1.0
 40
1.0
 40
1.0
 10
33.04473205190079
 20
-17.70395329738127
 30
0.0
 10
32.69054173442238
 20
-17.70503222327148
 30
0.0
 10
32.33635141694397
 20
-17.70622298904046
 30
0.0
 10
31.98216438887291
 20
-17.70740717599282
 30
0.0
  0
SPLINE
  5
16F
330
70
100
AcDbEntity
  8
0
370
     9
100
AcDbSpline
210
0.0
220
0.0
230
1.0
 70
     8
 71
     3
 72
     8
 73
     4
 74
     0
 42
0.000000001
 43
0.0000000001
 40
0.0
 40
0.0
 40
0.0
 40
0.0
 40
1.0
 40
1.0
 40
1.0
 40
1.0
 10
30.62507956254563
 20
-17.70062441628206
 30
0.0
 10
31.07746200424017
 20
-17.69987443121218
 30
0.0
 10
31.52973589546393
 20
-17.699117867326
 30
0.0
 10
31.98212162656646
 20
-17.69847314331826
 30
0.0
  0
SPLINE
  5
170
330
70
100
AcDbEntity
  8
0
370
     9
100
AcDbSpline
210
0.0
220
0.0
230
1.0
 70
     8
 71
     3
 72
     8
 73
     4
 74
     0
 42
0.000000001
 43
0.0000000001
 40
0.0
 40
0.0
 40
0.0
 40
0.0
 40
1.0
 40
1.0
 40
1.0
 40
1.0
 10
29.73183418667769
 20
-17.70749270060638
 30
0.0
 10
30.02954207593265
 20
-17.7070650775402
 30
0.0
 10
30.32735851565774
 20
-17.70663087565772
 30
0.0
 10
30.6250664049127
 20
-17.70620325259155
 30
0.0
  0
SPLINE
  5
171
330
70
100
AcDbEntity
  8
0
370
     9
100
AcDbSpline
210
0.0
220
0.0
230
1.0
 70
     8
 71
     3
 72
     8
 73
     4
 74
     0
 42
0.000000001
 43
0.0000000001
 40
0.0
 40
0.0
 40
0.0
 40
0.0
 40
1.0
 40
1.0
 40
1.0
 40
1.0
 10
28.34924657856587
 20
-17.70465723073638
 30
0.0
 10
28.80895782173242
 20
-17.70369014472526
 30
0.0
 10
29.26867235430759
 20
-17.70282831977629
 30
0.0
 10
29.72827504700368
 20
-17.7020717558901
 30
0.0
  0
SPLINE
  5
172
330
70
100
AcDbEntity
  8
0
370
     9
100
AcDbSpline
210
0.0
220
0.0
230
1.0
 70
     8
 71
     3
 72
     8
 73
     4
 74
     0
 42
0.000000001
 43
0.0000000001
 40
0.0
 40
0.0
 40
0.0
 40
0.0
 40
1.0
 40
1.0
 40
1.0
 40
1.0
 10
26.61928430676823
 20
-17.71265049266567
 30
0.0
 10
27.19594387971453
 20
-17.71168340665455
 30
0.0
 10
27.77260674206913
 20
-17.71060448076434
 30
0.0
 10
28.34926960442309
 20
-17.70974265581569
 30
0.0
  0
SPLINE
  5
173
330
70
100
AcDbEntity
  8
0
370
     9
100
AcDbSpline
210
0.0
220
0.0
230
1.0
 70
     8
 71
     3
 72
     8
 73
     4
 74
     0
 42
0.000000001
 43
0.0000000001
 40
0.0
 40
0.0
 40
0.0
 40
0.0
 40
1.0
 40
1.0
 40
1.0
 40
1.0
 10
25.3579541531794
 20
-17.71058474431543
 30
0.0
 10
25.77702804742782
 20
-17.70983475924555
 30
0.0
 10
26.19610523108455
 20
-17.7089729342969
 30
0.0
 10
26.61507715367913
 20
-17.70811110934793
 30
0.0
  0
SPLINE
  5
174
330
70
100
AcDbEntity
  8
0
370
     9
100
AcDbSpline
210
0.0
220
0.0
230
1.0
 70
     8
 71
     3
 72
     8
 73
     4
 74
     0
 42
0.000000001
 43
0.0000000001
 40
0.0
 40
0.0
 40
0.0
 40
0.0
 40
1.0
 40
1.0
 40
1.0
 40
1.0
 10
24.39587791070006
 20
-17.71634778748367
 30
0.0
 10
24.71654257979175
 20
-17.7159201644175
 30
0.0
 10
25.03731908876189
 20
-17.71538070147256
 30
0.0
 10
25.35798704726189
 20
-17.71484123852729
 30
0.0
  0
SPLINE
  5
175
330
70
100
AcDbEntity
  8
0
370
     9
100
AcDbSpline
210
0.0
220
0.0
230
1.0
 70
     8
 71
     3
 72
     8
 73
     4
 74
     0
 42
0.000000001
 43
0.0000000001
 40
0.0
 40
0.0
 40
0.0
 40
0.0
 40
1.0
 40
1.0
 40
1.0
 40
1.0
 10
23.26493002998482
 20
-17.71451887652359
 30
0.0
 10
23.64045873846512
 20
-17.71376889145467
 30
0.0
 10
24.01599073635342
 20
-17.71312416744694
 30
0.0
 10
24.39152273424204
 20
-17.71236760356075
 30
0.0
  0
SPLINE
  5
176
330
70
100
AcDbEntity
  8
0
370
     9
100
AcDbSpline
210
0.0
220
0.0
230
1.0
 70
     8
 71
     3
 72
     8
 73
     4
 74
     0
 42
0.000000001
 43
0.0000000001
 40
0.0
 40
0.0
 40
0.0
 40
0.0
 40
1.0
 40
1.0
 40
1.0
 40
1.0
 10
33.04473205190079
 20
-17.69694685791329
 30
0.0
 10
33.54551155646059
 20
-17.69630213390556
 30
0.0
 10
34.04629106102007
 20
-17.69555214883568
 30
0.0
 10
34.54717911605002
 20
-17.69479558494917
 30
0.0
  0
SPLINE
  5
177
330
70
100
AcDbEntity
  8
0
370
     9
100
AcDbSpline
210
0.0
220
0.0
230
1.0
 70
     8
 71
     3
 72
     8
 73
     4
 74
     0
 42
0.000000001
 43
0.0000000001
 40
0.0
 40
0.0
 40
0.0
 40
0.0
 40
1.0
 40
1.0
 40
1.0
 40
1.0
 10
25.96246843477371
 20
-11.83671483459417
 30
0.0
 10
25.76263030773086
 20
-13.79489295798702
 30
0.0
 10
25.56117379185318
 20
-15.75284740162136
 30
0.0
 10
25.35799691548618
 20
-17.71059132313174
 30
0.0
  0
LINE
  5
179
330
70
100
AcDbEntity
  8
0
370
     9
100
AcDbLine
 10
22.02615205902345
 20
-9.27306850122915
 30
0.0
 11
22.02615205902345
 21
-10.49527443367253
 31
0.0
  0
LINE
  5
17A
330
70
100
AcDbEntity
  8
0
370
     9
100
AcDbLine
 10
22.02615205902345
 20
-9.27306850122915
 30
0.0
 11
24.40932830083546
 21
-9.27306850122915
 31
0.0
  0
LINE
  5
17B
330
70
100
AcDbEntity
  8
0
370
     9
100
AcDbLine
 10
24.40935132669236
 20
-10.49521522432419
 30
0.0
 11
24.40935132669236
 21
-9.273015870697756
 31
0.0
  0
SPLINE
  5
17C
330
70
100
AcDbEntity
  8
0
370
     9
100
AcDbSpline
210
0.0
220
0.0
230
1.0
 70
     8
 71
     3
 72
     8
 73
     4
 74
     0
 42
0.000000001
 43
0.0000000001
 40
0.0
 40
0.0
 40
0.0
 40
0.0
 40
1.0
 40
1.0
 40
1.0
 40
1.0
 10
68.33532885655012
 20
-27.27951267467361
 30
0.0
 10
68.52373957950137
 20
-27.16709385998731
 30
0.0
 10
68.58538966800937
 20
-26.92327634529388
 30
0.0
 10
68.47297085332243
 20
-26.73497746222141
 30
0.0
  0
SPLINE
  5
17D
330
70
100
AcDbEntity
  8
0
370
     9
100
AcDbSpline
210
0.0
220
0.0
230
1.0
 70
     8
 71
     3
 72
     8
 73
     4
 74
     0
 42
0.000000001
 43
0.0000000001
 40
0.0
 40
0.0
 40
0.0
 40
0.0
 40
1.0
 40
1.0
 40
1.0
 40
1.0
 10
68.30907937910338
 20
-27.29515052126199
 30
0.0
 10
68.12066207733487
 20
-27.40757591476556
 30
0.0
 10
67.8768511414587
 20
-27.34591924744028
 30
0.0
 10
67.76453758783389
 20
-27.15750852448904
 30
0.0
  0
LINE
  5
17E
330
70
100
AcDbEntity
  8
0
370
     9
100
AcDbLine
 10
68.30907937910338
 20
-27.29515052126199
 30
0.0
 11
68.33537490826521
 21
-27.27952583230686
 31
0.0
  0
LINE
  5
17F
330
70
100
AcDbEntity
  8
0
370
     9
100
AcDbLine
 10
63.17025404721957
 20
-18.62017190012749
 30
0.0
 11
63.51139857177153
 21
-18.41667595116479
 31
0.0
  0
LINE
  5
180
330
70
100
AcDbEntity
  8
0
370
     9
100
AcDbLine
 10
63.14401114859009
 20
-18.6358097467162
 30
0.0
 11
63.17020141668721
 21
-18.6201850577601
 31
0.0
  0
LINE
  5
181
330
70
100
AcDbEntity
  8
0
370
     9
100
AcDbLine
 10
62.80287320285346
 20
-18.83926622278012
 30
0.0
 11
63.14401772740735
 21
-18.63577027381773
 31
0.0
  0
LINE
  5
182
330
70
100
AcDbEntity
  8
0
370
     9
100
AcDbLine
 10
63.51135909887371
 20
-18.41667595116479
 30
0.0
 11
68.47291164397474
 21
-26.73495114695555
 31
0.0
  0
LINE
  5
183
330
70
100
AcDbEntity
  8
0
370
     9
100
AcDbLine
 10
62.80287320285346
 20
-18.83926622278012
 30
0.0
 11
67.76453758783389
 21
-27.15754141857152
 31
0.0
  0
SPLINE
  5
184
330
70
100
AcDbEntity
  8
0
370
     9
100
AcDbSpline
210
0.0
220
0.0
230
1.0
 70
     8
 71
     3
 72
     8
 73
     4
 74
     0
 42
0.000000001
 43
0.0000000001
 40
0.0
 40
0.0
 40
0.0
 40
0.0
 40
1.0
 40
1.0
 40
1.0
 40
1.0
 10
59.25679247965124
 20
-11.74061806340309
 30
0.0
 10
59.24784528934312
 20
-11.78201197620709
 30
0.0
 10
59.25323333997852
 20
-11.81466922082949
 30
0.0
 10
59.2748973823905
 20
-11.85099744500405
 30
0.0
  0
LINE
  5
185
330
70
100
AcDbEntity
  8
0
370
     9
100
AcDbLine
 10
59.14618941829179
 20
-21.46402976052516
 30
0.0
 11
60.62298238788084
 21
-23.23616553487116
 31
0.0
  0
LINE
  5
186
330
70
100
AcDbEntity
  8
0
370
     9
100
AcDbLine
 10
15.14425451895571
 20
-23.23619185013637
 30
0.0
 11
16.62104748854316
 21
-21.46406265460667
 31
0.0
  0
LINE
  5
187
330
70
100
AcDbEntity
  8
0
370
     9
100
AcDbLine
 10
59.14618941829179
 20
-21.46402976052516
 30
0.0
 11
59.14618941829179
 21
-21.15856215732307
 31
0.0
  0
LINE
  5
188
330
70
100
AcDbEntity
  8
0
370
     9
100
AcDbLine
 10
16.62103762031887
 20
-21.46402976052516
 30
0.0
 11
59.14615652420931
 21
-21.46402976052516
 31
0.0
  0
LINE
  5
189
330
70
100
AcDbEntity
  8
0
370
     9
100
AcDbLine
 10
16.62103762031887
 20
-21.15852926324155
 30
0.0
 11
16.62103762031887
 21
-21.4640034452593
 31
0.0
  0
LINE
  5
18A
330
70
100
AcDbEntity
  8
0
370
     9
100
AcDbLine
 10
16.62103762031887
 20
-21.15852926324155
 30
0.0
 11
59.14615652420931
 21
-21.15852926324155
 31
0.0
  0
LINE
  5
18B
330
70
100
AcDbEntity
  8
0
370
     9
100
AcDbLine
 10
59.42410493840033
 20
-20.42519517766879
 30
0.0
 11
59.14622889119153
 21
-21.15858189377262
 31
0.0
  0
LINE
  5
18C
330
70
100
AcDbEntity
  8
0
370
     9
100
AcDbLine
 10
16.62103762031887
 20
-21.15852926324155
 30
0.0
 11
16.34316157310943
 21
-20.42514912595466
 31
0.0
  0
LINE
  5
18D
330
70
100
AcDbEntity
  8
0
370
     9
100
AcDbLine
 10
16.34313032373142
 20
-18.74476810397432
 30
0.0
 11
59.42410493840033
 21
-18.74476810397432
 31
0.0
  0
LINE
  5
18E
330
70
100
AcDbEntity
  8
0
370
     9
100
AcDbLine
 10
59.42410493840033
 20
-20.42519517766879
 30
0.0
 11
59.42410493840033
 21
-18.7447944192405
 31
0.0
  0
LINE
  5
18F
330
70
100
AcDbEntity
  8
0
370
     9
100
AcDbLine
 10
16.34313032373142
 20
-20.42519517766879
 30
0.0
 11
59.42410493840033
 21
-20.42519517766879
 31
0.0
  0
LINE
  5
190
330
70
100
AcDbEntity
  8
0
370
     9
100
AcDbLine
 10
16.34313032373142
 20
-18.74476810397432
 30
0.0
 11
16.34313032373142
 21
-20.42517544121988
 31
0.0
  0
LINE
  5
191
330
70
100
AcDbEntity
  8
0
370
     9
100
AcDbLine
 10
65.10419581098547
 20
-23.23619185013637
 30
0.0
 11
10.66307892404506
 21
-23.23619185013637
 31
0.0
  0
LINE
  5
192
330
70
100
AcDbEntity
  8
0
370
     9
100
AcDbLine
 10
65.10419581098547
 20
-24.00003848618308
 30
0.0
 11
65.10419581098547
 21
-23.23615237723759
 31
0.0
  0
LINE
  5
193
330
70
100
AcDbEntity
  8
0
370
     9
100
AcDbLine
 10
10.66303945114628
 20
-24.00003848618308
 30
0.0
 11
65.10415633808573
 21
-24.00003848618308
 31
0.0
  0
LINE
  5
194
330
70
100
AcDbEntity
  8
0
370
     9
100
AcDbLine
 10
10.66303945114628
 20
-23.23619185013637
 30
0.0
 11
10.66303945114628
 21
-24.00008453789818
 31
0.0
  0
LINE
  5
195
330
70
100
AcDbEntity
  8
0
370
     9
100
AcDbLine
 10
12.49198494983191
 20
-18.55756788324098
 30
0.0
 11
16.49229511743383
 21
-11.85104349671914
 31
0.0
  0
LINE
  5
196
330
70
100
AcDbEntity
  8
0
370
     9
100
AcDbLine
 10
16.75468298612765
 20
-12.00754696011849
 30
0.0
 11
12.75437117382189
 21
-18.71407792545663
 31
0.0
  0
SPLINE
  5
197
330
70
100
AcDbEntity
  8
0
370
     9
100
AcDbSpline
210
0.0
220
0.0
230
1.0
 70
     8
 71
     3
 72
     8
 73
     4
 74
     0
 42
0.000000001
 43
0.0000000001
 40
0.0
 40
0.0
 40
0.0
 40
0.0
 40
1.0
 40
1.0
 40
1.0
 40
1.0
 10
16.75669939335481
 20
-11.55058237279943
 30
0.0
 10
16.71886462022419
 20
-11.58453564425361
 30
0.0
 10
16.68027657261507
 20
-11.6174165686326
 30
0.0
 10
16.64039578758312
 20
-11.64877778642388
 30
0.0
  0
SPLINE
  5
198
330
70
100
AcDbEntity
  8
0
370
     9
100
AcDbSpline
210
0.0
220
0.0
230
1.0
 70
     8
 71
     3
 72
     8
 73
     4
 74
     0
 42
0.000000001
 43
0.0000000001
 40
0.0
 40
0.0
 40
0.0
 40
0.0
 40
1.0
 40
1.0
 40
1.0
 40
1.0
 10
16.51043784836804
 20
-11.74061806340309
 30
0.0
 10
16.51927484350059
 20
-11.78201197620709
 30
0.0
 10
16.51399369863343
 20
-11.81466922082949
 30
0.0
 10
16.49232801151599
 20
-11.85099744500405
 30
0.0
  0
SPLINE
  5
199
330
70
100
AcDbEntity
  8
0
370
     9
100
AcDbSpline
210
0.0
220
0.0
230
1.0
 70
     8
 71
     3
 72
     8
 73
     4
 74
     0
 42
0.000000001
 43
0.0000000001
 40
0.0
 40
0.0
 40
0.0
 40
0.0
 40
1.0
 40
1.0
 40
1.0
 40
1.0
 10
16.51105132299745
 20
-11.74017070388705
 30
0.0
 10
16.55545833371453
 20
-11.71161206188456
 30
0.0
 10
16.60019099584331
 20
-11.6833692030682
 30
0.0
 10
16.64039578758312
 20
-11.64877120760693
 30
0.0
  0
SPLINE
  5
19A
330
70
100
AcDbEntity
  8
0
370
     9
100
AcDbSpline
210
0.0
220
0.0
230
1.0
 70
     8
 71
     3
 72
     8
 73
     4
 74
     0
 42
0.000000001
 43
0.0000000001
 40
0.0
 40
0.0
 40
0.0
 40
0.0
 40
1.0
 40
1.0
 40
1.0
 40
1.0
 10
16.48873926716813
 20
-10.26860131452322
 30
0.0
 10
16.40283143788011
 20
-10.21729970421629
 30
0.0
 10
16.31681834752962
 20
-10.16609677615552
 30
0.0
 10
16.23091051824161
 20
-10.11479516584891
 30
0.0
  0
SPLINE
  5
19B
330
70
100
AcDbEntity
  8
0
370
     9
100
AcDbSpline
210
0.0
220
0.0
230
1.0
 70
     8
 71
     3
 72
     8
 73
     4
 74
     0
 42
0.000000001
 43
0.0000000001
 40
0.0
 40
0.0
 40
0.0
 40
0.0
 40
1.0
 40
1.0
 40
1.0
 40
1.0
 10
16.49250235015045
 20
-10.27086442736579
 30
0.0
 10
16.23564397664304
 20
-10.70115191417256
 30
0.0
 10
16.35216303865214
 20
-11.25658164658806
 30
0.0
 10
16.76013682492512
 20
-11.54750348672298
 30
0.0
  0
LINE
  5
19C
330
70
100
AcDbEntity
  8
0
370
     9
100
AcDbLine
 10
7.458112298369205
 20
-27.29515052126199
 30
0.0
 11
7.43191956321456
 21
-27.27952583230686
 31
0.0
  0
LINE
  5
19D
330
70
100
AcDbEntity
  8
0
370
     9
100
AcDbLine
 10
12.59696970198341
 20
-18.62017190012749
 30
0.0
 11
12.62316161478566
 21
-18.63580316789989
 31
0.0
  0
LINE
  5
19E
330
70
100
AcDbEntity
  8
0
370
     9
100
AcDbLine
 10
12.25583504565542
 20
-18.41667595116479
 30
0.0
 11
12.59698121491219
 21
-18.6201784789438
 31
0.0
  0
LINE
  5
19F
330
70
100
AcDbEntity
  8
0
370
     9
100
AcDbLine
 10
12.96432094167567
 20
-18.83926622278012
 30
0.0
 11
12.62317312771443
 21
-18.63577027381773
 31
0.0
  0
SPLINE
  5
1A0
330
70
100
AcDbEntity
  8
0
370
     9
100
AcDbSpline
210
0.0
220
0.0
230
1.0
 70
     8
 71
     3
 72
     8
 73
     4
 74
     0
 42
0.000000001
 43
0.0000000001
 40
0.0
 40
0.0
 40
0.0
 40
0.0
 40
1.0
 40
1.0
 40
1.0
 40
1.0
 10
7.43186611033141
 20
-27.27951267467361
 30
0.0
 10
7.243453742675692
 20
-27.16709385998731
 30
0.0
 10
7.181798720055534
 20
-26.92327634529388
 30
0.0
 10
7.294221646501583
 20
-26.73497746222141
 30
0.0
  0
LINE
  5
1A1
330
70
100
AcDbEntity
  8
0
370
     9
100
AcDbLine
 10
7.294221646501583
 20
-26.73491825287371
 30
0.0
 11
12.25588767618682
 21
-18.41664963589893
 31
0.0
  0
SPLINE
  5
1A2
330
70
100
AcDbEntity
  8
0
370
     9
100
AcDbSpline
210
0.0
220
0.0
230
1.0
 70
     8
 71
     3
 72
     8
 73
     4
 74
     0
 42
0.000000001
 43
0.0000000001
 40
0.0
 40
0.0
 40
0.0
 40
0.0
 40
1.0
 40
1.0
 40
1.0
 40
1.0
 10
8.002740436603669
 20
-27.15750852448904
 30
0.0
 10
7.890316687805222
 20
-27.34592582625626
 30
0.0
 10
7.646502462519777
 20
-27.40757591476556
 30
0.0
 10
7.458090917216138
 20
-27.29515710007861
 30
0.0
  0
LINE
  5
1A3
330
70
100
AcDbEntity
  8
0
370
     9
100
AcDbLine
 10
8.002740436603669
 20
-27.15750852448904
 30
0.0
 11
12.96429791581813
 21
-18.8392399075149
 31
0.0
  0
SPLINE
  5
1A4
330
70
100
AcDbEntity
  8
0
370
     9
100
AcDbSpline
210
0.0
220
0.0
230
1.0
 70
     8
 71
     3
 72
     8
 73
     4
 74
     0
 42
0.000000001
 43
0.0000000001
 40
0.0
 40
0.0
 40
0.0
 40
0.0
 40
1.0
 40
1.0
 40
1.0
 40
1.0
 10
7.43186611033141
 20
-27.27951267467361
 30
0.0
 10
7.484034479699139
 20
-27.19209994113305
 30
0.0
 10
7.536203671419268
 20
-27.10457536771435
 30
0.0
 10
7.588372040786677
 20
-27.01716263417442
 30
0.0
  0
LINE
  5
1A5
330
70
100
AcDbEntity
  8
0
370
     9
100
AcDbLine
 10
7.614641254682018
 20
-27.03275442904836
 30
0.0
 11
7.588447697175616
 21
-27.01712974009194
 31
0.0
  0
SPLINE
  5
1A6
330
70
100
AcDbEntity
  8
0
370
     9
100
AcDbSpline
210
0.0
220
0.0
230
1.0
 70
     8
 71
     3
 72
     8
 73
     4
 74
     0
 42
0.000000001
 43
0.0000000001
 40
0.0
 40
0.0
 40
0.0
 40
0.0
 40
1.0
 40
1.0
 40
1.0
 40
1.0
 10
7.458112298369205
 20
-27.29515052126199
 30
0.0
 10
7.510280667736935
 20
-27.20763252665928
 30
0.0
 10
7.562449859457064
 20
-27.12021321430337
 30
0.0
 10
7.614618228824794
 20
-27.03280048076344
 30
0.0
  0
LINE
  5
1A8
330
70
100
AcDbEntity
  8
0
370
     9
100
AcDbLine
 10
12.62321589002121
 20
-18.6358097467162
 30
0.0
 11
7.614660991131572
 21
-27.03276758668096
 31
0.0
  0
LINE
  5
1A9
330
70
100
AcDbEntity
  8
0
370
     9
100
AcDbLine
 10
12.59696970198341
 20
-18.62017190012749
 30
0.0
 11
7.588414803093455
 21
-27.01712974009194
 31
0.0
  0
SPLINE
  5
1AB
330
70
100
AcDbEntity
  8
0
370
     9
100
AcDbSpline
210
0.0
220
0.0
230
1.0
 70
     8
 71
     3
 72
     8
 73
     4
 74
     0
 42
0.000000001
 43
0.0000000001
 40
0.0
 40
0.0
 40
0.0
 40
0.0
 40
1.0
 40
1.0
 40
1.0
 40
1.0
 10
16.23023290015203
 20
-10.11436754278242
 30
0.0
 10
16.93634713285829
 20
-8.931726612184538
 30
0.0
 10
18.75633557301214
 20
-9.56573372771157
 30
0.0
 10
18.57482273905842
 20
-10.9311802296863
 30
0.0
  0
SPLINE
  5
1AC
330
70
100
AcDbEntity
  8
0
370
     9
100
AcDbSpline
210
0.0
220
0.0
230
1.0
 70
     8
 71
     3
 72
     8
 73
     4
 74
     0
 42
0.000000001
 43
0.0000000001
 40
0.0
 40
0.0
 40
0.0
 40
0.0
 40
1.0
 40
1.0
 40
1.0
 40
1.0
 10
17.16612874275758
 20
-12.02166510011852
 30
0.0
 10
17.03516588933675
 20
-12.00517858621346
 30
0.0
 10
16.91368968916836
 20
-11.97090295275686
 30
0.0
 10
16.79350787112726
 20
-11.91646982584208
 30
0.0
  0
SPLINE
  5
1AD
330
70
100
AcDbEntity
  8
0
370
     9
100
AcDbSpline
210
0.0
220
0.0
230
1.0
 70
     8
 71
     3
 72
     8
 73
     4
 74
     0
 42
0.000000001
 43
0.0000000001
 40
0.0
 40
0.0
 40
0.0
 40
0.0
 40
1.0
 40
1.0
 40
1.0
 40
1.0
 10
16.76617288897463
 20
-11.55146393419732
 30
0.0
 10
16.89443842767041
 20
-11.64028453444842
 30
0.0
 10
17.0258321935654
 20
-11.69234270864154
 30
0.0
 10
17.1800758335305
 20
-11.71541461776471
 30
0.0
  0
SPLINE
  5
1AE
330
70
100
AcDbEntity
  8
0
370
     9
100
AcDbSpline
210
0.0
220
0.0
230
1.0
 70
     8
 71
     3
 72
     8
 73
     4
 74
     0
 42
0.000000001
 43
0.0000000001
 40
0.0
 40
0.0
 40
0.0
 40
0.0
 40
1.0
 40
1.0
 40
1.0
 40
1.0
 10
18.23459266998618
 20
-10.47147885474437
 30
0.0
 10
17.98528019889233
 20
-9.686356326451777
 30
0.0
 10
16.92853314367656
 20
-9.5580891430512
 30
0.0
 10
16.49867656934396
 20
-10.26064752549271
 30
0.0
  0
SPLINE
  5
1AF
330
70
100
AcDbEntity
  8
0
370
     9
100
AcDbSpline
210
0.0
220
0.0
230
1.0
 70
     8
 71
     3
 72
     8
 73
     4
 74
     0
 42
0.000000001
 43
0.0000000001
 40
0.0
 40
0.0
 40
0.0
 40
0.0
 40
1.0
 40
1.0
 40
1.0
 40
1.0
 10
16.23007171915018
 20
-10.11430175461873
 30
0.0
 10
15.91123596101858
 20
-10.64892926956961
 30
0.0
 10
16.02764647255658
 20
-11.33596822411717
 30
0.0
 10
16.50503664010132
 20
-11.73564447820287
 30
0.0
  0
LINE
  5
1B0
330
70
100
AcDbEntity
  8
0
370
     9
100
AcDbLine
 10
16.49228524920921
 20
-11.85101718145296
 30
0.0
 11
16.75075872214379
 21
-12.00515884976455
 31
0.0
  0
SPLINE
  5
1B1
330
70
100
AcDbEntity
  8
0
370
     9
100
AcDbSpline
210
0.0
220
0.0
230
1.0
 70
     8
 71
     3
 72
     8
 73
     4
 74
     0
 42
0.000000001
 43
0.0000000001
 40
0.0
 40
0.0
 40
0.0
 40
0.0
 40
1.0
 40
1.0
 40
1.0
 40
1.0
 10
16.75908092489245
 20
-11.55489149754365
 30
0.0
 10
16.84897551692098
 20
-11.71905270323534
 30
0.0
 10
16.84660385360764
 20
-11.84451731084744
 30
0.0
 10
16.75078010329686
 20
-12.00523121674485
 30
0.0
  0
LINE
  5
1B2
330
70
100
AcDbEntity
  8
0
370
     9
100
AcDbLine
 10
16.82612564285087
 20
-11.58956843880153
 30
0.0
 11
17.08395274707356
 21
-11.15734677997187
 31
0.0
  0
SPLINE
  5
1B4
330
70
100
AcDbEntity
  8
0
370
     9
100
AcDbSpline
210
0.0
220
0.0
230
1.0
 70
     8
 71
     3
 72
     8
 73
     4
 74
     0
 42
0.000000001
 43
0.0000000001
 40
0.0
 40
0.0
 40
0.0
 40
0.0
 40
1.0
 40
1.0
 40
1.0
 40
1.0
 10
58.58711502159096
 20
-11.71550672119489
 30
0.0
 10
58.66223852609031
 20
-11.70483588098915
 30
0.0
 10
58.73359236879134
 20
-11.68586915330092
 30
0.0
 10
58.80408438654469
 20
-11.65794865648858
 30
0.0
  0
SPLINE
  5
1B7
330
70
100
AcDbEntity
  8
0
370
     9
100
AcDbSpline
210
0.0
220
0.0
230
1.0
 70
     8
 71
     3
 72
     8
 73
     4
 74
     0
 42
0.000000001
 43
0.0000000001
 40
0.0
 40
0.0
 40
0.0
 40
0.0
 40
1.0
 40
1.0
 40
1.0
 40
1.0
 10
58.97420599989695
 20
-11.91741059658734
 30
0.0
 10
58.85391234197707
 20
-11.9722779253846
 30
0.0
 10
58.73243449710581
 20
-12.00612593577599
 30
0.0
 10
58.60104237591465
 20
-12.02164536366865
 30
0.0
  0
LINE
  5
1B8
330
70
100
AcDbEntity
  8
0
370
     9
100
AcDbLine
 10
58.6832315292316
 20
-11.15728757062449
 30
0.0
 11
63.14400456977281
 21
-18.63579001026632
 31
0.0
  0
LINE
  5
1B9
330
70
100
AcDbEntity
  8
0
370
     9
100
AcDbLine
 10
58.6832315292316
 20
-11.15728757062449
 30
0.0
 11
58.52672148701594
 21
-10.89482569024589
 31
0.0
  0
LINE
  5
1BA
330
70
100
AcDbEntity
  8
0
370
     9
100
AcDbLine
 10
58.6616661690632
 20
-11.17015573550784
 30
0.0
 11
58.68321837159706
 21
-11.15733362233926
 31
0.0
  0
LINE
  5
1BB
330
70
100
AcDbEntity
  8
0
370
     9
100
AcDbLine
 10
58.6616661690632
 20
-11.17015573550784
 30
0.0
 11
58.50407720095701
 21
-10.90597020523162
 31
0.0
  0
LINE
  5
1BC
330
70
100
AcDbEntity
  8
0
370
     9
100
AcDbLine
 10
58.70481004703131
 20
-11.14442598455713
 30
0.0
 11
58.80946585836281
 21
-11.08201933216293
 31
0.0
  0
LINE
  5
1BD
330
70
100
AcDbEntity
  8
0
370
     9
100
AcDbLine
 10
58.6832315292316
 20
-11.15728757062449
 30
0.0
 11
58.70478373176609
 21
-11.14446545745591
 31
0.0
  0
LINE
  5
1BE
330
70
100
AcDbEntity
  8
0
370
     9
100
AcDbLine
 10
58.70481004703131
 20
-11.14442598455713
 30
0.0
 11
58.54722107892513
 21
-10.88024045428186
 31
0.0
  0
LINE
  5
1BF
330
70
100
AcDbEntity
  8
0
370
     9
100
AcDbLine
 10
63.17025404721957
 20
-18.62017190012749
 30
0.0
 11
68.17880565670185
 21
-27.01712974009194
 31
0.0
  0
SPLINE
  5
1C0
330
70
100
AcDbEntity
  8
0
370
     9
100
AcDbSpline
210
0.0
220
0.0
230
1.0
 70
     8
 71
     3
 72
     8
 73
     4
 74
     0
 42
0.000000001
 43
0.0000000001
 40
0.0
 40
0.0
 40
0.0
 40
0.0
 40
1.0
 40
1.0
 40
1.0
 40
1.0
 10
68.17879907788459
 20
-27.01711658245933
 30
0.0
 10
68.23096251314114
 20
-27.10453589481588
 30
0.0
 10
68.28313252721303
 20
-27.19206046823458
 30
0.0
 10
68.3353025412849
 20
-27.27947320177579
 30
0.0
  0
LINE
  5
1C2
330
70
100
AcDbEntity
  8
0
370
     9
100
AcDbLine
 10
68.17879907788459
 20
-27.01711658245933
 30
0.0
 11
68.15260223096956
 21
-27.03274785023173
 31
0.0
  0
SPLINE
  5
1C3
330
70
100
AcDbEntity
  8
0
370
     9
100
AcDbSpline
210
0.0
220
0.0
230
1.0
 70
     8
 71
     3
 72
     8
 73
     4
 74
     0
 42
0.000000001
 43
0.0000000001
 40
0.0
 40
0.0
 40
0.0
 40
0.0
 40
1.0
 40
1.0
 40
1.0
 40
1.0
 10
68.15258249452033
 20
-27.03275442904836
 30
0.0
 10
68.20474592977686
 20
-27.12027900246705
 30
0.0
 10
68.25691594384875
 20
-27.2076983148236
 30
0.0
 10
68.30908595792064
 20
-27.29511104836417
 30
0.0
  0
LINE
  5
1C5
330
70
100
AcDbEntity
  8
0
370
     9
100
AcDbLine
 10
63.14401114859009
 20
-18.6358097467162
 30
0.0
 11
68.14555631860184
 21
-27.02112966046506
 31
0.0
  0
LINE
  5
1C6
330
70
100
AcDbEntity
  8
0
370
     9
100
AcDbLine
 10
43.47687635065722
 20
-12.90952242535235
 30
0.0
 11
42.34381338046961
 21
-12.90952242535235
 31
0.0
  0
LINE
  5
1C7
330
70
100
AcDbEntity
  8
0
370
     9
100
AcDbLine
 10
45.57965685857783
 20
-12.90952242535235
 30
0.0
 11
44.74214721527307
 21
-12.90952242535235
 31
0.0
  0
LINE
  5
1C8
330
70
100
AcDbEntity
  8
0
370
     9
100
AcDbLine
 10
48.36644348668433
 20
-12.90952242535235
 30
0.0
 11
46.99366160441935
 21
-12.90952242535235
 31
0.0
  0
LINE
  5
1C9
330
70
100
AcDbEntity
  8
0
370
     9
100
AcDbLine
 10
50.35544336492223
 20
-12.90952242535235
 30
0.0
 11
49.91437319803221
 21
-12.90952242535235
 31
0.0
  0
LINE
  5
1CA
330
70
100
AcDbEntity
  8
0
370
     9
100
AcDbLine
 10
52.23829404050614
 20
-12.90952242535235
 30
0.0
 11
51.96957570572847
 21
-12.90952242535235
 31
0.0
  0
LINE
  5
1CB
330
70
100
AcDbEntity
  8
0
370
     9
100
AcDbLine
 10
54.015607343361
 20
-12.90952242535235
 30
0.0
 11
53.87871533165697
 21
-12.90952242535235
 31
0.0
  0
LINE
  5
1CC
330
70
100
AcDbEntity
  8
0
370
     9
100
AcDbLine
 10
40.99125806923416
 20
-12.90952242535235
 30
0.0
 11
38.39207296966229
 21
-12.90952242535235
 31
0.0
  0
LINE
  5
1CD
330
70
100
AcDbEntity
  8
0
370
     9
100
AcDbLine
 10
34.41296468262276
 20
-11.83671483459417
 30
0.0
 11
33.50841032135829
 21
-11.83671483459417
 31
0.0
  0
LINE
  5
1CE
330
70
100
AcDbEntity
  8
0
370
     9
100
AcDbLine
 10
31.88292623284938
 20
-11.83671483459417
 30
0.0
 11
31.11461586987354
 21
-11.83671483459417
 31
0.0
  0
LINE
  5
1CF
330
70
100
AcDbEntity
  8
0
370
     9
100
AcDbLine
 10
29.69104881439
 20
-11.83671483459417
 30
0.0
 11
28.86852242544127
 21
-11.83671483459417
 31
0.0
  0
LINE
  5
1D0
330
70
100
AcDbEntity
  8
0
370
     9
100
AcDbLine
 10
26.71137457877053
 20
-11.83671483459417
 30
0.0
 11
25.96246514536572
 21
-11.83671483459417
 31
0.0
  0
LINE
  5
1D1
330
70
100
AcDbEntity
  8
0
370
     9
100
AcDbLine
 10
24.5885813113546
 20
-11.83671483459417
 30
0.0
 11
23.91630851022247
 21
-11.83671483459417
 31
0.0
  0
LINE
  5
1D2
330
70
100
AcDbEntity
  8
0
370
     9
100
AcDbLine
 10
22.59554861866142
 20
-11.83671483459417
 30
0.0
 11
22.01295495332041
 21
-11.83671483459417
 31
0.0
  0
LINE
  5
1D3
330
70
100
AcDbEntity
  8
0
370
     9
100
AcDbLine
 10
20.66750311909624
 20
-11.83671483459417
 30
0.0
 11
20.20681985580611
 21
-11.83671483459417
 31
0.0
  0
LINE
  5
1D4
330
70
100
AcDbEntity
  8
0
370
     9
100
AcDbLine
 10
19.43453588772301
 20
-11.83671483459417
 30
0.0
 11
19.07883737658406
 21
-11.83671483459417
 31
0.0
  0
LINE
  5
1D5
330
70
100
AcDbEntity
  8
0
370
     9
100
AcDbLine
 10
56.68836992557801
 20
-11.83671483459417
 30
0.0
 11
56.33266648032755
 21
-11.83671483459417
 31
0.0
  0
LINE
  5
1D6
330
70
100
AcDbEntity
  8
0
370
     9
100
AcDbLine
 10
55.56041869573396
 20
-11.83671483459417
 30
0.0
 11
55.09973049833168
 21
-11.83671483459417
 31
0.0
  0
LINE
  5
1D7
330
70
100
AcDbEntity
  8
0
370
     9
100
AcDbLine
 10
53.75425728295412
 20
-11.83671483459417
 30
0.0
 11
53.17166361761343
 21
-11.83671483459417
 31
0.0
  0
LINE
  5
1D8
330
70
100
AcDbEntity
  8
0
370
     9
100
AcDbLine
 10
51.85095964599081
 20
-11.83671483459417
 30
0.0
 11
51.17857829438822
 21
-11.83671483459417
 31
0.0
  0
LINE
  5
1D9
330
70
100
AcDbEntity
  8
0
370
     9
100
AcDbLine
 10
49.80477011676508
 20
-11.83671483459417
 30
0.0
 11
49.05585739395291
 21
-11.83671483459417
 31
0.0
  0
LINE
  5
1DA
330
70
100
AcDbEntity
  8
0
370
     9
100
AcDbLine
 10
46.89866020616005
 20
-11.83671483459417
 30
0.0
 11
46.07613381721004
 21
-11.83671483459417
 31
0.0
  0
LINE
  5
1DB
330
70
100
AcDbEntity
  8
0
370
     9
100
AcDbLine
 10
44.65252399942037
 20
-11.83671483459417
 30
0.0
 11
43.88432218691434
 21
-11.83671483459417
 31
0.0
  0
LINE
  5
1DC
330
70
100
AcDbEntity
  8
0
370
     9
100
AcDbLine
 10
42.25878217846701
 20
-11.83671483459417
 30
0.0
 11
41.35422781720222
 21
-11.83671483459417
 31
0.0
  0
LINE
  5
1DD
330
70
100
AcDbEntity
  8
0
370
     9
100
AcDbLine
 10
38.33584053646256
 20
-11.83671483459417
 30
0.0
 11
37.43139472566888
 21
-11.83671483459417
 31
0.0
  0
LINE
  5
1DE
330
70
100
AcDbEntity
  8
0
370
     9
100
AcDbLine
 10
37.3751655818765
 20
-12.90952242535235
 30
0.0
 11
34.77598048230526
 21
-12.90952242535235
 31
0.0
  0
LINE
  5
1DF
330
70
100
AcDbEntity
  8
0
370
     9
100
AcDbLine
 10
21.88889492300958
 20
-12.90952242535235
 30
0.0
 11
21.7515719988317
 21
-12.90952242535235
 31
0.0
  0
LINE
  5
1E0
330
70
100
AcDbEntity
  8
0
370
     9
100
AcDbLine
 10
23.79763653054542
 20
-12.90952242535235
 30
0.0
 11
23.5289214851767
 21
-12.90952242535235
 31
0.0
  0
LINE
  5
1E1
330
70
100
AcDbEntity
  8
0
370
     9
100
AcDbLine
 10
25.85280614416048
 20
-12.90952242535235
 30
0.0
 11
25.41173926667845
 21
-12.90952242535235
 31
0.0
  0
LINE
  5
1E2
330
70
100
AcDbEntity
  8
0
370
     9
100
AcDbLine
 10
28.7736065517936
 20
-12.90952242535235
 30
0.0
 11
27.40071611905913
 21
-12.90952242535235
 31
0.0
  0
LINE
  5
1E3
330
70
100
AcDbEntity
  8
0
370
     9
100
AcDbLine
 10
31.02509133626764
 20
-12.90952242535235
 30
0.0
 11
30.18758169296192
 21
-12.90952242535235
 31
0.0
  0
LINE
  5
1E4
330
70
100
AcDbEntity
  8
0
370
     9
100
AcDbLine
 10
33.42345477574463
 20
-12.90952242535235
 30
0.0
 11
32.29039180555574
 21
-12.90952242535235
 31
0.0
  0
SPLINE
  5
22A
330
70
100
AcDbEntity
  8
0
370
     9
100
AcDbSpline
210
0.0
220
0.0
230
1.0
 70
     8
 71
     3
 72
     8
 73
     4
 74
     0
 42
0.000000001
 43
0.0000000001
 40
0.0
 40
0.0
 40
0.0
 40
0.0
 40
1.0
 40
1.0
 40
1.0
 40
1.0
 10
35.73244170498496
 20
-17.81565502107985
 30
0.0
 10
31.05123555265161
 20
-17.83300993874987
 30
0.0
 10
26.36992413925546
 20
-17.8471346575662
 30
0.0
 10
21.68872127633009
 20
-17.87310782472338
 30
0.0
  0
SPLINE
  5
22B
330
70
100
AcDbEntity
  8
0
370
     9
100
AcDbSpline
210
0.0
220
0.0
230
1.0
 70
     8
 71
     3
 72
     8
 73
     4
 74
     0
 42
0.000000001
 43
0.0000000001
 40
1.0
 40
1.0
 40
1.0
 40
1.0
 40
2.0
 40
2.0
 40
2.0
 40
2.0
 10
21.68872127633009
 20
-17.87310782472338
 30
0.0
 10
20.55803325886254
 20
-17.87935770030517
 30
0.0
 10
19.42734524139467
 20
-17.88636413977443
 30
0.0
 10
18.29665557922328
 20
-17.89682445785429
 30
0.0
  0
SPLINE
  5
22C
330
70
100
AcDbEntity
  8
0
370
     9
100
AcDbSpline
210
0.0
220
0.0
230
1.0
 70
     8
 71
     3
 72
     8
 73
     4
 74
     0
 42
0.000000001
 43
0.0000000001
 40
2.0
 40
2.0
 40
2.0
 40
2.0
 40
3.0
 40
3.0
 40
3.0
 40
3.0
 10
18.29665557922328
 20
-17.89682445785429
 30
0.0
 10
17.88684794787742
 20
-17.90059411965324
 30
0.0
 10
17.4770403165322
 20
-17.9047979833337
 30
0.0
 10
17.06755669189452
 20
-17.91988978816116
 30
0.0
  0
SPLINE
  5
22D
330
70
100
AcDbEntity
  8
0
370
     9
100
AcDbSpline
210
0.0
220
0.0
230
1.0
 70
     8
 71
     3
 72
     8
 73
     4
 74
     0
 42
0.000000001
 43
0.0000000001
 40
0.0
 40
0.0
 40
0.0
 40
0.0
 40
1.0
 40
1.0
 40
1.0
 40
1.0
 10
17.10369906450584
 20
-18.38340029780082
 30
0.0
 10
17.09475187419836
 20
-18.38393976074577
 30
0.0
 10
17.09356604254185
 20
-18.38211084978568
 30
0.0
 10
17.09453641796128
 20
-18.38092666283332
 30
0.0
  0
SPLINE
  5
22E
330
70
100
AcDbEntity
  8
0
370
     9
100
AcDbSpline
210
0.0
220
0.0
230
1.0
 70
     8
 71
     3
 72
     8
 73
     4
 74
     0
 42
0.000000001
 43
0.0000000001
 40
1.0
 40
1.0
 40
1.0
 40
1.0
 40
2.0
 40
2.0
 40
2.0
 40
2.0
 10
17.09453641796128
 20
-18.38092666283332
 30
0.0
 10
17.09615316209196
 20
-18.37866354999075
 30
0.0
 10
17.10466779522112
 20
-18.37812408704549
 30
0.0
 10
17.11286006634625
 20
-18.37768988516301
 30
0.0
  0
SPLINE
  5
22F
330
70
100
AcDbEntity
  8
0
370
     9
100
AcDbSpline
210
0.0
220
0.0
230
1.0
 70
     8
 71
     3
 72
     8
 73
     4
 74
     0
 42
0.000000001
 43
0.0000000001
 40
2.0
 40
2.0
 40
2.0
 40
2.0
 40
3.0
 40
3.0
 40
3.0
 40
3.0
 10
17.11286006634625
 20
-18.37768988516301
 30
0.0
 10
17.13840561043693
 20
-18.37607149632786
 30
0.0
 10
17.16039365955839
 20
-18.37510441031674
 30
0.0
 10
17.18259880962141
 20
-18.37424258536873
 30
0.0
  0
SPLINE
  5
230
330
70
100
AcDbEntity
  8
0
370
     9
100
AcDbSpline
210
0.0
220
0.0
230
1.0
 70
     8
 71
     3
 72
     8
 73
     4
 74
     0
 42
0.000000001
 43
0.0000000001
 40
3.0
 40
3.0
 40
3.0
 40
3.0
 40
4.0
 40
4.0
 40
4.0
 40
4.0
 10
17.18259880962141
 20
-18.37424258536873
 30
0.0
 10
17.25309082737443
 20
-18.37154527064368
 30
0.0
 10
17.32509268349119
 20
-18.36992688180853
 30
0.0
 10
17.39709453960859
 20
-18.36853217273091
 30
0.0
  0
SPLINE
  5
231
330
70
100
AcDbEntity
  8
0
370
     9
100
AcDbSpline
210
0.0
220
0.0
230
1.0
 70
     8
 71
     3
 72
     8
 73
     4
 74
     0
 42
0.000000001
 43
0.0000000001
 40
4.0
 40
4.0
 40
4.0
 40
4.0
 40
5.0
 40
5.0
 40
5.0
 40
5.0
 10
17.39709453960859
 20
-18.36853217273091
 30
0.0
 10
17.70288779422237
 20
-18.36238755821159
 30
0.0
 10
18.0081415858909
 20
-18.35904551947881
 30
0.0
 10
18.31339537755973
 20
-18.35602584274974
 30
0.0
  0
SPLINE
  5
232
330
70
100
AcDbEntity
  8
0
370
     9
100
AcDbSpline
210
0.0
220
0.0
230
1.0
 70
     8
 71
     3
 72
     8
 73
     4
 74
     0
 42
0.000000001
 43
0.0000000001
 40
5.0
 40
5.0
 40
5.0
 40
5.0
 40
6.0
 40
6.0
 40
6.0
 40
6.0
 10
18.31339537755973
 20
-18.35602584274974
 30
0.0
 10
19.49366628954874
 20
-18.34405897571382
 30
0.0
 10
20.67415430247931
 20
-18.33705253624456
 30
0.0
 10
21.85463902600189
 20
-18.3306973996003
 30
0.0
  0
SPLINE
  5
233
330
70
100
AcDbEntity
  8
0
370
     9
100
AcDbSpline
210
0.0
220
0.0
230
1.0
 70
     8
 71
     3
 72
     8
 73
     4
 74
     0
 42
0.000000001
 43
0.0000000001
 40
6.0
 40
6.0
 40
6.0
 40
6.0
 40
7.0
 40
7.0
 40
7.0
 40
7.0
 10
21.85463902600189
 20
-18.3306973996003
 30
0.0
 10
24.05048347075158
 20
-18.31883579362653
 30
0.0
 10
26.24632791550127
 20
-18.30946098025319
 30
0.0
 10
28.44216907084329
 20
-18.30073089088631
 30
0.0
  0
SPLINE
  5
234
330
70
100
AcDbEntity
  8
0
370
     9
100
AcDbSpline
210
0.0
220
0.0
230
1.0
 70
     8
 71
     3
 72
     8
 73
     4
 74
     0
 42
0.000000001
 43
0.0000000001
 40
7.0
 40
7.0
 40
7.0
 40
7.0
 40
8.0
 40
8.0
 40
8.0
 40
8.0
 10
28.44216907084329
 20
-18.30073089088631
 30
0.0
 10
36.34093288109485
 20
-18.26958019522093
 30
0.0
 10
44.23980524181749
 20
-18.24813325374825
 30
0.0
 10
52.13867102372256
 20
-18.21126556662875
 30
0.0
  0
SPLINE
  5
235
330
70
100
AcDbEntity
  8
0
370
     9
100
AcDbSpline
210
0.0
220
0.0
230
1.0
 70
     8
 71
     3
 72
     8
 73
     4
 74
     0
 42
0.000000001
 43
0.0000000001
 40
8.0
 40
8.0
 40
8.0
 40
8.0
 40
9.0
 40
9.0
 40
9.0
 40
9.0
 10
52.13867102372256
 20
-18.21126556662875
 30
0.0
 10
53.75289546795899
 20
-18.20371966421551
 30
0.0
 10
55.36722517325756
 20
-18.19552903779356
 30
0.0
 10
56.98155487855614
 20
-18.18162799873606
 30
0.0
  0
SPLINE
  5
236
330
70
100
AcDbEntity
  8
0
370
     9
100
AcDbSpline
210
0.0
220
0.0
230
1.0
 70
     8
 71
     3
 72
     8
 73
     4
 74
     0
 42
0.000000001
 43
0.0000000001
 40
9.0
 40
9.0
 40
9.0
 40
9.0
 40
10.0
 40
10.0
 40
10.0
 40
10.0
 10
56.98155487855614
 20
-18.18162799873606
 30
0.0
 10
57.38263242053543
 20
-18.17806885906204
 30
0.0
 10
57.78360470145258
 20
-18.17418735738432
 30
0.0
 10
58.18468224343188
 20
-18.16782564192247
 30
0.0
  0
SPLINE
  5
237
330
70
100
AcDbEntity
  8
0
370
     9
100
AcDbSpline
210
0.0
220
0.0
230
1.0
 70
     8
 71
     3
 72
     8
 73
     4
 74
     0
 42
0.000000001
 43
0.0000000001
 40
10.0
 40
10.0
 40
10.0
 40
10.0
 40
11.0
 40
11.0
 40
11.0
 40
11.0
 10
58.18468224343188
 20
-18.16782564192247
 30
0.0
 10
58.29548266928366
 20
-18.16599673096334
 30
0.0
 10
58.406184412888
 20
-18.16405598012448
 30
0.0
 10
58.51709667861792
 20
-18.16103630339573
 30
0.0
  0
SPLINE
  5
238
330
70
100
AcDbEntity
  8
0
370
     9
100
AcDbSpline
210
0.0
220
0.0
230
1.0
 70
     8
 71
     3
 72
     8
 73
     4
 74
     0
 42
0.000000001
 43
0.0000000001
 40
11.0
 40
11.0
 40
11.0
 40
11.0
 40
12.0
 40
12.0
 40
12.0
 40
12.0
 10
58.51709667861792
 20
-18.16103630339573
 30
0.0
 10
58.56689173996911
 20
-18.15963501550181
 30
0.0
 10
58.61679864119842
 20
-18.15812846654543
 30
0.0
 10
58.6666002813656
 20
-18.1541417038062
 30
0.0
  0
SPLINE
  5
239
330
70
100
AcDbEntity
  8
0
370
     9
100
AcDbSpline
210
0.0
220
0.0
230
1.0
 70
     8
 71
     3
 72
     8
 73
     4
 74
     0
 42
0.000000001
 43
0.0000000001
 40
0.0
 40
0.0
 40
0.0
 40
0.0
 40
1.0
 40
1.0
 40
1.0
 40
1.0
 10
36.2514938721025
 20
-18.73049865119705
 30
0.0
 10
41.9633571385045
 20
-18.70948591160782
 30
0.0
 10
47.67533224478238
 20
-18.69309807994891
 30
0.0
 10
53.38719880059237
 20
-18.66313157123589
 30
0.0
  0
SPLINE
  5
23A
330
70
100
AcDbEntity
  8
0
370
     9
100
AcDbSpline
210
0.0
220
0.0
230
1.0
 70
     8
 71
     3
 72
     8
 73
     4
 74
     0
 42
0.000000001
 43
0.0000000001
 40
1.0
 40
1.0
 40
1.0
 40
1.0
 40
2.0
 40
2.0
 40
2.0
 40
2.0
 10
53.38719880059237
 20
-18.66313157123589
 30
0.0
 10
54.68700187250387
 20
-18.65645407258696
 30
0.0
 10
55.98681152323074
 20
-18.64890817017371
 30
0.0
 10
57.28672643501973
 20
-18.63758602714521
 30
0.0
  0
SPLINE
  5
23B
330
70
100
AcDbEntity
  8
0
370
     9
100
AcDbSpline
210
0.0
220
0.0
230
1.0
 70
     8
 71
     3
 72
     8
 73
     4
 74
     0
 42
0.000000001
 43
0.0000000001
 40
2.0
 40
2.0
 40
2.0
 40
2.0
 40
3.0
 40
3.0
 40
3.0
 40
3.0
 10
57.28672643501973
 20
-18.63758602714521
 30
0.0
 10
57.74471731769697
 20
-18.63359926440502
 30
0.0
 10
58.20281346143827
 20
-18.62918487859834
 30
0.0
 10
58.66047540329518
 20
-18.61301414788164
 30
0.0
  0
SPLINE
  5
23C
330
70
100
AcDbEntity
  8
0
370
     9
100
AcDbSpline
210
0.0
220
0.0
230
1.0
 70
     8
 71
     3
 72
     8
 73
     4
 74
     0
 42
0.000000001
 43
0.0000000001
 40
0.0
 40
0.0
 40
0.0
 40
0.0
 40
1.0
 40
1.0
 40
1.0
 40
1.0
 10
17.10373031388353
 20
-18.26369215454066
 30
0.0
 10
17.09478312357636
 20
-18.26423161748561
 30
0.0
 10
17.09359729191953
 20
-18.26240270652552
 30
0.0
 10
17.09456766733896
 20
-18.26121851957284
 30
0.0
  0
SPLINE
  5
23D
330
70
100
AcDbEntity
  8
0
370
     9
100
AcDbSpline
210
0.0
220
0.0
230
1.0
 70
     8
 71
     3
 72
     8
 73
     4
 74
     0
 42
0.000000001
 43
0.0000000001
 40
1.0
 40
1.0
 40
1.0
 40
1.0
 40
2.0
 40
2.0
 40
2.0
 40
2.0
 10
17.09456766733896
 20
-18.26121851957284
 30
0.0
 10
17.09618441147028
 20
-18.25895540673027
 30
0.0
 10
17.10469904459912
 20
-18.25841594378532
 30
0.0
 10
17.11289131572426
 20
-18.25798174190285
 30
0.0
  0
SPLINE
  5
23E
330
70
100
AcDbEntity
  8
0
370
     9
100
AcDbSpline
210
0.0
220
0.0
230
1.0
 70
     8
 71
     3
 72
     8
 73
     4
 74
     0
 42
0.000000001
 43
0.0000000001
 40
2.0
 40
2.0
 40
2.0
 40
2.0
 40
3.0
 40
3.0
 40
3.0
 40
3.0
 10
17.11289131572426
 20
-18.25798174190285
 30
0.0
 10
17.13832995404895
 20
-18.25647519294743
 30
0.0
 10
17.16042490893639
 20
-18.25550152811968
 30
0.0
 10
17.18263005899909
 20
-18.25463970317103
 30
0.0
  0
SPLINE
  5
23F
330
70
100
AcDbEntity
  8
0
370
     9
100
AcDbSpline
210
0.0
220
0.0
230
1.0
 70
     8
 71
     3
 72
     8
 73
     4
 74
     0
 42
0.000000001
 43
0.0000000001
 40
3.0
 40
3.0
 40
3.0
 40
3.0
 40
4.0
 40
4.0
 40
4.0
 40
4.0
 10
17.18263005899909
 20
-18.25463970317103
 30
0.0
 10
17.25301517098549
 20
-18.2518371273832
 30
0.0
 10
17.32512393286919
 20
-18.25033057842714
 30
0.0
 10
17.39712578898659
 20
-18.24882402947075
 30
0.0
  0
SPLINE
  5
240
330
70
100
AcDbEntity
  8
0
370
     9
100
AcDbSpline
210
0.0
220
0.0
230
1.0
 70
     8
 71
     3
 72
     8
 73
     4
 74
     0
 42
0.000000001
 43
0.0000000001
 40
4.0
 40
4.0
 40
4.0
 40
4.0
 40
5.0
 40
5.0
 40
5.0
 40
5.0
 10
17.39712578898659
 20
-18.24882402947075
 30
0.0
 10
17.70291904360038
 20
-18.2426794149511
 30
0.0
 10
18.00817283526858
 20
-18.23933737621864
 30
0.0
 10
18.31342662693742
 20
-18.23631769948957
 30
0.0
  0
SPLINE
  5
241
330
70
100
AcDbEntity
  8
0
370
     9
100
AcDbSpline
210
0.0
220
0.0
230
1.0
 70
     8
 71
     3
 72
     8
 73
     4
 74
     0
 42
0.000000001
 43
0.0000000001
 40
5.0
 40
5.0
 40
5.0
 40
5.0
 40
6.0
 40
6.0
 40
6.0
 40
6.0
 10
18.31342662693742
 20
-18.23631769948957
 30
0.0
 10
19.49369753892675
 20
-18.22446267233243
 30
0.0
 10
20.67418555185732
 20
-18.2173443929844
 30
0.0
 10
21.85467192008373
 20
-18.21098925633981
 30
0.0
  0
SPLINE
  5
242
330
70
100
AcDbEntity
  8
0
370
     9
100
AcDbSpline
210
0.0
220
0.0
230
1.0
 70
     8
 71
     3
 72
     8
 73
     4
 74
     0
 42
0.000000001
 43
0.0000000001
 40
6.0
 40
6.0
 40
6.0
 40
6.0
 40
7.0
 40
7.0
 40
7.0
 40
7.0
 10
21.85467192008373
 20
-18.21098925633981
 30
0.0
 10
24.05051307542543
 20
-18.19912765036637
 30
0.0
 10
26.24635752017544
 20
-18.18975283699303
 30
0.0
 10
28.44220196492513
 20
-18.18102274762615
 30
0.0
  0
SPLINE
  5
243
330
70
100
AcDbEntity
  8
0
370
     9
100
AcDbSpline
210
0.0
220
0.0
230
1.0
 70
     8
 71
     3
 72
     8
 73
     4
 74
     0
 42
0.000000001
 43
0.0000000001
 40
7.0
 40
7.0
 40
7.0
 40
7.0
 40
8.0
 40
8.0
 40
8.0
 40
8.0
 10
28.44220196492513
 20
-18.18102274762615
 30
0.0
 10
36.34096577517637
 20
-18.14965495101953
 30
0.0
 10
44.23983484649038
 20
-18.12820800954653
 30
0.0
 10
52.1385986567429
 20
-18.09123506136456
 30
0.0
  0
SPLINE
  5
244
330
70
100
AcDbEntity
  8
0
370
     9
100
AcDbSpline
210
0.0
220
0.0
230
1.0
 70
     8
 71
     3
 72
     8
 73
     4
 74
     0
 42
0.000000001
 43
0.0000000001
 40
8.0
 40
8.0
 40
8.0
 40
8.0
 40
9.0
 40
9.0
 40
9.0
 40
9.0
 10
52.1385986567429
 20
-18.09123506136456
 30
0.0
 10
53.75292836204147
 20
-18.08368915895132
 30
0.0
 10
55.36725806734004
 20
-18.07539327146819
 30
0.0
 10
56.98158777263862
 20
-18.06138039253063
 30
0.0
  0
SPLINE
  5
245
330
70
100
AcDbEntity
  8
0
370
     9
100
AcDbSpline
210
0.0
220
0.0
230
1.0
 70
     8
 71
     3
 72
     8
 73
     4
 74
     0
 42
0.000000001
 43
0.0000000001
 40
9.0
 40
9.0
 40
9.0
 40
9.0
 40
10.0
 40
10.0
 40
10.0
 40
10.0
 10
56.98158777263862
 20
-18.06138039253063
 30
0.0
 10
57.38256005355513
 20
-18.05792651391908
 30
0.0
 10
57.78352575565501
 20
-18.05405159105766
 30
0.0
 10
58.1846032976343
 20
-18.04758461453463
 30
0.0
  0
SPLINE
  5
246
330
70
100
AcDbEntity
  8
0
370
     9
100
AcDbSpline
210
0.0
220
0.0
230
1.0
 70
     8
 71
     3
 72
     8
 73
     4
 74
     0
 42
0.000000001
 43
0.0000000001
 40
10.0
 40
10.0
 40
10.0
 40
10.0
 40
11.0
 40
11.0
 40
11.0
 40
11.0
 10
58.1846032976343
 20
-18.04758461453463
 30
0.0
 10
58.29541030230336
 20
-18.0458543858207
 30
0.0
 10
58.40621730697048
 20
-18.04380837391937
 30
0.0
 10
58.51702431163761
 20
-18.0407886971903
 30
0.0
  0
SPLINE
  5
247
330
70
100
AcDbEntity
  8
0
370
     9
100
AcDbSpline
210
0.0
220
0.0
230
1.0
 70
     8
 71
     3
 72
     8
 73
     4
 74
     0
 42
0.000000001
 43
0.0000000001
 40
11.0
 40
11.0
 40
11.0
 40
11.0
 40
12.0
 40
12.0
 40
12.0
 40
12.0
 10
58.51702431163761
 20
-18.0407886971903
 30
0.0
 10
58.56692463405159
 20
-18.03949924917515
 30
0.0
 10
58.61672627421876
 20
-18.03788086034
 30
0.0
 10
58.66652133556803
 20
-18.03389409760077
 30
0.0
  0
SPLINE
  5
248
330
70
100
AcDbEntity
  8
0
370
     9
100
AcDbSpline
210
0.0
220
0.0
230
1.0
 70
     8
 71
     3
 72
     8
 73
     4
 74
     0
 42
0.000000001
 43
0.0000000001
 40
0.0
 40
0.0
 40
0.0
 40
0.0
 40
1.0
 40
1.0
 40
1.0
 40
1.0
 10
17.09185226086916
 20
-18.7197751804612
 30
0.0
 10
17.09260553534671
 20
-18.71870283338729
 30
0.0
 10
17.09422227947803
 20
-18.71838047138358
 30
0.0
 10
17.09573211784208
 20
-18.71816337044235
 30
0.0
  0
SPLINE
  5
249
330
70
100
AcDbEntity
  8
0
370
     9
100
AcDbSpline
210
0.0
220
0.0
230
1.0
 70
     8
 71
     3
 72
     8
 73
     4
 74
     0
 42
0.000000001
 43
0.0000000001
 40
1.0
 40
1.0
 40
1.0
 40
1.0
 40
2.0
 40
2.0
 40
2.0
 40
2.0
 10
17.09573211784208
 20
-18.71816337044235
 30
0.0
 10
17.09928796810811
 20
-18.7176239074974
 30
0.0
 10
17.10284546307765
 20
-18.71730154549434
 30
0.0
 10
17.10629440757673
 20
-18.71697918349063
 30
0.0
  0
SPLINE
  5
24A
330
70
100
AcDbEntity
  8
0
370
     9
100
AcDbSpline
210
0.0
220
0.0
230
1.0
 70
     8
 71
     3
 72
     8
 73
     4
 74
     0
 42
0.000000001
 43
0.0000000001
 40
2.0
 40
2.0
 40
2.0
 40
2.0
 40
3.0
 40
3.0
 40
3.0
 40
3.0
 10
17.10629440757673
 20
-18.71697918349063
 30
0.0
 10
17.12623480009271
 20
-18.7152489547767
 30
0.0
 10
17.14628374307946
 20
-18.71428186876558
 30
0.0
 10
17.16633268606557
 20
-18.71342004381661
 30
0.0
  0
SPLINE
  5
24B
330
70
100
AcDbEntity
  8
0
370
     9
100
AcDbSpline
210
0.0
220
0.0
230
1.0
 70
     8
 71
     3
 72
     8
 73
     4
 74
     0
 42
0.000000001
 43
0.0000000001
 40
3.0
 40
3.0
 40
3.0
 40
3.0
 40
4.0
 40
4.0
 40
4.0
 40
4.0
 10
17.16633268606557
 20
-18.71342004381661
 30
0.0
 10
17.2336997660277
 20
-18.7106174680291
 30
0.0
 10
17.3010668459895
 20
-18.70910434025641
 30
0.0
 10
17.36843392595099
 20
-18.70781489224127
 30
0.0
  0
SPLINE
  5
24C
330
70
100
AcDbEntity
  8
0
370
     9
100
AcDbSpline
210
0.0
220
0.0
230
1.0
 70
     8
 71
     3
 72
     8
 73
     4
 74
     0
 42
0.000000001
 43
0.0000000001
 40
4.0
 40
4.0
 40
4.0
 40
4.0
 40
5.0
 40
5.0
 40
5.0
 40
5.0
 10
17.36843392595099
 20
-18.70781489224127
 30
0.0
 10
17.66409415860078
 20
-18.70188737866318
 30
0.0
 10
17.95975439125057
 20
-18.69832823898916
 30
0.0
 10
18.2554162686042
 20
-18.69509804013515
 30
0.0
  0
SPLINE
  5
24D
330
70
100
AcDbEntity
  8
0
370
     9
100
AcDbSpline
210
0.0
220
0.0
230
1.0
 70
     8
 71
     3
 72
     8
 73
     4
 74
     0
 42
0.000000001
 43
0.0000000001
 40
5.0
 40
5.0
 40
5.0
 40
5.0
 40
6.0
 40
6.0
 40
6.0
 40
6.0
 10
18.2554162686042
 20
-18.69509804013515
 30
0.0
 10
19.48807100619865
 20
-18.68205224720903
 30
0.0
 10
20.72072738849696
 20
-18.67526290868229
 30
0.0
 10
21.95338377079525
 20
-18.66890119322044
 30
0.0
  0
SPLINE
  5
24E
330
70
100
AcDbEntity
  8
0
370
     9
100
AcDbSpline
210
0.0
220
0.0
230
1.0
 70
     8
 71
     3
 72
     8
 73
     4
 74
     0
 42
0.000000001
 43
0.0000000001
 40
6.0
 40
6.0
 40
6.0
 40
6.0
 40
7.0
 40
7.0
 40
7.0
 40
7.0
 10
21.95338377079525
 20
-18.66890119322044
 30
0.0
 10
31.97318430448391
 20
-18.61738248197227
 30
0.0
 10
41.99309667805198
 20
-18.59744208945661
 30
0.0
 10
52.01289721173968
 20
-18.5502259241354
 30
0.0
  0
SPLINE
  5
24F
330
70
100
AcDbEntity
  8
0
370
     9
100
AcDbSpline
210
0.0
220
0.0
230
1.0
 70
     8
 71
     3
 72
     8
 73
     4
 74
     0
 42
0.000000001
 43
0.0000000001
 40
7.0
 40
7.0
 40
7.0
 40
7.0
 40
8.0
 40
8.0
 40
8.0
 40
8.0
 10
52.01289721173968
 20
-18.5502259241354
 30
0.0
 10
53.64620022354247
 20
-18.54246949959722
 30
0.0
 10
55.27939139546713
 20
-18.53394993235623
 30
0.0
 10
56.91269440727055
 20
-18.520265994239
 30
0.0
  0
SPLINE
  5
250
330
70
100
AcDbEntity
  8
0
370
     9
100
AcDbSpline
210
0.0
220
0.0
230
1.0
 70
     8
 71
     3
 72
     8
 73
     4
 74
     0
 42
0.000000001
 43
0.0000000001
 40
8.0
 40
8.0
 40
8.0
 40
8.0
 40
9.0
 40
9.0
 40
9.0
 40
9.0
 10
56.91269440727055
 20
-18.520265994239
 30
0.0
 10
57.32412042745092
 20
-18.51681211562745
 30
0.0
 10
57.73553986881596
 20
-18.5130424538285
 30
0.0
 10
58.14696588899633
 20
-18.50657547730514
 30
0.0
  0
SPLINE
  5
251
330
70
100
AcDbEntity
  8
0
370
     9
100
AcDbSpline
210
0.0
220
0.0
230
1.0
 70
     8
 71
     3
 72
     8
 73
     4
 74
     0
 42
0.000000001
 43
0.0000000001
 40
9.0
 40
9.0
 40
9.0
 40
9.0
 40
10.0
 40
10.0
 40
10.0
 40
10.0
 10
58.14696588899633
 20
-18.50657547730514
 30
0.0
 10
58.26305568323542
 20
-18.50473998752875
 30
0.0
 10
58.37913889865788
 20
-18.50269397562742
 30
0.0
 10
58.4951168530182
 20
-18.49967429889835
 30
0.0
  0
SPLINE
  5
252
330
70
100
AcDbEntity
  8
0
370
     9
100
AcDbSpline
210
0.0
220
0.0
230
1.0
 70
     8
 71
     3
 72
     8
 73
     4
 74
     0
 42
0.000000001
 43
0.0000000001
 40
10.0
 40
10.0
 40
10.0
 40
10.0
 40
11.0
 40
11.0
 40
11.0
 40
11.0
 10
58.4951168530182
 20
-18.49967429889835
 30
0.0
 10
58.5503065438182
 20
-18.49827301100475
 30
0.0
 10
58.60538439474006
 20
-18.49666120098686
 30
0.0
 10
58.66046224566257
 20
-18.49277969930914
 30
0.0
  0
SPLINE
  5
253
330
70
100
AcDbEntity
  8
0
370
     9
100
AcDbSpline
210
0.0
220
0.0
230
1.0
 70
     8
 71
     3
 72
     8
 73
     4
 74
     0
 42
0.000000001
 43
0.0000000001
 40
0.0
 40
0.0
 40
0.0
 40
0.0
 40
1.0
 40
1.0
 40
1.0
 40
1.0
 10
16.87785158681567
 20
-18.1377538721473
 30
0.0
 10
17.25898709157483
 20
-18.12061605541851
 30
0.0
 10
17.64087751551635
 20
-18.11641219173677
 30
0.0
 10
18.02287484522417
 20
-18.11274779100124
 30
0.0
  0
SPLINE
  5
254
330
70
100
AcDbEntity
  8
0
370
     9
100
AcDbSpline
210
0.0
220
0.0
230
1.0
 70
     8
 71
     3
 72
     8
 73
     4
 74
     0
 42
0.000000001
 43
0.0000000001
 40
1.0
 40
1.0
 40
1.0
 40
1.0
 40
2.0
 40
2.0
 40
2.0
 40
2.0
 10
18.02287484522417
 20
-18.11274779100124
 30
0.0
 10
19.24259727447575
 20
-18.10100460372287
 30
0.0
 10
20.46231805902222
 20
-18.09420868637855
 30
0.0
 10
21.68204048827381
 20
-18.08785354973428
 30
0.0
  0
SPLINE
  5
255
330
70
100
AcDbEntity
  8
0
370
     9
100
AcDbSpline
210
0.0
220
0.0
230
1.0
 70
     8
 71
     3
 72
     8
 73
     4
 74
     0
 42
0.000000001
 43
0.0000000001
 40
2.0
 40
2.0
 40
2.0
 40
2.0
 40
3.0
 40
3.0
 40
3.0
 40
3.0
 10
21.68204048827381
 20
-18.08785354973428
 30
0.0
 10
31.86039707607882
 20
-18.03503881165466
 30
0.0
 10
42.0389707648257
 20
-18.01617076621196
 30
0.0
 10
52.21743261369415
 20
-17.96831645570027
 30
0.0
  0
SPLINE
  5
256
330
70
100
AcDbEntity
  8
0
370
     9
100
AcDbSpline
210
0.0
220
0.0
230
1.0
 70
     8
 71
     3
 72
     8
 73
     4
 74
     0
 42
0.000000001
 43
0.0000000001
 40
3.0
 40
3.0
 40
3.0
 40
3.0
 40
4.0
 40
4.0
 40
4.0
 40
4.0
 10
52.21743261369415
 20
-17.96831645570027
 30
0.0
 10
53.86517612750066
 20
-17.96055345234578
 30
0.0
 10
55.51303148118724
 20
-17.95204046392013
 30
0.0
 10
57.16088025605655
 20
-17.9383499469866
 30
0.0
  0
SPLINE
  5
257
330
70
100
AcDbEntity
  8
0
370
     9
100
AcDbSpline
210
0.0
220
0.0
230
1.0
 70
     8
 71
     3
 72
     8
 73
     4
 74
     0
 42
0.000000001
 43
0.0000000001
 40
4.0
 40
4.0
 40
4.0
 40
4.0
 40
5.0
 40
5.0
 40
5.0
 40
5.0
 10
57.16088025605655
 20
-17.9383499469866
 30
0.0
 10
57.57909561476463
 20
-17.93479080731355
 30
0.0
 10
57.99731097347078
 20
-17.9310211455146
 30
0.0
 10
58.4155263321795
 20
-17.9241199671078
 30
0.0
  0
SPLINE
  5
258
330
70
100
AcDbEntity
  8
0
370
     9
100
AcDbSpline
210
0.0
220
0.0
230
1.0
 70
     8
 71
     3
 72
     8
 73
     4
 74
     0
 42
0.000000001
 43
0.0000000001
 40
5.0
 40
5.0
 40
5.0
 40
5.0
 40
6.0
 40
6.0
 40
6.0
 40
6.0
 10
58.4155263321795
 20
-17.9241199671078
 30
0.0
 10
58.5284911886264
 20
-17.9221792162699
 30
0.0
 10
58.64144946625861
 20
-17.92013320436857
 30
0.0
 10
58.75451958376831
 20
-17.91690300551456
 30
0.0
  0
SPLINE
  5
259
330
70
100
AcDbEntity
  8
0
370
     9
100
AcDbSpline
210
0.0
220
0.0
230
1.0
 70
     8
 71
     3
 72
     8
 73
     4
 74
     0
 42
0.000000001
 43
0.0000000001
 40
6.0
 40
6.0
 40
6.0
 40
6.0
 40
7.0
 40
7.0
 40
7.0
 40
7.0
 10
58.75451958376831
 20
-17.91690300551456
 30
0.0
 10
58.79742004552965
 20
-17.91571223974591
 30
0.0
 10
58.84042576835312
 20
-17.91431095185199
 30
0.0
 10
58.88332623011383
 20
-17.9103241891118
 30
0.0
  0
SPLINE
  5
25A
330
70
100
AcDbEntity
  8
0
370
     9
100
AcDbSpline
210
0.0
220
0.0
230
1.0
 70
     8
 71
     3
 72
     8
 73
     4
 74
     0
 42
0.000000001
 43
0.0000000001
 40
0.0
 40
0.0
 40
0.0
 40
0.0
 40
1.0
 40
1.0
 40
1.0
 40
1.0
 10
42.04686205510149
 20
-17.82814819342842
 30
0.0
 10
35.54760656874834
 20
-17.86425931666142
 30
0.0
 10
29.04835437180351
 20
-17.89239033559869
 30
0.0
 10
22.54921072533009
 20
-17.94121831093812
 30
0.0
  0
SPLINE
  5
25B
330
70
100
AcDbEntity
  8
0
370
     9
100
AcDbSpline
210
0.0
220
0.0
230
1.0
 70
     8
 71
     3
 72
     8
 73
     4
 74
     0
 42
0.000000001
 43
0.0000000001
 40
1.0
 40
1.0
 40
1.0
 40
1.0
 40
2.0
 40
2.0
 40
2.0
 40
2.0
 10
22.54921072533009
 20
-17.94121831093812
 30
0.0
 10
21.14851656977485
 20
-17.95167862901861
 30
0.0
 10
19.74781912481097
 20
-17.96321129417236
 30
0.0
 10
18.34723187502203
 20
-17.98271748480522
 30
0.0
  0
SPLINE
  5
25C
330
70
100
AcDbEntity
  8
0
370
     9
100
AcDbSpline
210
0.0
220
0.0
230
1.0
 70
     8
 71
     3
 72
     8
 73
     4
 74
     0
 42
0.000000001
 43
0.0000000001
 40
2.0
 40
2.0
 40
2.0
 40
2.0
 40
3.0
 40
3.0
 40
3.0
 40
3.0
 10
18.34723187502203
 20
-17.98271748480522
 30
0.0
 10
17.96749601345198
 20
-17.98800027437686
 30
0.0
 10
17.58765324611563
 20
-17.99392778795495
 30
0.0
 10
17.20802757972116
 20
-18.00492099016344
 30
0.0
  0
SPLINE
  5
25D
330
70
100
AcDbEntity
  8
0
370
     9
100
AcDbSpline
210
0.0
220
0.0
230
1.0
 70
     8
 71
     3
 72
     8
 73
     4
 74
     0
 42
0.000000001
 43
0.0000000001
 40
3.0
 40
3.0
 40
3.0
 40
3.0
 40
4.0
 40
4.0
 40
4.0
 40
4.0
 10
17.20802757972116
 20
-18.00492099016344
 30
0.0
 10
17.12567724540268
 20
-18.0072959428851
 30
0.0
 10
17.04322000531758
 20
-18.00988141773137
 30
0.0
 10
16.96076276523248
 20
-18.01419054247527
 30
0.0
  0
SPLINE
  5
25E
330
70
100
AcDbEntity
  8
0
370
     9
100
AcDbSpline
210
0.0
220
0.0
230
1.0
 70
     8
 71
     3
 72
     8
 73
     4
 74
     0
 42
0.000000001
 43
0.0000000001
 40
4.0
 40
4.0
 40
4.0
 40
4.0
 40
5.0
 40
5.0
 40
5.0
 40
5.0
 10
16.96076276523248
 20
-18.01419054247527
 30
0.0
 10
16.93273865206183
 20
-18.01570367024796
 30
0.0
 10
16.90471289418703
 20
-18.01731548026585
 30
0.0
 10
16.87776606220211
 20
-18.02432191973511
 30
0.0
  0
SPLINE
  5
25F
330
70
100
AcDbEntity
  8
0
370
     9
100
AcDbSpline
210
0.0
220
0.0
230
1.0
 70
     8
 71
     3
 72
     8
 73
     4
 74
     0
 42
0.000000001
 43
0.0000000001
 40
0.0
 40
0.0
 40
0.0
 40
0.0
 40
1.0
 40
1.0
 40
1.0
 40
1.0
 10
16.87782033743766
 20
-18.59611974735931
 30
0.0
 10
17.26391298035645
 20
-18.57833720662376
 30
0.0
 10
17.6506552813948
 20
-18.57456754482481
 30
0.0
 10
18.03750284349529
 20
-18.57111366621326
 30
0.0
  0
SPLINE
  5
260
330
70
100
AcDbEntity
  8
0
370
     9
100
AcDbSpline
210
0.0
220
0.0
230
1.0
 70
     8
 71
     3
 72
     8
 73
     4
 74
     0
 42
0.000000001
 43
0.0000000001
 40
1.0
 40
1.0
 40
1.0
 40
1.0
 40
2.0
 40
2.0
 40
2.0
 40
2.0
 10
18.03750284349529
 20
-18.57111366621326
 30
0.0
 10
19.24062527425856
 20
-18.56033756494633
 30
0.0
 10
20.44353224878508
 20
-18.55290350241153
 30
0.0
 10
21.64654448437373
 20
-18.54621942494629
 30
0.0
  0
SPLINE
  5
261
330
70
100
AcDbEntity
  8
0
370
     9
100
AcDbSpline
210
0.0
220
0.0
230
1.0
 70
     8
 71
     3
 72
     8
 73
     4
 74
     0
 42
0.000000001
 43
0.0000000001
 40
2.0
 40
2.0
 40
2.0
 40
2.0
 40
3.0
 40
3.0
 40
3.0
 40
3.0
 10
21.64654448437373
 20
-18.54621942494629
 30
0.0
 10
23.88011515178391
 20
-18.53382493484389
 30
0.0
 10
26.11379108025654
 20
-18.52444354265425
 30
0.0
 10
28.34747029813717
 20
-18.5158187143508
 30
0.0
  0
SPLINE
  5
262
330
70
100
AcDbEntity
  8
0
370
     9
100
AcDbSpline
210
0.0
220
0.0
230
1.0
 70
     8
 71
     3
 72
     8
 73
     4
 74
     0
 42
0.000000001
 43
0.0000000001
 40
3.0
 40
3.0
 40
3.0
 40
3.0
 40
4.0
 40
4.0
 40
4.0
 40
4.0
 10
28.34747029813717
 20
-18.5158187143508
 30
0.0
 10
36.37913277853595
 20
-18.48456275762198
 30
0.0
 10
44.41079854834238
 20
-18.46278687533026
 30
0.0
 10
52.44235576767901
 20
-18.42549814396057
 30
0.0
  0
SPLINE
  5
263
330
70
100
AcDbEntity
  8
0
370
     9
100
AcDbSpline
210
0.0
220
0.0
230
1.0
 70
     8
 71
     3
 72
     8
 73
     4
 74
     0
 42
0.000000001
 43
0.0000000001
 40
4.0
 40
4.0
 40
4.0
 40
4.0
 40
5.0
 40
5.0
 40
5.0
 40
5.0
 10
52.44235576767901
 20
-18.42549814396057
 30
0.0
 10
54.05840912287488
 20
-18.41795224154636
 30
0.0
 10
55.67446905688867
 20
-18.40986687618817
 30
0.0
 10
57.29041057220513
 20
-18.3955316352469
 30
0.0
  0
SPLINE
  5
264
330
70
100
AcDbEntity
  8
0
370
     9
100
AcDbSpline
210
0.0
220
0.0
230
1.0
 70
     8
 71
     3
 72
     8
 73
     4
 74
     0
 42
0.000000001
 43
0.0000000001
 40
5.0
 40
5.0
 40
5.0
 40
5.0
 40
6.0
 40
6.0
 40
6.0
 40
6.0
 10
57.29041057220513
 20
-18.3955316352469
 30
0.0
 10
57.68847501627166
 20
-18.39197249557289
 30
0.0
 10
58.08653288152349
 20
-18.38809099389516
 30
0.0
 10
58.48447890689461
 20
-18.38108455442686
 30
0.0
  0
SPLINE
  5
265
330
70
100
AcDbEntity
  8
0
370
     9
100
AcDbSpline
210
0.0
220
0.0
230
1.0
 70
     8
 71
     3
 72
     8
 73
     4
 74
     0
 42
0.000000001
 43
0.0000000001
 40
6.0
 40
6.0
 40
6.0
 40
6.0
 40
7.0
 40
7.0
 40
7.0
 40
7.0
 10
58.48447890689461
 20
-18.38108455442686
 30
0.0
 10
58.58547689630594
 20
-18.37936090452924
 30
0.0
 10
58.68647488571724
 20
-18.37742015369038
 30
0.0
 10
58.78757813619134
 20
-18.37429521590012
 30
0.0
  0
SPLINE
  5
266
330
70
100
AcDbEntity
  8
0
370
     9
100
AcDbSpline
210
0.0
220
0.0
230
1.0
 70
     8
 71
     3
 72
     8
 73
     4
 74
     0
 42
0.000000001
 43
0.0000000001
 40
7.0
 40
7.0
 40
7.0
 40
7.0
 40
8.0
 40
8.0
 40
8.0
 40
8.0
 10
58.78757813619134
 20
-18.37429521590012
 30
0.0
 10
58.82164324752398
 20
-18.37321629000991
 30
0.0
 10
58.85580704110213
 20
-18.37203210305723
 30
0.0
 10
58.88933268948949
 20
-18.36696641442715
 30
0.0
  0
SPLINE
  5
267
330
70
100
AcDbEntity
  8
0
370
     9
100
AcDbSpline
210
0.0
220
0.0
230
1.0
 70
     8
 71
     3
 72
     8
 73
     4
 74
     0
 42
0.000000001
 43
0.0000000001
 40
0.0
 40
0.0
 40
0.0
 40
0.0
 40
1.0
 40
1.0
 40
1.0
 40
1.0
 10
58.88941821410241
 20
-18.27530376549039
 30
0.0
 10
58.50332063707146
 20
-18.29319814610567
 30
0.0
 10
58.11657833603312
 20
-18.29697438672093
 30
0.0
 10
57.72973077393263
 20
-18.30031642545371
 30
0.0
  0
SPLINE
  5
268
330
70
100
AcDbEntity
  8
0
370
     9
100
AcDbSpline
210
0.0
220
0.0
230
1.0
 70
     8
 71
     3
 72
     8
 73
     4
 74
     0
 42
0.000000001
 43
0.0000000001
 40
1.0
 40
1.0
 40
1.0
 40
1.0
 40
2.0
 40
2.0
 40
2.0
 40
2.0
 10
57.72973077393263
 20
-18.30031642545371
 30
0.0
 10
56.52660998787222
 20
-18.31109252672096
 30
0.0
 10
55.32369972393869
 20
-18.31852658925543
 30
0.0
 10
54.1206907777577
 20
-18.32521066672067
 30
0.0
  0
SPLINE
  5
269
330
70
100
AcDbEntity
  8
0
370
     9
100
AcDbSpline
210
0.0
220
0.0
230
1.0
 70
     8
 71
     3
 72
     8
 73
     4
 74
     0
 42
0.000000001
 43
0.0000000001
 40
2.0
 40
2.0
 40
2.0
 40
2.0
 40
3.0
 40
3.0
 40
3.0
 40
3.0
 10
54.1206907777577
 20
-18.32521066672067
 30
0.0
 10
51.8871168209389
 20
-18.33760515682308
 30
0.0
 10
49.65344418187457
 20
-18.34698654901271
 30
0.0
 10
47.41976825340258
 20
-18.35571663837864
 30
0.0
  0
SPLINE
  5
26A
330
70
100
AcDbEntity
  8
0
370
     9
100
AcDbSpline
210
0.0
220
0.0
230
1.0
 70
     8
 71
     3
 72
     8
 73
     4
 74
     0
 42
0.000000001
 43
0.0000000001
 40
3.0
 40
3.0
 40
3.0
 40
3.0
 40
4.0
 40
4.0
 40
4.0
 40
4.0
 10
47.41976825340258
 20
-18.35571663837864
 30
0.0
 10
39.38810248359614
 20
-18.38686733404498
 30
0.0
 10
31.35643671378873
 20
-18.40864321633703
 30
0.0
 10
23.32477423338996
 20
-18.4459319477064
 30
0.0
  0
SPLINE
  5
26B
330
70
100
AcDbEntity
  8
0
370
     9
100
AcDbSpline
210
0.0
220
0.0
230
1.0
 70
     8
 71
     3
 72
     8
 73
     4
 74
     0
 42
0.000000001
 43
0.0000000001
 40
4.0
 40
4.0
 40
4.0
 40
4.0
 40
5.0
 40
5.0
 40
5.0
 40
5.0
 10
23.32477423338996
 20
-18.4459319477064
 30
0.0
 10
21.70882613925623
 20
-18.4534778501206
 30
0.0
 10
20.09276949465204
 20
-18.46156321547879
 30
0.0
 10
18.47682468992694
 20
-18.47601029629883
 30
0.0
  0
SPLINE
  5
26C
330
70
100
AcDbEntity
  8
0
370
     9
100
AcDbSpline
210
0.0
220
0.0
230
1.0
 70
     8
 71
     3
 72
     8
 73
     4
 74
     0
 42
0.000000001
 43
0.0000000001
 40
5.0
 40
5.0
 40
5.0
 40
5.0
 40
6.0
 40
6.0
 40
6.0
 40
6.0
 10
18.47682468992694
 20
-18.47601029629883
 30
0.0
 10
18.08814163804974
 20
-18.47945759609408
 30
0.0
 10
17.69956713664331
 20
-18.48322725789207
 30
0.0
 10
17.31099592464486
 20
-18.48980607429516
 30
0.0
  0
SPLINE
  5
26D
330
70
100
AcDbEntity
  8
0
370
     9
100
AcDbSpline
210
0.0
220
0.0
230
1.0
 70
     8
 71
     3
 72
     8
 73
     4
 74
     0
 42
0.000000001
 43
0.0000000001
 40
6.0
 40
6.0
 40
6.0
 40
6.0
 40
7.0
 40
7.0
 40
7.0
 40
7.0
 10
17.31099592464486
 20
-18.48980607429516
 30
0.0
 10
17.20795192333222
 20
-18.49152972419278
 30
0.0
 10
17.10490463261159
 20
-18.49347047503164
 30
0.0
 10
17.00186063129894
 20
-18.49648357294313
 30
0.0
  0
SPLINE
  5
26E
330
70
100
AcDbEntity
  8
0
370
     9
100
AcDbSpline
210
0.0
220
0.0
230
1.0
 70
     8
 71
     3
 72
     8
 73
     4
 74
     0
 42
0.000000001
 43
0.0000000001
 40
7.0
 40
7.0
 40
7.0
 40
7.0
 40
8.0
 40
8.0
 40
8.0
 40
8.0
 10
17.00186063129894
 20
-18.49648357294313
 30
0.0
 10
16.96100947084756
 20
-18.49767433871211
 30
0.0
 10
16.92026686086697
 20
-18.49907562660602
 30
0.0
 10
16.87984661288976
 20
-18.50349001241239
 30
0.0
  0
SPLINE
  5
26F
330
70
100
AcDbEntity
  8
0
370
     9
100
AcDbSpline
210
0.0
220
0.0
230
1.0
 70
     8
 71
     3
 72
     8
 73
     4
 74
     0
 42
0.000000001
 43
0.0000000001
 40
0.0
 40
0.0
 40
0.0
 40
0.0
 40
1.0
 40
1.0
 40
1.0
 40
1.0
 10
49.80477011676508
 20
-11.83671483459417
 30
0.0
 10
49.77642199688752
 20
-11.55884536620136
 30
0.0
 10
49.71885735336555
 20
-11.29799529584161
 30
0.0
 10
49.60493198972287
 20
-11.04049384303062
 30
0.0
  0
SPLINE
  5
270
330
70
100
AcDbEntity
  8
0
370
     9
100
AcDbSpline
210
0.0
220
0.0
230
1.0
 70
     8
 71
     3
 72
     8
 73
     4
 74
     0
 42
0.000000001
 43
0.0000000001
 40
1.0
 40
1.0
 40
1.0
 40
1.0
 40
2.0
 40
2.0
 40
2.0
 40
2.0
 10
49.60493198972287
 20
-11.04049384303062
 30
0.0
 10
49.51848634219341
 20
-10.84496484073134
 30
0.0
 10
49.32004950304545
 20
-10.49519548787528
 30
0.0
 10
49.04185109383166
 20
-10.49519548787528
 30
0.0
  0
SPLINE
  5
271
330
70
100
AcDbEntity
  8
0
370
     9
100
AcDbSpline
210
0.0
220
0.0
230
1.0
 70
     8
 71
     3
 72
     8
 73
     4
 74
     0
 42
0.000000001
 43
0.0000000001
 40
0.0
 40
0.0
 40
0.0
 40
0.0
 40
1.0
 40
1.0
 40
1.0
 40
1.0
 10
50.37431798918156
 20
-10.49521522432419
 30
0.0
 10
50.67644355364991
 20
-10.49521522432419
 30
0.0
 10
50.88770250596774
 20
-10.78193320077865
 30
0.0
 10
50.99548983390676
 20
-11.01087601158684
 30
0.0
  0
SPLINE
  5
272
330
70
100
AcDbEntity
  8
0
370
     9
100
AcDbSpline
210
0.0
220
0.0
230
1.0
 70
     8
 71
     3
 72
     8
 73
     4
 74
     0
 42
0.000000001
 43
0.0000000001
 40
1.0
 40
1.0
 40
1.0
 40
1.0
 40
2.0
 40
2.0
 40
2.0
 40
2.0
 10
50.99548983390676
 20
-11.01087601158684
 30
0.0
 10
51.12149390446317
 20
-11.27840358059488
 30
0.0
 10
51.16913769285185
 20
-11.5452798467792
 30
0.0
 10
51.17862434610331
 20
-11.83674114986035
 30
0.0
  0
SPLINE
  5
273
330
70
100
AcDbEntity
  8
0
370
     9
100
AcDbSpline
210
0.0
220
0.0
230
1.0
 70
     8
 71
     3
 72
     8
 73
     4
 74
     0
 42
0.000000001
 43
0.0000000001
 40
0.0
 40
0.0
 40
0.0
 40
0.0
 40
1.0
 40
1.0
 40
1.0
 40
1.0
 10
51.85095964599081
 20
-11.83671483459417
 30
0.0
 10
51.81819056149027
 20
-11.53997732075865
 30
0.0
 10
51.74683671878923
 20
-11.27072610185299
 30
0.0
 10
51.60067515477402
 20
-11.00654057157772
 30
0.0
  0
SPLINE
  5
274
330
70
100
AcDbEntity
  8
0
370
     9
100
AcDbSpline
210
0.0
220
0.0
230
1.0
 70
     8
 71
     3
 72
     8
 73
     4
 74
     0
 42
0.000000001
 43
0.0000000001
 40
1.0
 40
1.0
 40
1.0
 40
1.0
 40
2.0
 40
2.0
 40
2.0
 40
2.0
 10
51.60067515477402
 20
-11.00654057157772
 30
0.0
 10
51.47769076094572
 20
-10.78406473729353
 30
0.0
 10
51.24497828833891
 20
-10.49519548787528
 30
0.0
 10
50.94209615998309
 20
-10.49519548787528
 30
0.0
  0
SPLINE
  5
275
330
70
100
AcDbEntity
  8
0
370
     9
100
AcDbSpline
210
0.0
220
0.0
230
1.0
 70
     8
 71
     3
 72
     8
 73
     4
 74
     0
 42
0.000000001
 43
0.0000000001
 40
0.0
 40
0.0
 40
0.0
 40
0.0
 40
1.0
 40
1.0
 40
1.0
 40
1.0
 10
52.23349808334837
 20
-10.49521522432419
 30
0.0
 10
52.54963652675524
 20
-10.49521522432419
 30
0.0
 10
52.79442112745916
 20
-10.7386051159521
 30
0.0
 10
52.9361617268514
 20
-10.98187658888429
 30
0.0
  0
SPLINE
  5
276
330
70
100
AcDbEntity
  8
0
370
     9
100
AcDbSpline
210
0.0
220
0.0
230
1.0
 70
     8
 71
     3
 72
     8
 73
     4
 74
     0
 42
0.000000001
 43
0.0000000001
 40
1.0
 40
1.0
 40
1.0
 40
1.0
 40
2.0
 40
2.0
 40
2.0
 40
2.0
 10
52.9361617268514
 20
-10.98187658888429
 30
0.0
 10
53.09471778096998
 20
-11.25404222345656
 30
0.0
 10
53.15669023148042
 20
-11.52739204498118
 30
0.0
 10
53.17167677524604
 20
-11.83674114986035
 30
0.0
  0
SPLINE
  5
277
330
70
100
AcDbEntity
  8
0
370
     9
100
AcDbSpline
210
0.0
220
0.0
230
1.0
 70
     8
 71
     3
 72
     8
 73
     4
 74
     0
 42
0.000000001
 43
0.0000000001
 40
0.0
 40
0.0
 40
0.0
 40
0.0
 40
1.0
 40
1.0
 40
1.0
 40
1.0
 10
53.75425728295412
 20
-11.83671483459417
 30
0.0
 10
53.71782379771613
 20
-11.52262898190557
 30
0.0
 10
53.63406888609639
 20
-11.24744367060455
 30
0.0
 10
53.45880921713342
 20
-10.9792713775891
 30
0.0
  0
SPLINE
  5
278
330
70
100
AcDbEntity
  8
0
370
     9
100
AcDbSpline
210
0.0
220
0.0
230
1.0
 70
     8
 71
     3
 72
     8
 73
     4
 74
     0
 42
0.000000001
 43
0.0000000001
 40
1.0
 40
1.0
 40
1.0
 40
1.0
 40
2.0
 40
2.0
 40
2.0
 40
2.0
 10
53.45880921713342
 20
-10.9792713775891
 30
0.0
 10
53.30402940363041
 20
-10.74257214224274
 30
0.0
 10
53.04404115822059
 20
-10.49519548787528
 30
0.0
 10
52.72553434090836
 20
-10.49519548787528
 30
0.0
  0
SPLINE
  5
279
330
70
100
AcDbEntity
  8
0
370
     9
100
AcDbSpline
210
0.0
220
0.0
230
1.0
 70
     8
 71
     3
 72
     8
 73
     4
 74
     0
 42
0.000000001
 43
0.0000000001
 40
0.0
 40
0.0
 40
0.0
 40
0.0
 40
1.0
 40
1.0
 40
1.0
 40
1.0
 10
40.91587141207753
 20
-12.63399501559871
 30
0.0
 10
40.96577502389918
 20
-12.63399501559871
 30
0.0
 10
40.97181108794901
 20
-12.73251279122622
 30
0.0
 10
40.97676822610767
 20
-12.76161747499091
 30
0.0
  0
SPLINE
  5
27A
330
70
100
AcDbEntity
  8
0
370
     9
100
AcDbSpline
210
0.0
220
0.0
230
1.0
 70
     8
 71
     3
 72
     8
 73
     4
 74
     0
 42
0.000000001
 43
0.0000000001
 40
1.0
 40
1.0
 40
1.0
 40
1.0
 40
2.0
 40
2.0
 40
2.0
 40
2.0
 10
40.97676822610767
 20
-12.76161747499091
 30
0.0
 10
40.98517595347053
 20
-12.81066255127254
 30
0.0
 10
40.98916600561871
 20
-12.85991814967814
 30
0.0
 10
40.991212017521
 20
-12.90950268890344
 30
0.0
  0
SPLINE
  5
27B
330
70
100
AcDbEntity
  8
0
370
     9
100
AcDbSpline
210
0.0
220
0.0
230
1.0
 70
     8
 71
     3
 72
     8
 73
     4
 74
     0
 42
0.000000001
 43
0.0000000001
 40
0.0
 40
0.0
 40
0.0
 40
0.0
 40
1.0
 40
1.0
 40
1.0
 40
1.0
 10
41.35423110660989
 20
-11.83671483459417
 30
0.0
 10
41.3597277077151
 20
-11.59958797618227
 30
0.0
 10
41.35379690472741
 20
-11.36450055085476
 30
0.0
 10
41.32717572415484
 20
-11.12844603951581
 30
0.0
  0
SPLINE
  5
27C
330
70
100
AcDbEntity
  8
0
370
     9
100
AcDbSpline
210
0.0
220
0.0
230
1.0
 70
     8
 71
     3
 72
     8
 73
     4
 74
     0
 42
0.000000001
 43
0.0000000001
 40
1.0
 40
1.0
 40
1.0
 40
1.0
 40
2.0
 40
2.0
 40
2.0
 40
2.0
 10
41.32717572415484
 20
-11.12844603951581
 30
0.0
 10
41.31381085863396
 20
-11.01063917419572
 30
0.0
 10
41.29591647801964
 20
-10.89444411889449
 30
0.0
 10
41.26573615777241
 20
-10.77932141066716
 30
0.0
  0
SPLINE
  5
27D
330
70
100
AcDbEntity
  8
0
370
     9
100
AcDbSpline
210
0.0
220
0.0
230
1.0
 70
     8
 71
     3
 72
     8
 73
     4
 74
     0
 42
0.000000001
 43
0.0000000001
 40
2.0
 40
2.0
 40
2.0
 40
2.0
 40
3.0
 40
3.0
 40
3.0
 40
3.0
 10
41.26573615777241
 20
-10.77932141066716
 30
0.0
 10
41.24730560362048
 20
-10.70915175491752
 30
0.0
 10
41.19987891617401
 20
-10.49519548787528
 30
0.0
 10
41.08583842324617
 20
-10.49519548787528
 30
0.0
  0
SPLINE
  5
27E
330
70
100
AcDbEntity
  8
0
370
     9
100
AcDbSpline
210
0.0
220
0.0
230
1.0
 70
     8
 71
     3
 72
     8
 73
     4
 74
     0
 42
0.000000001
 43
0.0000000001
 40
0.0
 40
0.0
 40
0.0
 40
0.0
 40
1.0
 40
1.0
 40
1.0
 40
1.0
 10
42.25878217846701
 20
-11.83671483459417
 30
0.0
 10
42.23970361089872
 20
-11.59592357544579
 30
0.0
 10
42.20919763924075
 20
-11.35835593633447
 30
0.0
 10
42.15821510152921
 20
-11.12187380192999
 30
0.0
  0
SPLINE
  5
27F
330
70
100
AcDbEntity
  8
0
370
     9
100
AcDbSpline
210
0.0
220
0.0
230
1.0
 70
     8
 71
     3
 72
     8
 73
     4
 74
     0
 42
0.000000001
 43
0.0000000001
 40
1.0
 40
1.0
 40
1.0
 40
1.0
 40
2.0
 40
2.0
 40
2.0
 40
2.0
 10
42.15821510152921
 20
-11.12187380192999
 30
0.0
 10
42.13288336897146
 20
-11.00384325685236
 30
0.0
 10
42.10313725060671
 20
-10.88776004142989
 30
0.0
 10
42.06163807674025
 20
-10.77404519991278
 30
0.0
  0
SPLINE
  5
280
330
70
100
AcDbEntity
  8
0
370
     9
100
AcDbSpline
210
0.0
220
0.0
230
1.0
 70
     8
 71
     3
 72
     8
 73
     4
 74
     0
 42
0.000000001
 43
0.0000000001
 40
2.0
 40
2.0
 40
2.0
 40
2.0
 40
3.0
 40
3.0
 40
3.0
 40
3.0
 10
42.06163807674025
 20
-10.77404519991278
 30
0.0
 10
42.0376023710133
 20
-10.7079675679658
 30
0.0
 10
41.96495250148211
 20
-10.49519548787528
 30
0.0
 10
41.85737898507569
 20
-10.49519548787528
 30
0.0
  0
SPLINE
  5
281
330
70
100
AcDbEntity
  8
0
370
     9
100
AcDbSpline
210
0.0
220
0.0
230
1.0
 70
     8
 71
     3
 72
     8
 73
     4
 74
     0
 42
0.000000001
 43
0.0000000001
 40
0.0
 40
0.0
 40
0.0
 40
0.0
 40
1.0
 40
1.0
 40
1.0
 40
1.0
 10
43.47687635065722
 20
-12.90952242535235
 30
0.0
 10
43.47396522439956
 20
-12.85886553905315
 30
0.0
 10
43.4687909852987
 20
-12.80885337676136
 30
0.0
 10
43.45833395662781
 20
-12.75916357647328
 30
0.0
  0
SPLINE
  5
282
330
70
100
AcDbEntity
  8
0
370
     9
100
AcDbSpline
210
0.0
220
0.0
230
1.0
 70
     8
 71
     3
 72
     8
 73
     4
 74
     0
 42
0.000000001
 43
0.0000000001
 40
1.0
 40
1.0
 40
1.0
 40
1.0
 40
2.0
 40
2.0
 40
2.0
 40
2.0
 10
43.45833395662781
 20
-12.75916357647328
 30
0.0
 10
43.45186698010445
 20
-12.72876944469312
 30
0.0
 10
43.43753173916351
 20
-12.63402133086489
 30
0.0
 10
43.38762812734186
 20
-12.63402133086489
 30
0.0
  0
SPLINE
  5
283
330
70
100
AcDbEntity
  8
0
370
     9
100
AcDbSpline
210
0.0
220
0.0
230
1.0
 70
     8
 71
     3
 72
     8
 73
     4
 74
     0
 42
0.000000001
 43
0.0000000001
 40
0.0
 40
0.0
 40
0.0
 40
0.0
 40
1.0
 40
1.0
 40
1.0
 40
1.0
 10
43.88427942460885
 20
-11.83671483459417
 30
0.0
 10
43.88847999888197
 20
-11.59581173556702
 30
0.0
 10
43.87921044657142
 20
-11.35771121232674
 30
0.0
 10
43.84504336358367
 20
-11.11853176319721
 30
0.0
  0
SPLINE
  5
284
330
70
100
AcDbEntity
  8
0
370
     9
100
AcDbSpline
210
0.0
220
0.0
230
1.0
 70
     8
 71
     3
 72
     8
 73
     4
 74
     0
 42
0.000000001
 43
0.0000000001
 40
1.0
 40
1.0
 40
1.0
 40
1.0
 40
2.0
 40
2.0
 40
2.0
 40
2.0
 10
43.84504336358367
 20
-11.11853176319721
 30
0.0
 10
43.82801409732663
 20
-10.99921177010475
 30
0.0
 10
43.80580730255978
 20
-10.88226015091701
 30
0.0
 10
43.76872909331439
 20
-10.76703876044352
 30
0.0
  0
SPLINE
  5
285
330
70
100
AcDbEntity
  8
0
370
     9
100
AcDbSpline
210
0.0
220
0.0
230
1.0
 70
     8
 71
     3
 72
     8
 73
     4
 74
     0
 42
0.000000001
 43
0.0000000001
 40
2.0
 40
2.0
 40
2.0
 40
2.0
 40
3.0
 40
3.0
 40
3.0
 40
3.0
 10
43.76872909331439
 20
-10.76703876044352
 30
0.0
 10
43.74437102558502
 20
-10.69136921418197
 30
0.0
 10
43.68023743388458
 20
-10.49519548787528
 30
0.0
 10
43.56296345269409
 20
-10.49519548787528
 30
0.0
  0
SPLINE
  5
286
330
70
100
AcDbEntity
  8
0
370
     9
100
AcDbSpline
210
0.0
220
0.0
230
1.0
 70
     8
 71
     3
 72
     8
 73
     4
 74
     0
 42
0.000000001
 43
0.0000000001
 40
0.0
 40
0.0
 40
0.0
 40
0.0
 40
1.0
 40
1.0
 40
1.0
 40
1.0
 10
48.40903145466562
 20
-10.49521522432419
 30
0.0
 10
48.68927587577913
 20
-10.49521522432419
 30
0.0
 10
48.85699293173653
 20
-10.84606350307046
 30
0.0
 10
48.92748494948987
 20
-11.04709239588262
 30
0.0
  0
SPLINE
  5
287
330
70
100
AcDbEntity
  8
0
370
     9
100
AcDbSpline
210
0.0
220
0.0
230
1.0
 70
     8
 71
     3
 72
     8
 73
     4
 74
     0
 42
0.000000001
 43
0.0000000001
 40
1.0
 40
1.0
 40
1.0
 40
1.0
 40
2.0
 40
2.0
 40
2.0
 40
2.0
 10
48.92748494948987
 20
-11.04709239588262
 30
0.0
 10
49.01856866258259
 20
-11.30642275965338
 30
0.0
 10
49.05165353027085
 20
-11.56447025422562
 30
0.0
 10
49.05585739395291
 20
-11.83674114986035
 30
0.0
  0
SPLINE
  5
288
330
70
100
AcDbEntity
  8
0
370
     9
100
AcDbSpline
210
0.0
220
0.0
230
1.0
 70
     8
 71
     3
 72
     8
 73
     4
 74
     0
 42
0.000000001
 43
0.0000000001
 40
0.0
 40
0.0
 40
0.0
 40
0.0
 40
1.0
 40
1.0
 40
1.0
 40
1.0
 10
46.89866020616005
 20
-11.83671483459417
 30
0.0
 10
46.87623959985867
 20
-11.58223305851226
 30
0.0
 10
46.83560225094054
 20
-11.3348629829611
 30
0.0
 10
46.76155438292341
 20
-11.08942707943251
 30
0.0
  0
SPLINE
  5
289
330
70
100
AcDbEntity
  8
0
370
     9
100
AcDbSpline
210
0.0
220
0.0
230
1.0
 70
     8
 71
     3
 72
     8
 73
     4
 74
     0
 42
0.000000001
 43
0.0000000001
 40
1.0
 40
1.0
 40
1.0
 40
1.0
 40
2.0
 40
2.0
 40
2.0
 40
2.0
 10
46.76155438292341
 20
-11.08942707943251
 30
0.0
 10
46.71639080832014
 20
-10.94014057762703
 30
0.0
 10
46.58424212324153
 20
-10.49519548787528
 30
0.0
 10
46.34657251247605
 20
-10.49519548787528
 30
0.0
  0
SPLINE
  5
28A
330
70
100
AcDbEntity
  8
0
370
     9
100
AcDbSpline
210
0.0
220
0.0
230
1.0
 70
     8
 71
     3
 72
     8
 73
     4
 74
     0
 42
0.000000001
 43
0.0000000001
 40
0.0
 40
0.0
 40
0.0
 40
0.0
 40
1.0
 40
1.0
 40
1.0
 40
1.0
 10
44.65252399942037
 20
-11.83671483459417
 30
0.0
 10
44.63193559348867
 20
-11.59010132292921
 30
0.0
 10
44.59701194661602
 20
-11.34811929801216
 30
0.0
 10
44.53600329270775
 20
-11.10753856098872
 30
0.0
  0
SPLINE
  5
28B
330
70
100
AcDbEntity
  8
0
370
     9
100
AcDbSpline
210
0.0
220
0.0
230
1.0
 70
     8
 71
     3
 72
     8
 73
     4
 74
     0
 42
0.000000001
 43
0.0000000001
 40
1.0
 40
1.0
 40
1.0
 40
1.0
 40
2.0
 40
2.0
 40
2.0
 40
2.0
 10
44.53600329270775
 20
-11.10753856098872
 30
0.0
 10
44.50560916092792
 20
-10.98767910495132
 30
0.0
 10
44.46993223957739
 20
-10.87072748576358
 30
0.0
 10
44.41937732493236
 20
-10.75722974518771
 30
0.0
  0
SPLINE
  5
28C
330
70
100
AcDbEntity
  8
0
370
     9
100
AcDbSpline
210
0.0
220
0.0
230
1.0
 70
     8
 71
     3
 72
     8
 73
     4
 74
     0
 42
0.000000001
 43
0.0000000001
 40
2.0
 40
2.0
 40
2.0
 40
2.0
 40
3.0
 40
3.0
 40
3.0
 40
3.0
 10
44.41937732493236
 20
-10.75722974518771
 30
0.0
 10
44.38618061736468
 20
-10.68242202387481
 30
0.0
 10
44.29801131993729
 20
-10.49519548787528
 30
0.0
 10
44.18246098864474
 20
-10.49519548787528
 30
0.0
  0
SPLINE
  5
28D
330
70
100
AcDbEntity
  8
0
370
     9
100
AcDbSpline
210
0.0
220
0.0
230
1.0
 70
     8
 71
     3
 72
     8
 73
     4
 74
     0
 42
0.000000001
 43
0.0000000001
 40
0.0
 40
0.0
 40
0.0
 40
0.0
 40
1.0
 40
1.0
 40
1.0
 40
1.0
 10
45.57965685857783
 20
-12.90952242535235
 30
0.0
 10
45.57501879301456
 20
-12.85670768727305
 30
0.0
 10
45.56747618000899
 20
-12.80497187508364
 30
0.0
 10
45.55249292565231
 20
-12.75377552583918
 30
0.0
  0
SPLINE
  5
28E
330
70
100
AcDbEntity
  8
0
370
     9
100
AcDbSpline
210
0.0
220
0.0
230
1.0
 70
     8
 71
     3
 72
     8
 73
     4
 74
     0
 42
0.000000001
 43
0.0000000001
 40
1.0
 40
1.0
 40
1.0
 40
1.0
 40
2.0
 40
2.0
 40
2.0
 40
2.0
 10
45.55249292565231
 20
-12.75377552583918
 30
0.0
 10
45.54247009886197
 20
-12.71917095156224
 30
0.0
 10
45.51605944041433
 20
-12.63402133086489
 30
0.0
 10
45.46324470233503
 20
-12.63402133086489
 30
0.0
  0
SPLINE
  5
28F
330
70
100
AcDbEntity
  8
0
370
     9
100
AcDbSpline
210
0.0
220
0.0
230
1.0
 70
     8
 71
     3
 72
     8
 73
     4
 74
     0
 42
0.000000001
 43
0.0000000001
 40
0.0
 40
0.0
 40
0.0
 40
0.0
 40
1.0
 40
1.0
 40
1.0
 40
1.0
 10
46.07617657951745
 20
-11.83671483459417
 30
0.0
 10
46.07790022941476
 20
-11.58719348607987
 30
0.0
 10
46.06183804916692
 20
-11.34294176950299
 30
0.0
 10
46.01193443734655
 20
-11.0974071837292
 30
0.0
  0
SPLINE
  5
290
330
70
100
AcDbEntity
  8
0
370
     9
100
AcDbSpline
210
0.0
220
0.0
230
1.0
 70
     8
 71
     3
 72
     8
 73
     4
 74
     0
 42
0.000000001
 43
0.0000000001
 40
1.0
 40
1.0
 40
1.0
 40
1.0
 40
2.0
 40
2.0
 40
2.0
 40
2.0
 10
46.01193443734655
 20
-11.0974071837292
 30
0.0
 10
45.98714216773278
 20
-10.97506751390767
 30
0.0
 10
45.95556055959259
 20
-10.85693170776758
 30
0.0
 10
45.90403855893772
 20
-10.7423550413015
 30
0.0
  0
SPLINE
  5
291
330
70
100
AcDbEntity
  8
0
370
     9
100
AcDbSpline
210
0.0
220
0.0
230
1.0
 70
     8
 71
     3
 72
     8
 73
     4
 74
     0
 42
0.000000001
 43
0.0000000001
 40
2.0
 40
2.0
 40
2.0
 40
2.0
 40
3.0
 40
3.0
 40
3.0
 40
3.0
 10
45.90403855893772
 20
-10.7423550413015
 30
0.0
 10
45.86437158543708
 20
-10.65418574387507
 30
0.0
 10
45.77900486379945
 20
-10.49519548787528
 30
0.0
 10
45.65192515675891
 20
-10.49519548787528
 30
0.0
  0
SPLINE
  5
292
330
70
100
AcDbEntity
  8
0
370
     9
100
AcDbSpline
210
0.0
220
0.0
230
1.0
 70
     8
 71
     3
 72
     8
 73
     4
 74
     0
 42
0.000000001
 43
0.0000000001
 40
0.0
 40
0.0
 40
0.0
 40
0.0
 40
1.0
 40
1.0
 40
1.0
 40
1.0
 10
24.5885813113546
 20
-11.83671483459417
 30
0.0
 10
24.59806467519839
 20
-11.54537195020906
 30
0.0
 10
24.64570846358578
 20
-11.27848910520747
 30
0.0
 10
24.77149543320191
 20
-11.01117205832436
 30
0.0
  0
SPLINE
  5
293
330
70
100
AcDbEntity
  8
0
370
     9
100
AcDbSpline
210
0.0
220
0.0
230
1.0
 70
     8
 71
     3
 72
     8
 73
     4
 74
     0
 42
0.000000001
 43
0.0000000001
 40
1.0
 40
1.0
 40
1.0
 40
1.0
 40
2.0
 40
2.0
 40
2.0
 40
2.0
 10
24.77149543320191
 20
-11.01117205832436
 30
0.0
 10
24.87939131161139
 20
-10.78212398645467
 30
0.0
 10
25.0906535533369
 20
-10.49519548787528
 30
0.0
 10
25.39288766827667
 20
-10.49519548787528
 30
0.0
  0
SPLINE
  5
294
330
70
100
AcDbEntity
  8
0
370
     9
100
AcDbSpline
210
0.0
220
0.0
230
1.0
 70
     8
 71
     3
 72
     8
 73
     4
 74
     0
 42
0.000000001
 43
0.0000000001
 40
0.0
 40
0.0
 40
0.0
 40
0.0
 40
1.0
 40
1.0
 40
1.0
 40
1.0
 10
24.8250667351674
 20
-10.49521522432419
 30
0.0
 10
24.52239841834515
 20
-10.49521522432419
 30
0.0
 10
24.28968594573897
 20
-10.78387395161751
 30
0.0
 10
24.16659300143958
 20
-11.00634320708508
 30
0.0
  0
SPLINE
  5
295
330
70
100
AcDbEntity
  8
0
370
     9
100
AcDbSpline
210
0.0
220
0.0
230
1.0
 70
     8
 71
     3
 72
     8
 73
     4
 74
     0
 42
0.000000001
 43
0.0000000001
 40
1.0
 40
1.0
 40
1.0
 40
1.0
 40
2.0
 40
2.0
 40
2.0
 40
2.0
 10
24.16659300143958
 20
-11.00634320708508
 30
0.0
 10
24.020431437425
 20
-11.27053531617792
 30
0.0
 10
23.94896904425286
 20
-11.53989179614606
 30
0.0
 10
23.91631179963046
 20
-11.83674114986035
 30
0.0
  0
SPLINE
  5
296
330
70
100
AcDbEntity
  8
0
370
     9
100
AcDbSpline
210
0.0
220
0.0
230
1.0
 70
     8
 71
     3
 72
     8
 73
     4
 74
     0
 42
0.000000001
 43
0.0000000001
 40
0.0
 40
0.0
 40
0.0
 40
0.0
 40
1.0
 40
1.0
 40
1.0
 40
1.0
 10
22.59554861866142
 20
-11.83671483459417
 30
0.0
 10
22.61052858360978
 20
-11.52747756959378
 30
0.0
 10
22.67250761293812
 20
-11.25412774806915
 30
0.0
 10
22.83095511658433
 20
-10.98207395337597
 30
0.0
  0
SPLINE
  5
297
330
70
100
AcDbEntity
  8
0
370
     9
100
AcDbSpline
210
0.0
220
0.0
230
1.0
 70
     8
 71
     3
 72
     8
 73
     4
 74
     0
 42
0.000000001
 43
0.0000000001
 40
1.0
 40
1.0
 40
1.0
 40
1.0
 40
2.0
 40
2.0
 40
2.0
 40
2.0
 10
22.83095511658433
 20
-10.98207395337597
 30
0.0
 10
22.97269571597656
 20
-10.73869064056501
 30
0.0
 10
23.21748031668144
 20
-10.49519548787528
 30
0.0
 10
23.53372731055845
 20
-10.49519548787528
 30
0.0
  0
SPLINE
  5
298
330
70
100
AcDbEntity
  8
0
370
     9
100
AcDbSpline
210
0.0
220
0.0
230
1.0
 70
     8
 71
     3
 72
     8
 73
     4
 74
     0
 42
0.000000001
 43
0.0000000001
 40
0.0
 40
0.0
 40
0.0
 40
0.0
 40
1.0
 40
1.0
 40
1.0
 40
1.0
 10
23.03442803968981
 20
-10.49524811840635
 30
0.0
 10
22.71774684392968
 20
-10.49912962008408
 30
0.0
 10
22.46002829017745
 20
-10.74607207256905
 30
0.0
 10
22.30642937422009
 20
-10.98223184496951
 30
0.0
  0
SPLINE
  5
299
330
70
100
AcDbEntity
  8
0
370
     9
100
AcDbSpline
210
0.0
220
0.0
230
1.0
 70
     8
 71
     3
 72
     8
 73
     4
 74
     0
 42
0.000000001
 43
0.0000000001
 40
1.0
 40
1.0
 40
1.0
 40
1.0
 40
2.0
 40
2.0
 40
2.0
 40
2.0
 10
22.30642937422009
 20
-10.98223184496951
 30
0.0
 10
22.13257099315071
 20
-11.24965415291605
 30
0.0
 10
22.04914173294235
 20
-11.52386579938869
 30
0.0
 10
22.01292534864656
 20
-11.83666220406278
 30
0.0
  0
SPLINE
  5
29A
330
70
100
AcDbEntity
  8
0
370
     9
100
AcDbSpline
210
0.0
220
0.0
230
1.0
 70
     8
 71
     3
 72
     8
 73
     4
 74
     0
 42
0.000000001
 43
0.0000000001
 40
0.0
 40
0.0
 40
0.0
 40
0.0
 40
1.0
 40
1.0
 40
1.0
 40
1.0
 10
31.88292623284938
 20
-11.83671483459417
 30
0.0
 10
31.87872236916827
 20
-11.59581173556702
 30
0.0
 10
31.88799192147913
 20
-11.35771121232674
 30
0.0
 10
31.92215900446592
 20
-11.11853176319721
 30
0.0
  0
SPLINE
  5
29B
330
70
100
AcDbEntity
  8
0
370
     9
100
AcDbSpline
210
0.0
220
0.0
230
1.0
 70
     8
 71
     3
 72
     8
 73
     4
 74
     0
 42
0.000000001
 43
0.0000000001
 40
1.0
 40
1.0
 40
1.0
 40
1.0
 40
2.0
 40
2.0
 40
2.0
 40
2.0
 10
31.92215900446592
 20
-11.11853176319721
 30
0.0
 10
31.9391882707236
 20
-10.99921177010475
 30
0.0
 10
31.96139506549045
 20
-10.88226015091701
 30
0.0
 10
31.99847327473488
 20
-10.76703876044352
 30
0.0
  0
SPLINE
  5
29C
330
70
100
AcDbEntity
  8
0
370
     9
100
AcDbSpline
210
0.0
220
0.0
230
1.0
 70
     8
 71
     3
 72
     8
 73
     4
 74
     0
 42
0.000000001
 43
0.0000000001
 40
2.0
 40
2.0
 40
2.0
 40
2.0
 40
3.0
 40
3.0
 40
3.0
 40
3.0
 10
31.99847327473488
 20
-10.76703876044352
 30
0.0
 10
32.02283134246522
 20
-10.69136921418197
 30
0.0
 10
32.08696493416502
 20
-10.49519548787528
 30
0.0
 10
32.20423891535646
 20
-10.49519548787528
 30
0.0
  0
SPLINE
  5
29D
330
70
100
AcDbEntity
  8
0
370
     9
100
AcDbSpline
210
0.0
220
0.0
230
1.0
 70
     8
 71
     3
 72
     8
 73
     4
 74
     0
 42
0.000000001
 43
0.0000000001
 40
0.0
 40
0.0
 40
0.0
 40
0.0
 40
1.0
 40
1.0
 40
1.0
 40
1.0
 10
32.37964331828005
 20
-12.63399501559871
 30
0.0
 10
32.32962786658028
 20
-12.63399501559871
 30
0.0
 10
32.315292625639
 20
-12.72874312942791
 30
0.0
 10
32.30893419958611
 20
-12.7591372612071
 30
0.0
  0
SPLINE
  5
29E
330
70
100
AcDbEntity
  8
0
370
     9
100
AcDbSpline
210
0.0
220
0.0
230
1.0
 70
     8
 71
     3
 72
     8
 73
     4
 74
     0
 42
0.000000001
 43
0.0000000001
 40
1.0
 40
1.0
 40
1.0
 40
1.0
 40
2.0
 40
2.0
 40
2.0
 40
2.0
 10
32.30893419958611
 20
-12.7591372612071
 30
0.0
 10
32.29836862044379
 20
-12.80882706149615
 30
0.0
 10
32.29330293181404
 20
-12.85884580260424
 30
0.0
 10
32.29039509496373
 20
-12.90950268890344
 30
0.0
  0
SPLINE
  5
29F
330
70
100
AcDbEntity
  8
0
370
     9
100
AcDbSpline
210
0.0
220
0.0
230
1.0
 70
     8
 71
     3
 72
     8
 73
     4
 74
     0
 42
0.000000001
 43
0.0000000001
 40
0.0
 40
0.0
 40
0.0
 40
0.0
 40
1.0
 40
1.0
 40
1.0
 40
1.0
 10
26.71137457877053
 20
-11.83671483459417
 30
0.0
 10
26.71557515304396
 20
-11.56660179073954
 30
0.0
 10
26.74834423754483
 20
-11.31028452488123
 30
0.0
 10
26.83770101133192
 20
-11.05267123219179
 30
0.0
  0
SPLINE
  5
2A0
330
70
100
AcDbEntity
  8
0
370
     9
100
AcDbSpline
210
0.0
220
0.0
230
1.0
 70
     8
 71
     3
 72
     8
 73
     4
 74
     0
 42
0.000000001
 43
0.0000000001
 40
1.0
 40
1.0
 40
1.0
 40
1.0
 40
2.0
 40
2.0
 40
2.0
 40
2.0
 10
26.83770101133192
 20
-11.05267123219179
 30
0.0
 10
26.90700555272428
 20
-10.85337256809356
 30
0.0
 10
27.07138385935753
 20
-10.50597816795852
 30
0.0
 10
27.34645733077945
 20
-10.49541258881652
 30
0.0
  0
SPLINE
  5
2A1
330
70
100
AcDbEntity
  8
0
370
     9
100
AcDbSpline
210
0.0
220
0.0
230
1.0
 70
     8
 71
     3
 72
     8
 73
     4
 74
     0
 42
0.000000001
 43
0.0000000001
 40
0.0
 40
0.0
 40
0.0
 40
0.0
 40
1.0
 40
1.0
 40
1.0
 40
1.0
 10
29.42067590728799
 20
-10.49521522432419
 30
0.0
 10
29.18300300711388
 20
-10.49521522432419
 30
0.0
 10
29.05085432203686
 20
-10.94005505301348
 30
0.0
 10
29.00579929790438
 20
-11.08934155481896
 30
0.0
  0
SPLINE
  5
2A2
330
70
100
AcDbEntity
  8
0
370
     9
100
AcDbSpline
210
0.0
220
0.0
230
1.0
 70
     8
 71
     3
 72
     8
 73
     4
 74
     0
 42
0.000000001
 43
0.0000000001
 40
1.0
 40
1.0
 40
1.0
 40
1.0
 40
2.0
 40
2.0
 40
2.0
 40
2.0
 10
29.00579929790438
 20
-11.08934155481896
 30
0.0
 10
28.93153432894409
 20
-11.33477087953125
 30
0.0
 10
28.89100881990506
 20
-11.58225279496117
 30
0.0
 10
28.86858821360495
 20
-11.83674114986035
 30
0.0
  0
SPLINE
  5
2A3
330
70
100
AcDbEntity
  8
0
370
     9
100
AcDbSpline
210
0.0
220
0.0
230
1.0
 70
     8
 71
     3
 72
     8
 73
     4
 74
     0
 42
0.000000001
 43
0.0000000001
 40
0.0
 40
0.0
 40
0.0
 40
0.0
 40
1.0
 40
1.0
 40
1.0
 40
1.0
 10
31.58472164295626
 20
-10.49521522432419
 30
0.0
 10
31.46917131166243
 20
-10.49521522432419
 30
0.0
 10
31.38100201423568
 20
-10.68244833914002
 30
0.0
 10
31.34780201726034
 20
-10.75714422057383
 30
0.0
  0
SPLINE
  5
2A4
330
70
100
AcDbEntity
  8
0
370
     9
100
AcDbSpline
210
0.0
220
0.0
230
1.0
 70
     8
 71
     3
 72
     8
 73
     4
 74
     0
 42
0.000000001
 43
0.0000000001
 40
1.0
 40
1.0
 40
1.0
 40
1.0
 40
2.0
 40
2.0
 40
2.0
 40
2.0
 10
31.34780201726034
 20
-10.75714422057383
 30
0.0
 10
31.29725039202361
 20
-10.87064196115002
 30
0.0
 10
31.26157347067277
 20
-10.98759358033744
 30
0.0
 10
31.23117604948462
 20
-11.10745303637516
 30
0.0
  0
SPLINE
  5
2A5
330
70
100
AcDbEntity
  8
0
370
     9
100
AcDbSpline
210
0.0
220
0.0
230
1.0
 70
     8
 71
     3
 72
     8
 73
     4
 74
     0
 42
0.000000001
 43
0.0000000001
 40
2.0
 40
2.0
 40
2.0
 40
2.0
 40
3.0
 40
3.0
 40
3.0
 40
3.0
 10
31.23117604948462
 20
-11.10745303637516
 30
0.0
 10
31.17027923545512
 20
-11.34792193351984
 30
0.0
 10
31.13524703811137
 20
-11.59001579831661
 30
0.0
 10
31.11465863217968
 20
-11.83674114986035
 30
0.0
  0
SPLINE
  5
2A6
330
70
100
AcDbEntity
  8
0
370
     9
100
AcDbSpline
210
0.0
220
0.0
230
1.0
 70
     8
 71
     3
 72
     8
 73
     4
 74
     0
 42
0.000000001
 43
0.0000000001
 40
0.0
 40
0.0
 40
0.0
 40
0.0
 40
1.0
 40
1.0
 40
1.0
 40
1.0
 10
30.11531997359683
 20
-10.49521522432419
 30
0.0
 10
29.98823697714924
 20
-10.49521522432419
 30
0.0
 10
29.90287025551001
 20
-10.65410021926151
 30
0.0
 10
29.86320328201099
 20
-10.74226951668762
 30
0.0
  0
SPLINE
  5
2A7
330
70
100
AcDbEntity
  8
0
370
     9
100
AcDbSpline
210
0.0
220
0.0
230
1.0
 70
     8
 71
     3
 72
     8
 73
     4
 74
     0
 42
0.000000001
 43
0.0000000001
 40
1.0
 40
1.0
 40
1.0
 40
1.0
 40
2.0
 40
2.0
 40
2.0
 40
2.0
 10
29.86320328201099
 20
-10.74226951668762
 30
0.0
 10
29.81168128135482
 20
-10.85684618315466
 30
0.0
 10
29.78009967321464
 20
-10.97498198929412
 30
0.0
 10
29.75530740360183
 20
-11.09732165911564
 30
0.0
  0
SPLINE
  5
2A8
330
70
100
AcDbEntity
  8
0
370
     9
100
AcDbSpline
210
0.0
220
0.0
230
1.0
 70
     8
 71
     3
 72
     8
 73
     4
 74
     0
 42
0.000000001
 43
0.0000000001
 40
2.0
 40
2.0
 40
2.0
 40
2.0
 40
3.0
 40
3.0
 40
3.0
 40
3.0
 10
29.75530740360183
 20
-11.09732165911564
 30
0.0
 10
29.7054037917805
 20
-11.3428562448904
 30
0.0
 10
29.68934161153362
 20
-11.58710138265001
 30
0.0
 10
29.69106855083924
 20
-11.83674114986035
 30
0.0
  0
SPLINE
  5
2A9
330
70
100
AcDbEntity
  8
0
370
     9
100
AcDbSpline
210
0.0
220
0.0
230
1.0
 70
     8
 71
     3
 72
     8
 73
     4
 74
     0
 42
0.000000001
 43
0.0000000001
 40
0.0
 40
0.0
 40
0.0
 40
0.0
 40
1.0
 40
1.0
 40
1.0
 40
1.0
 10
30.3039938492044
 20
-12.63399501559871
 30
0.0
 10
30.25117582171678
 20
-12.63399501559871
 30
0.0
 10
30.22476845267713
 20
-12.71915121511333
 30
0.0
 10
30.21463707541729
 20
-12.75374921057396
 30
0.0
  0
SPLINE
  5
2AA
330
70
100
AcDbEntity
  8
0
370
     9
100
AcDbSpline
210
0.0
220
0.0
230
1.0
 70
     8
 71
     3
 72
     8
 73
     4
 74
     0
 42
0.000000001
 43
0.0000000001
 40
1.0
 40
1.0
 40
1.0
 40
1.0
 40
2.0
 40
2.0
 40
2.0
 40
2.0
 10
30.21463707541729
 20
-12.75374921057396
 30
0.0
 10
30.19976237153108
 20
-12.80495213863473
 30
0.0
 10
30.19221646911751
 20
-12.85668795082414
 30
0.0
 10
30.18758169296192
 20
-12.90950268890344
 30
0.0
  0
SPLINE
  5
2AB
330
70
100
AcDbEntity
  8
0
370
     9
100
AcDbSpline
210
0.0
220
0.0
230
1.0
 70
     8
 71
     3
 72
     8
 73
     4
 74
     0
 42
0.000000001
 43
0.0000000001
 40
0.0
 40
0.0
 40
0.0
 40
0.0
 40
1.0
 40
1.0
 40
1.0
 40
1.0
 10
34.68132118249761
 20
-10.49521522432419
 30
0.0
 10
34.56738924003862
 20
-10.49521522432419
 30
0.0
 10
34.51985400212265
 20
-10.70917807018338
 30
0.0
 10
34.50142344797105
 20
-10.77934772593302
 30
0.0
  0
SPLINE
  5
2AC
330
70
100
AcDbEntity
  8
0
370
     9
100
AcDbSpline
210
0.0
220
0.0
230
1.0
 70
     8
 71
     3
 72
     8
 73
     4
 74
     0
 42
0.000000001
 43
0.0000000001
 40
1.0
 40
1.0
 40
1.0
 40
1.0
 40
2.0
 40
2.0
 40
2.0
 40
2.0
 10
34.50142344797105
 20
-10.77934772593302
 30
0.0
 10
34.47124312772414
 20
-10.89435201546559
 30
0.0
 10
34.45345729757995
 20
-11.01054707076682
 30
0.0
 10
34.44009243205812
 20
-11.12836051490225
 30
0.0
  0
SPLINE
  5
2AD
330
70
100
AcDbEntity
  8
0
370
     9
100
AcDbSpline
210
0.0
220
0.0
230
1.0
 70
     8
 71
     3
 72
     8
 73
     4
 74
     0
 42
0.000000001
 43
0.0000000001
 40
2.0
 40
2.0
 40
2.0
 40
2.0
 40
3.0
 40
3.0
 40
3.0
 40
3.0
 10
34.44009243205812
 20
-11.12836051490225
 30
0.0
 10
34.41335941160645
 20
-11.36441502624121
 30
0.0
 10
34.40743189802804
 20
-11.59960771263119
 30
0.0
 10
34.41292849913228
 20
-11.83674114986035
 30
0.0
  0
SPLINE
  5
2AE
330
70
100
AcDbEntity
  8
0
370
     9
100
AcDbSpline
210
0.0
220
0.0
230
1.0
 70
     8
 71
     3
 72
     8
 73
     4
 74
     0
 42
0.000000001
 43
0.0000000001
 40
0.0
 40
0.0
 40
0.0
 40
0.0
 40
1.0
 40
1.0
 40
1.0
 40
1.0
 10
34.7759475882231
 20
-12.90952242535235
 30
0.0
 10
34.77810215059488
 20
-12.85994446494304
 30
0.0
 10
34.78198365227261
 20
-12.81068228772145
 30
0.0
 10
34.79038809022652
 20
-12.76164379025709
 30
0.0
  0
SPLINE
  5
2AF
330
70
100
AcDbEntity
  8
0
370
     9
100
AcDbSpline
210
0.0
220
0.0
230
1.0
 70
     8
 71
     3
 72
     8
 73
     4
 74
     0
 42
0.000000001
 43
0.0000000001
 40
1.0
 40
1.0
 40
1.0
 40
1.0
 40
2.0
 40
2.0
 40
2.0
 40
2.0
 10
34.79038809022652
 20
-12.76164379025709
 30
0.0
 10
34.79545706826491
 20
-12.73253910649208
 30
0.0
 10
34.8014931323141
 20
-12.63402133086489
 30
0.0
 10
34.85128819366464
 20
-12.63402133086489
 30
0.0
  0
SPLINE
  5
2B0
330
70
100
AcDbEntity
  8
0
370
     9
100
AcDbSpline
210
0.0
220
0.0
230
1.0
 70
     8
 71
     3
 72
     8
 73
     4
 74
     0
 42
0.000000001
 43
0.0000000001
 40
0.0
 40
0.0
 40
0.0
 40
0.0
 40
1.0
 40
1.0
 40
1.0
 40
1.0
 10
33.90983325119884
 20
-10.49521522432419
 30
0.0
 10
33.80225973479339
 20
-10.49521522432419
 30
0.0
 10
33.72960986526027
 20
-10.70799388323102
 30
0.0
 10
33.70557415953396
 20
-10.7740649363617
 30
0.0
  0
SPLINE
  5
2B1
330
70
100
AcDbEntity
  8
0
370
     9
100
AcDbSpline
210
0.0
220
0.0
230
1.0
 70
     8
 71
     3
 72
     8
 73
     4
 74
     0
 42
0.000000001
 43
0.0000000001
 40
1.0
 40
1.0
 40
1.0
 40
1.0
 40
2.0
 40
2.0
 40
2.0
 40
2.0
 10
33.70557415953396
 20
-10.7740649363617
 30
0.0
 10
33.66407498566654
 20
-10.8877797778788
 30
0.0
 10
33.63443412836522
 20
-11.0037577322388
 30
0.0
 10
33.608997134745
 20
-11.12178827731643
 30
0.0
  0
SPLINE
  5
2B2
330
70
100
AcDbEntity
  8
0
370
     9
100
AcDbSpline
210
0.0
220
0.0
230
1.0
 70
     8
 71
     3
 72
     8
 73
     4
 74
     0
 42
0.000000001
 43
0.0000000001
 40
2.0
 40
2.0
 40
2.0
 40
2.0
 40
3.0
 40
3.0
 40
3.0
 40
3.0
 10
33.608997134745
 20
-11.12178827731643
 30
0.0
 10
33.55801459703378
 20
-11.35827041172156
 30
0.0
 10
33.52750862537485
 20
-11.5959433118947
 30
0.0
 10
33.50843005780753
 20
-11.83674114986035
 30
0.0
  0
SPLINE
  5
2B3
330
70
100
AcDbEntity
  8
0
370
     9
100
AcDbSpline
210
0.0
220
0.0
230
1.0
 70
     8
 71
     3
 72
     8
 73
     4
 74
     0
 42
0.000000001
 43
0.0000000001
 40
0.0
 40
0.0
 40
0.0
 40
0.0
 40
1.0
 40
1.0
 40
1.0
 40
1.0
 10
26.7253348271767
 20
-10.49521522432419
 30
0.0
 10
26.4473502294968
 20
-10.49521522432419
 30
0.0
 10
26.24891339034754
 20
-10.84477405505532
 30
0.0
 10
26.16235919234796
 20
-11.04029647853829
 30
0.0
  0
SPLINE
  5
2B4
330
70
100
AcDbEntity
  8
0
370
     9
100
AcDbSpline
210
0.0
220
0.0
230
1.0
 70
     8
 71
     3
 72
     8
 73
     4
 74
     0
 42
0.000000001
 43
0.0000000001
 40
1.0
 40
1.0
 40
1.0
 40
1.0
 40
2.0
 40
2.0
 40
2.0
 40
2.0
 10
26.16235919234796
 20
-11.04029647853829
 30
0.0
 10
26.04842724988929
 20
-11.29780451016526
 30
0.0
 10
25.99076392412115
 20
-11.5587532627715
 30
0.0
 10
25.96241580424264
 20
-11.83674114986035
 30
0.0
  0
SPLINE
  5
2B5
330
70
100
AcDbEntity
  8
0
370
     9
100
AcDbSpline
210
0.0
220
0.0
230
1.0
 70
     8
 71
     3
 72
     8
 73
     4
 74
     0
 42
0.000000001
 43
0.0000000001
 40
0.0
 40
0.0
 40
0.0
 40
0.0
 40
1.0
 40
1.0
 40
1.0
 40
1.0
 10
7.614641254682018
 20
-27.03275442904836
 30
0.0
 10
7.67532425717923
 20
-27.06897739216012
 30
0.0
 10
7.737301641803093
 20
-27.10141753584161
 30
0.0
 10
7.802621065159415
 20
-27.12868672982926
 30
0.0
  0
SPLINE
  5
2B6
330
70
100
AcDbEntity
  8
0
370
     9
100
AcDbSpline
210
0.0
220
0.0
230
1.0
 70
     8
 71
     3
 72
     8
 73
     4
 74
     0
 42
0.000000001
 43
0.0000000001
 40
1.0
 40
1.0
 40
1.0
 40
1.0
 40
2.0
 40
2.0
 40
2.0
 40
2.0
 10
7.802621065159415
 20
-27.12868672982926
 30
0.0
 10
7.840669649823278
 20
-27.14453509854322
 30
0.0
 10
7.965703344961537
 20
-27.21911914009794
 30
0.0
 10
8.002783198910448
 20
-27.15746905159058
 30
0.0
  0
SPLINE
  5
2B7
330
70
100
AcDbEntity
  8
0
370
     9
100
AcDbSpline
210
0.0
220
0.0
230
1.0
 70
     8
 71
     3
 72
     8
 73
     4
 74
     0
 42
0.000000001
 43
0.0000000001
 40
0.0
 40
0.0
 40
0.0
 40
0.0
 40
1.0
 40
1.0
 40
1.0
 40
1.0
 10
7.588395066644222
 20
-27.01711658245933
 30
0.0
 10
7.527710419443495
 20
-26.98090019816355
 30
0.0
 10
7.469612891792878
 20
-26.94167071595564
 30
0.0
 10
7.414641124285558
 20
-26.89715186535915
 30
0.0
  0
SPLINE
  5
2B8
330
70
100
AcDbEntity
  8
0
370
     9
100
AcDbSpline
210
0.0
220
0.0
230
1.0
 70
     8
 71
     3
 72
     8
 73
     4
 74
     0
 42
0.000000001
 43
0.0000000001
 40
1.0
 40
1.0
 40
1.0
 40
1.0
 40
2.0
 40
2.0
 40
2.0
 40
2.0
 10
7.414641124285558
 20
-26.89715186535915
 30
0.0
 10
7.382520875552182
 20
-26.87106685832353
 30
0.0
 10
7.25716399605846
 20
-26.79691043983401
 30
0.0
 10
7.294243027655292
 20
-26.73493141050631
 30
0.0
  0
SPLINE
  5
2B9
330
70
100
AcDbEntity
  8
0
370
     9
100
AcDbSpline
210
0.0
220
0.0
230
1.0
 70
     8
 71
     3
 72
     8
 73
     4
 74
     0
 42
0.000000001
 43
0.0000000001
 40
0.0
 40
0.0
 40
0.0
 40
0.0
 40
1.0
 40
1.0
 40
1.0
 40
1.0
 10
16.95774473320788
 20
-11.08197328044816
 30
0.0
 10
16.95300140658151
 20
-11.0791772834776
 30
0.0
 10
16.9624864151301
 20
-11.08477585623568
 30
0.0
 10
16.96474952797203
 20
-11.08617714412959
 30
0.0
  0
SPLINE
  5
2BA
330
70
100
AcDbEntity
  8
0
370
     9
100
AcDbSpline
210
0.0
220
0.0
230
1.0
 70
     8
 71
     3
 72
     8
 73
     4
 74
     0
 42
0.000000001
 43
0.0000000001
 40
1.0
 40
1.0
 40
1.0
 40
1.0
 40
2.0
 40
2.0
 40
2.0
 40
2.0
 10
16.96474952797203
 20
-11.08617714412959
 30
0.0
 10
16.97046323001815
 20
-11.08963102274114
 30
0.0
 10
16.97617528735948
 20
-11.09297306147392
 30
0.0
 10
16.98178043893419
 20
-11.0964203612682
 30
0.0
  0
SPLINE
  5
2BB
330
70
100
AcDbEntity
  8
0
370
     9
100
AcDbSpline
210
0.0
220
0.0
230
1.0
 70
     8
 71
     3
 72
     8
 73
     4
 74
     0
 42
0.000000001
 43
0.0000000001
 40
2.0
 40
2.0
 40
2.0
 40
2.0
 40
3.0
 40
3.0
 40
3.0
 40
3.0
 10
16.98178043893419
 20
-11.0964203612682
 30
0.0
 10
16.99320619832132
 20
-11.10310443873344
 30
0.0
 10
17.00452340723799
 20
-11.1098937772605
 30
0.0
 10
17.01584061615402
 20
-11.11668311578853
 30
0.0
  0
SPLINE
  5
2BC
330
70
100
AcDbEntity
  8
0
370
     9
100
AcDbSpline
210
0.0
220
0.0
230
1.0
 70
     8
 71
     3
 72
     8
 73
     4
 74
     0
 42
0.000000001
 43
0.0000000001
 40
3.0
 40
3.0
 40
3.0
 40
3.0
 40
4.0
 40
4.0
 40
4.0
 40
4.0
 10
17.01584061615402
 20
-11.11668311578853
 30
0.0
 10
17.03858522916199
 20
-11.13026837165959
 30
0.0
 10
17.06121964699469
 20
-11.14374178765189
 30
0.0
 10
17.08396261529786
 20
-11.15732046470698
 30
0.0
  0
SPLINE
  5
2BD
330
70
100
AcDbEntity
  8
0
370
     9
100
AcDbSpline
210
0.0
220
0.0
230
1.0
 70
     8
 71
     3
 72
     8
 73
     4
 74
     0
 42
0.000000001
 43
0.0000000001
 40
0.0
 40
0.0
 40
0.0
 40
0.0
 40
1.0
 40
1.0
 40
1.0
 40
1.0
 10
59.06592127936511
 20
-11.50062284103904
 30
0.0
 10
59.55699702973189
 20
-11.08920339967497
 30
0.0
 10
59.51614257987092
 20
-10.32164631117669
 30
0.0
 10
58.98421237964573
 20
-9.964653417910765
 30
0.0
  0
SPLINE
  5
2BE
330
70
100
AcDbEntity
  8
0
370
     9
100
AcDbSpline
210
0.0
220
0.0
230
1.0
 70
     8
 71
     3
 72
     8
 73
     4
 74
     0
 42
0.000000001
 43
0.0000000001
 40
1.0
 40
1.0
 40
1.0
 40
1.0
 40
2.0
 40
2.0
 40
2.0
 40
2.0
 10
58.98421237964573
 20
-9.964653417910765
 30
0.0
 10
58.4522821794199
 20
-9.607772364523937
 30
0.0
 10
57.72644794454723
 20
-9.860859431528242
 30
0.0
 10
57.53188602825843
 20
-10.47125517498683
 30
0.0
  0
SPLINE
  5
2BF
330
70
100
AcDbEntity
  8
0
370
     9
100
AcDbSpline
210
0.0
220
0.0
230
1.0
 70
     8
 71
     3
 72
     8
 73
     4
 74
     0
 42
0.000000001
 43
0.0000000001
 40
0.0
 40
0.0
 40
0.0
 40
0.0
 40
1.0
 40
1.0
 40
1.0
 40
1.0
 10
57.19147833114405
 20
-10.93125917548259
 30
0.0
 10
57.06234274397821
 20
-9.964844203586148
 30
0.0
 10
58.02704064479526
 20
-9.220674807399401
 30
0.0
 10
58.92900953121312
 20
-9.590818754653913
 30
0.0
  0
SPLINE
  5
2C0
330
70
100
AcDbEntity
  8
0
370
     9
100
AcDbSpline
210
0.0
220
0.0
230
1.0
 70
     8
 71
     3
 72
     8
 73
     4
 74
     0
 42
0.000000001
 43
0.0000000001
 40
1.0
 40
1.0
 40
1.0
 40
1.0
 40
2.0
 40
2.0
 40
2.0
 40
2.0
 10
58.92900953121312
 20
-9.590818754653913
 30
0.0
 10
59.83097183881309
 20
-9.961067962971533
 30
0.0
 10
59.99459358156208
 20
-11.16839261271175
 30
0.0
 10
59.2238062942085
 20
-11.76542678005682
 30
0.0
  0
SPLINE
  5
2C1
330
70
100
AcDbEntity
  8
0
370
     9
100
AcDbSpline
210
0.0
220
0.0
230
1.0
 70
     8
 71
     3
 72
     8
 73
     4
 74
     0
 42
0.000000001
 43
0.0000000001
 40
0.0
 40
0.0
 40
0.0
 40
0.0
 40
1.0
 40
1.0
 40
1.0
 40
1.0
 10
68.18161481130504
 20
-27.0154324054605
 30
0.0
 10
68.24175835085729
 20
-26.97943312210627
 30
0.0
 10
68.29931641556266
 20
-26.94052600190143
 30
0.0
 10
68.3537495424771
 20
-26.89622425224649
 30
0.0
  0
SPLINE
  5
2C2
330
70
100
AcDbEntity
  8
0
370
     9
100
AcDbSpline
210
0.0
220
0.0
230
1.0
 70
     8
 71
     3
 72
     8
 73
     4
 74
     0
 42
0.000000001
 43
0.0000000001
 40
1.0
 40
1.0
 40
1.0
 40
1.0
 40
2.0
 40
2.0
 40
2.0
 40
2.0
 10
68.3537495424771
 20
-26.89622425224649
 30
0.0
 10
68.38554496214989
 20
-26.87046160721458
 30
0.0
 10
68.50917407998561
 20
-26.79619334884694
 30
0.0
 10
68.47295769568983
 20
-26.73497088340414
 30
0.0
  0
SPLINE
  5
2C3
330
70
100
AcDbEntity
  8
0
370
     9
100
AcDbSpline
210
0.0
220
0.0
230
1.0
 70
     8
 71
     3
 72
     8
 73
     4
 74
     0
 42
0.000000001
 43
0.0000000001
 40
0.0
 40
0.0
 40
0.0
 40
0.0
 40
1.0
 40
1.0
 40
1.0
 40
1.0
 10
67.76449811493671
 20
-27.15750852448904
 30
0.0
 10
67.80146448430206
 20
-27.21948755381674
 30
0.0
 10
67.92617910684493
 20
-27.14457457144169
 30
0.0
 10
67.96444150304107
 20
-27.12862752048157
 30
0.0
  0
SPLINE
  5
2C4
330
70
100
AcDbEntity
  8
0
370
     9
100
AcDbSpline
210
0.0
220
0.0
230
1.0
 70
     8
 71
     3
 72
     8
 73
     4
 74
     0
 42
0.000000001
 43
0.0000000001
 40
1.0
 40
1.0
 40
1.0
 40
1.0
 40
2.0
 40
2.0
 40
2.0
 40
2.0
 10
67.96444150304107
 20
-27.12862752048157
 30
0.0
 10
68.02976257110187
 20
-27.10146358755542
 30
0.0
 10
68.09184686149236
 20
-27.06901686505859
 30
0.0
 10
68.1525298639899
 20
-27.03280048076344
 30
0.0
  0
LINE
  5
2CC
330
70
100
AcDbEntity
  8
0
100
AcDbLine
 10
7.294221646501582
 20
-32.64023203382939
 30
0.0
 11
68.52373957950137
 21
-32.64023203382939
 31
0.0
  0
LINE
  5
2CD
330
70
100
AcDbEntity
  8
0
100
AcDbLine
 10
80.49120723933219
 20
-9.961067962971533
 30
0.0
 11
80.49120723933219
 21
-24.00003848618309
 31
0.0
  0
MTEXT
  5
2D7
330
70
100
AcDbEntity
  8
Livello 2
100
AcDbMText
 10
25.83596699612242
 20
-37.4402099846284
 30
0.0
 40
6.4
 41
2124.285538349534
 46
0.0
 71
     1
 72
     5
  1
241
 73
     1
 44
1.0
101
Embedded Object
 70
     1
 10
1.0
 20
0.0
 30
0.0
 11
25.83596699612242
 21
-37.4402099846284
 31
0.0
 40
2124.285538349534
 41
0.0
 42
14.93333333333333
 43
6.400000000000001
 71
     2
 72
     1
 44
2124.285538349534
 45
32.0
 73
     0
 74
     0
 46
0.0
  0
MTEXT
  5
2E0
330
70
100
AcDbEntity
  8
Livello 2
100
AcDbMText
 10
83.211725354696
 20
-13.90173528614188
 30
0.0
 40
6.4
 41
2124.285538349534
 46
0.0
 71
     1
 72
     5
  1
60
 73
     1
 44
1.0
101
Embedded Object
 70
     1
 10
1.0
 20
0.0
 30
0.0
 11
83.211725354696
 21
-13.90173528614188
 31
0.0
 40
2124.285538349534
 41
0.0
 42
9.599999999999999
 43
6.4
 71
     2
 72
     1
 44
2124.285538349534
 45
32.0
 73
     0
 74
     0
 46
0.0
  0
ENDSEC
  0
SECTION
  2
OBJECTS
  0
DICTIONARY
  5
C
330
0
100
AcDbDictionary
281
     1
  3
ACAD_CIP_PREVIOUS_PRODUCT_INFO
350
225
  3
ACAD_COLOR
350
63
  3
ACAD_DETAILVIEWSTYLE
350
6A
  3
ACAD_GROUP
350
D
  3
ACAD_LAYOUT
350
62
  3
ACAD_MATERIAL
350
10
  3
ACAD_MLEADERSTYLE
350
66
  3
ACAD_MLINESTYLE
350
5F
  3
ACAD_PLOTSETTINGS
350
61
  3
ACAD_PLOTSTYLENAME
350
E
  3
ACAD_SCALELIST
350
42
  3
ACAD_SECTIONVIEWSTYLE
350
68
  3
ACAD_TABLESTYLE
350
64
  3
ACAD_VISUALSTYLE
350
29
  3
ACDB_RECOMPOSE_DATA
350
2E9
  3
AcDbVariableDictionary
350
21B
  0
DICTIONARY
  5
228
330
70
100
AcDbDictionary
280
     1
281
     1
  3
ACAD_SORTENTS
360
229
  0
XRECORD
  5
225
102
{ACAD_REACTORS
330
C
102
}
330
C
100
AcDbXrecord
280
     1
300
ACD
300
2022
300

  0
DICTIONARY
  5
63
102
{ACAD_REACTORS
330
C
102
}
330
C
100
AcDbDictionary
281
     1
  0
DICTIONARY
  5
6A
102
{ACAD_REACTORS
330
C
102
}
330
C
100
AcDbDictionary
281
     1
  3
Imperial24
350
6B
  0
DICTIONARY
  5
D
102
{ACAD_REACTORS
330
C
102
}
330
C
100
AcDbDictionary
281
     1
  0
DICTIONARY
  5
62
102
{ACAD_REACTORS
330
C
102
}
330
C
100
AcDbDictionary
281
     1
  3
Layout1
350
6F
  3
Layout2
350
77
  3
Model
350
73
  0
DICTIONARY
  5
10
102
{ACAD_REACTORS
330
C
102
}
330
C
100
AcDbDictionary
281
     1
  3
ByBlock
350
19
  3
ByLayer
350
11
  3
Global
350
21
  0
DICTIONARY
  5
66
102
{ACAD_REACTORS
330
C
102
}
330
C
100
AcDbDictionary
281
     1
  3
Standard
350
67
  0
DICTIONARY
  5
5F
102
{ACAD_REACTORS
330
C
102
}
330
C
100
AcDbDictionary
281
     1
  3
Standard
350
60
  0
DICTIONARY
  5
61
102
{ACAD_REACTORS
330
C
102
}
330
C
100
AcDbDictionary
281
     1
  0
ACDBDICTIONARYWDFLT
  5
E
102
{ACAD_REACTORS
330
C
102
}
330
C
100
AcDbDictionary
281
     1
  3
Normal
350
F
100
AcDbDictionaryWithDefault
340
F
  0
DICTIONARY
  5
42
102
{ACAD_REACTORS
330
C
102
}
330
C
100
AcDbDictionary
281
     1
  3
A0
350
43
  3
A1
350
44
  3
A2
350
45
  3
A3
350
46
  3
A4
350
47
  3
A5
350
48
  3
A6
350
49
  3
A7
350
4A
  3
A8
350
4B
  3
A9
350
4C
  3
B0
350
4D
  3
B1
350
4E
  3
B2
350
4F
  3
B3
350
50
  3
B4
350
51
  3
B5
350
52
  3
B6
350
53
  0
DICTIONARY
  5
68
102
{ACAD_REACTORS
330
C
102
}
330
C
100
AcDbDictionary
281
     1
  3
Imperial24
350
69
  0
DICTIONARY
  5
64
102
{ACAD_REACTORS
330
C
102
}
330
C
100
AcDbDictionary
281
     1
  3
Standard
350
65
  0
DICTIONARY
  5
29
102
{ACAD_REACTORS
330
C
102
}
330
C
100
AcDbDictionary
281
     1
  3
2dWireframe
350
2F
  3
Basic
350
2E
  3
Brighten
350
35
  3
ColorChange
350
39
  3
Conceptual
350
32
  3
Dim
350
34
  3
EdgeColorOff
350
41
  3
Facepattern
350
38
  3
Flat
350
2A
  3
FlatWithEdges
350
2B
  3
Gouraud
350
2C
  3
GouraudWithEdges
350
2D
  3
Hidden
350
31
  3
JitterOff
350
3F
  3
Linepattern
350
37
  3
OverhangOff
350
40
  3
Realistic
350
33
  3
Shaded
350
3E
  3
Shaded with edges
350
3D
  3
Shades of Gray
350
3A
  3
Sketchy
350
3B
  3
Thicken
350
36
  3
Wireframe
350
30
  3
X-Ray
350
3C
  0
XRECORD
  5
2E9
102
{ACAD_REACTORS
330
C
102
}
330
C
100
AcDbXrecord
280
     1
 90
        1
330
65
  0
DICTIONARY
  5
21B
102
{ACAD_REACTORS
330
C
102
}
330
C
100
AcDbDictionary
281
     1
  3
CANNOSCALE
350
220
  3
CMLEADERSTYLE
350
21D
  3
CTABLESTYLE
350
21C
  3
CVIEWDETAILSTYLE
350
21E
  3
CVIEWSECTIONSTYLE
350
21F
  0
SORTENTSTABLE
  5
229
102
{ACAD_REACTORS
330
228
102
}
330
228
100
AcDbSortentsTable
330
70
331
9A
  5
A6
331
9B
  5
A7
331
A5
  5
15E
331
A6
  5
15F
331
A7
  5
160
331
A9
  5
161
331
AC
  5
162
331
B2
  5
179
331
B5
  5
180
331
BE
  5
186
331
C9
  5
191
331
CE
  5
195
331
D9
  5
1B8
331
DA
  5
1B9
331
DB
  5
1BA
331
DC
  5
1BB
331
DD
  5
1BC
331
DE
  5
1BD
331
DF
  5
1BE
331
E1
  5
1BF
331
E3
  5
1C2
331
E5
  5
1C5
331
E6
  5
1C6
331
EA
  5
1C7
331
EB
  5
1C8
331
EC
  5
1C9
331
EE
  5
1CA
331
EF
  5
1CB
331
F3
  5
1CC
331
F5
  5
1CD
331
F8
  5
1D0
331
FE
  5
1D5
331
102
  5
1D8
331
107
  5
1DC
331
10C
  5
1E1
331
115
  5
22F
331
118
  5
232
331
11A
  5
233
331
11B
  5
234
331
11C
  5
235
331
11D
  5
236
331
11E
  5
237
331
11F
  5
238
331
122
  5
23C
331
125
  5
23F
331
126
  5
240
331
127
  5
241
331
128
  5
242
331
129
  5
243
331
12A
  5
244
331
12D
  5
245
331
130
  5
246
331
131
  5
247
331
132
  5
248
331
133
  5
249
331
134
  5
24A
331
135
  5
24B
331
136
  5
24C
331
139
  5
24D
331
13C
  5
24E
331
13D
  5
24F
331
13E
  5
250
331
13F
  5
251
331
140
  5
252
331
141
  5
253
331
142
  5
254
331
147
  5
258
331
148
  5
259
331
15A
  5
25A
331
15B
  5
25B
331
15D
  5
25C
331
15E
  5
25D
331
15F
  5
25E
331
160
  5
25F
331
161
  5
260
331
162
  5
261
331
163
  5
262
331
165
  5
263
331
179
  5
266
331
17A
  5
267
331
17B
  5
268
331
17E
  5
269
331
17F
  5
26A
331
180
  5
26B
331
181
  5
26C
331
182
  5
26D
331
183
  5
26E
331
185
  5
26F
331
186
  5
270
331
187
  5
271
331
188
  5
272
331
189
  5
273
331
18A
  5
274
331
18B
  5
275
331
18C
  5
276
331
18D
  5
277
331
18E
  5
278
331
18F
  5
279
331
190
  5
27A
331
191
  5
27B
331
192
  5
27C
331
193
  5
27D
331
194
  5
27E
331
195
  5
27F
331
196
  5
280
331
19C
  5
281
331
19D
  5
282
331
19E
  5
283
331
19F
  5
284
331
1A1
  5
285
331
1A3
  5
286
331
1A5
  5
287
331
1A8
  5
28A
331
1A9
  5
28B
331
1B0
  5
28E
331
1B2
  5
28F
331
1B8
  5
298
331
1B9
  5
299
331
1BA
  5
29A
331
1BB
  5
29B
331
1BC
  5
29C
331
1BD
  5
29D
331
1BE
  5
29E
331
1BF
  5
29F
331
1C2
  5
2A2
331
1C5
  5
2A5
331
1C6
  5
2A6
331
1C7
  5
2A7
331
1C8
  5
2A8
331
1C9
  5
2A9
331
1CA
  5
2AA
331
1CB
  5
2AB
331
1CC
  5
2AC
331
1CD
  5
2AD
331
1CE
  5
2AE
331
1CF
  5
2AF
331
1D0
  5
2B0
331
1D1
  5
2B1
331
1D2
  5
2B2
331
1D3
  5
2B3
331
1D4
  5
2B4
331
1D5
  5
2B5
331
1D6
  5
2B6
331
1D7
  5
2B7
331
1D8
  5
2B8
331
1D9
  5
2B9
331
1DA
  5
2BA
331
1DB
  5
2BB
331
1DC
  5
2BC
331
1DD
  5
2BD
331
1DE
  5
2BE
331
1DF
  5
2BF
331
1E0
  5
2C0
331
1E1
  5
2C1
331
1E2
  5
2C2
331
1E3
  5
2C3
331
1E4
  5
2C4
331
22A
  5
9A
331
22B
  5
9B
331
22C
  5
A5
331
22D
  5
A9
331
22E
  5
AC
331
22F
  5
B2
331
230
  5
B5
331
231
  5
BE
331
232
  5
C9
331
233
  5
CE
331
234
  5
D9
331
235
  5
DA
331
236
  5
DB
331
237
  5
DC
331
238
  5
DD
331
239
  5
DE
331
23A
  5
DF
331
23B
  5
E1
331
23C
  5
E3
331
23D
  5
E5
331
23E
  5
E6
331
23F
  5
EA
331
240
  5
EB
331
241
  5
EC
331
242
  5
EE
331
243
  5
EF
331
244
  5
F3
331
245
  5
F5
331
246
  5
F8
331
247
  5
FE
331
248
  5
102
331
249
  5
107
331
24A
  5
10C
331
24B
  5
115
331
24C
  5
118
331
24D
  5
11A
331
24E
  5
11B
331
24F
  5
11C
331
250
  5
11D
331
251
  5
11E
331
252
  5
11F
331
253
  5
122
331
254
  5
125
331
255
  5
126
331
256
  5
127
331
257
  5
128
331
258
  5
129
331
259
  5
12A
331
25A
  5
12D
331
25B
  5
130
331
25C
  5
131
331
25D
  5
132
331
25E
  5
133
331
25F
  5
134
331
260
  5
135
331
261
  5
136
331
262
  5
139
331
263
  5
13C
331
264
  5
13D
331
265
  5
13E
331
266
  5
13F
331
267
  5
140
331
268
  5
141
331
269
  5
142
331
26A
  5
147
331
26B
  5
148
331
26C
  5
15A
331
26D
  5
15B
331
26E
  5
15D
331
26F
  5
163
331
270
  5
165
331
271
  5
17A
331
272
  5
17B
331
273
  5
17E
331
274
  5
17F
331
275
  5
181
331
276
  5
182
331
277
  5
183
331
278
  5
185
331
279
  5
187
331
27A
  5
188
331
27B
  5
189
331
27C
  5
18A
331
27D
  5
18B
331
27E
  5
18C
331
27F
  5
18D
331
280
  5
18E
331
281
  5
18F
331
282
  5
190
331
283
  5
192
331
284
  5
193
331
285
  5
194
331
286
  5
196
331
287
  5
19C
331
288
  5
19D
331
289
  5
19E
331
28A
  5
19F
331
28B
  5
1A1
331
28C
  5
1A3
331
28D
  5
1A5
331
28E
  5
1A8
331
28F
  5
1A9
331
290
  5
1B0
331
291
  5
1B2
331
292
  5
1CE
331
293
  5
1CF
331
294
  5
1D1
331
295
  5
1D2
331
296
  5
1D3
331
297
  5
1D4
331
298
  5
1D6
331
299
  5
1D7
331
29A
  5
1D9
331
29B
  5
1DA
331
29C
  5
1DB
331
29D
  5
1DD
331
29E
  5
1DE
331
29F
  5
1DF
331
2A0
  5
1E0
331
2A1
  5
1E2
331
2A2
  5
1E3
331
2A3
  5
1E4
331
2A4
  5
22A
331
2A5
  5
22B
331
2A6
  5
22C
331
2A7
  5
22D
331
2A8
  5
22E
331
2A9
  5
230
331
2AA
  5
231
331
2AB
  5
239
331
2AC
  5
23A
331
2AD
  5
23B
331
2AE
  5
23D
331
2AF
  5
23E
331
2B0
  5
255
331
2B1
  5
256
331
2B2
  5
257
331
2B3
  5
264
331
2B4
  5
265
331
2B5
  5
288
331
2B6
  5
289
331
2B7
  5
28C
331
2B8
  5
28D
331
2B9
  5
290
331
2BA
  5
291
331
2BB
  5
292
331
2BC
  5
293
331
2BD
  5
294
331
2BE
  5
295
331
2BF
  5
296
331
2C0
  5
297
331
2C1
  5
2A0
331
2C2
  5
2A1
331
2C3
  5
2A3
331
2C4
  5
2A4
  0
ACDBDETAILVIEWSTYLE
  5
6B
102
{ACAD_REACTORS
330
6A
102
}
330
6A
100
AcDbModelDocViewStyle
 70
     0
  3
Imperial24
290
     0
300
Imperial24
 90
        0
100
AcDbDetailViewStyle
 70
     0
 71
     0
 90
        3
 71
     1
340
55
 62
   256
 40
0.24
340
0
 62
   256
 40
0.24
300

 40
0.36
280
     3
 71
     2
340
5D
 90
       25
 62
   256
 71
     3
340
55
 62
   256
 40
0.24
 90
        1
 40
0.75
 90
        1
300
%<\AcVar ViewType \f "%tc1">% %<\AcVar ViewDetailId>%\PSCALE %<\AcVar ViewScale \f "%sn">%
 71
     4
340
5D
 90
       25
 62
   256
340
5D
 90
       25
 62
   256
280
     0
  0
LAYOUT
  5
6F
102
{ACAD_REACTORS
330
62
102
}
330
62
100
AcDbPlotSettings
  1

  2

  4

  6

 40
0.0
 41
0.0
 42
0.0
 43
0.0
 44
0.0
 45
0.0
 46
0.0
 47
0.0
 48
0.0
 49
0.0
140
0.0
141
0.0
142
1.0
143
1.0
 70
   688
 72
     0
 73
     0
 74
     5
  7

 75
    16
147
1.0
 76
     0
 77
     2
 78
   300
148
0.0
149
0.0
100
AcDbLayout
  1
Layout1
 70
     1
 71
     1
 10
0.0
 20
0.0
 11
12.0
 21
9.0
 12
0.0
 22
0.0
 32
0.0
 14
1.000000000000000E+20
 24
1.000000000000000E+20
 34
1.000000000000000E+20
 15
-1.000000000000000E+20
 25
-1.000000000000000E+20
 35
-1.000000000000000E+20
146
0.0
 13
0.0
 23
0.0
 33
0.0
 16
1.0
 26
0.0
 36
0.0
 17
0.0
 27
1.0
 37
0.0
 76
     0
330
6C
  0
LAYOUT
  5
77
102
{ACAD_REACTORS
330
62
102
}
330
62
100
AcDbPlotSettings
  1

  2

  4

  6

 40
0.0
 41
0.0
 42
0.0
 43
0.0
 44
0.0
 45
0.0
 46
0.0
 47
0.0
 48
0.0
 49
0.0
140
0.0
141
0.0
142
1.0
143
1.0
 70
   688
 72
     0
 73
     0
 74
     5
  7

 75
    16
147
1.0
 76
     0
 77
     2
 78
   300
148
0.0
149
0.0
100
AcDbLayout
  1
Layout2
 70
     1
 71
     2
 10
0.0
 20
0.0
 11
12.0
 21
9.0
 12
0.0
 22
0.0
 32
0.0
 14
0.0
 24
0.0
 34
0.0
 15
0.0
 25
0.0
 35
0.0
146
0.0
 13
0.0
 23
0.0
 33
0.0
 16
1.0
 26
0.0
 36
0.0
 17
0.0
 27
1.0
 37
0.0
 76
     0
330
74
  0
LAYOUT
  5
73
102
{ACAD_REACTORS
330
62
102
}
330
62
100
AcDbPlotSettings
  1

  2

  4

  6

 40
0.0
 41
0.0
 42
0.0
 43
0.0
 44
0.0
 45
0.0
 46
0.0
 47
0.0
 48
0.0
 49
0.0
140
0.0
141
0.0
142
1.0
143
1.0
 70
  1712
 72
     0
 73
     0
 74
     0
  7

 75
     0
147
1.0
 76
     0
 77
     2
 78
   300
148
0.0
149
0.0
100
AcDbLayout
  1
Model
 70
     1
 71
     0
 10
0.0
 20
0.0
 11
12.0
 21
9.0
 12
0.0
 22
0.0
 32
0.0
 14
0.0
 24
0.0
 34
0.0
 15
0.0
 25
0.0
 35
0.0
146
0.0
 13
0.0
 23
0.0
 33
0.0
 16
1.0
 26
0.0
 36
0.0
 17
0.0
 27
1.0
 37
0.0
 76
     0
330
70
331
57
  0
MATERIAL
  5
19
102
{ACAD_XDICTIONARY
360
1A
102
}
102
{ACAD_REACTORS
330
10
102
}
330
10
100
AcDbMaterial
  1
ByBlock
 72
     0
 43
0.0208333333333333
 43
0.0
 43
0.0
 43
0.0
 43
0.0
 43
0.0208333333333333
 43
0.0
 43
0.0
 43
0.0
 43
0.0
 43
1.0
 43
0.0
 43
0.0
 43
0.0
 43
0.0
 43
1.0
 77
     0
 47
0.0208333333333333
 47
0.0
 47
0.0
 47
0.0
 47
0.0
 47
0.0208333333333333
 47
0.0
 47
0.0
 47
0.0
 47
0.0
 47
1.0
 47
0.0
 47
0.0
 47
0.0
 47
0.0
 47
1.0
171
     0
 49
0.0208333333333333
 49
0.0
 49
0.0
 49
0.0
 49
0.0
 49
0.0208333333333333
 49
0.0
 49
0.0
 49
0.0
 49
0.0
 49
1.0
 49
0.0
 49
0.0
 49
0.0
 49
0.0
 49
1.0
175
     0
142
0.0208333333333333
142
0.0
142
0.0
142
0.0
142
0.0
142
0.0208333333333333
142
0.0
142
0.0
142
0.0
142
0.0
142
1.0
142
0.0
142
0.0
142
0.0
142
0.0
142
1.0
179
     0
144
0.0208333333333333
144
0.0
144
0.0
144
0.0
144
0.0
144
0.0208333333333333
144
0.0
144
0.0
144
0.0
144
0.0
144
1.0
144
0.0
144
0.0
144
0.0
144
0.0
144
1.0
147
0.0208333333333333
147
0.0
147
0.0
147
0.0
147
0.0
147
0.0208333333333333
147
0.0
147
0.0
147
0.0
147
0.0
147
1.0
147
0.0
147
0.0
147
0.0
147
0.0
147
1.0
  0
MATERIAL
  5
11
102
{ACAD_XDICTIONARY
360
12
102
}
102
{ACAD_REACTORS
330
10
102
}
330
10
100
AcDbMaterial
  1
ByLayer
 72
     0
 43
0.0208333333333333
 43
0.0
 43
0.0
 43
0.0
 43
0.0
 43
0.0208333333333333
 43
0.0
 43
0.0
 43
0.0
 43
0.0
 43
1.0
 43
0.0
 43
0.0
 43
0.0
 43
0.0
 43
1.0
 77
     0
 47
0.0208333333333333
 47
0.0
 47
0.0
 47
0.0
 47
0.0
 47
0.0208333333333333
 47
0.0
 47
0.0
 47
0.0
 47
0.0
 47
1.0
 47
0.0
 47
0.0
 47
0.0
 47
0.0
 47
1.0
171
     0
 49
0.0208333333333333
 49
0.0
 49
0.0
 49
0.0
 49
0.0
 49
0.0208333333333333
 49
0.0
 49
0.0
 49
0.0
 49
0.0
 49
1.0
 49
0.0
 49
0.0
 49
0.0
 49
0.0
 49
1.0
175
     0
142
0.0208333333333333
142
0.0
142
0.0
142
0.0
142
0.0
142
0.0208333333333333
142
0.0
142
0.0
142
0.0
142
0.0
142
1.0
142
0.0
142
0.0
142
0.0
142
0.0
142
1.0
179
     0
144
0.0208333333333333
144
0.0
144
0.0
144
0.0
144
0.0
144
0.0208333333333333
144
0.0
144
0.0
144
0.0
144
0.0
144
1.0
144
0.0
144
0.0
144
0.0
144
0.0
144
1.0
147
0.0208333333333333
147
0.0
147
0.0
147
0.0
147
0.0
147
0.0208333333333333
147
0.0
147
0.0
147
0.0
147
0.0
147
1.0
147
0.0
147
0.0
147
0.0
147
0.0
147
1.0
  0
MATERIAL
  5
21
102
{ACAD_XDICTIONARY
360
22
102
}
102
{ACAD_REACTORS
330
10
102
}
330
10
100
AcDbMaterial
  1
Global
 72
     0
 43
0.0208333333333333
 43
0.0
 43
0.0
 43
0.0
 43
0.0
 43
0.0208333333333333
 43
0.0
 43
0.0
 43
0.0
 43
0.0
 43
1.0
 43
0.0
 43
0.0
 43
0.0
 43
0.0
 43
1.0
 77
     0
 47
0.0208333333333333
 47
0.0
 47
0.0
 47
0.0
 47
0.0
 47
0.0208333333333333
 47
0.0
 47
0.0
 47
0.0
 47
0.0
 47
1.0
 47
0.0
 47
0.0
 47
0.0
 47
0.0
 47
1.0
171
     0
 49
0.0208333333333333
 49
0.0
 49
0.0
 49
0.0
 49
0.0
 49
0.0208333333333333
 49
0.0
 49
0.0
 49
0.0
 49
0.0
 49
1.0
 49
0.0
 49
0.0
 49
0.0
 49
0.0
 49
1.0
175
     0
142
0.0208333333333333
142
0.0
142
0.0
142
0.0
142
0.0
142
0.0208333333333333
142
0.0
142
0.0
142
0.0
142
0.0
142
1.0
142
0.0
142
0.0
142
0.0
142
0.0
142
1.0
179
     0
144
0.0208333333333333
144
0.0
144
0.0
144
0.0
144
0.0
144
0.0208333333333333
144
0.0
144
0.0
144
0.0
144
0.0
144
1.0
144
0.0
144
0.0
144
0.0
144
0.0
144
1.0
147
0.0208333333333333
147
0.0
147
0.0
147
0.0
147
0.0
147
0.0208333333333333
147
0.0
147
0.0
147
0.0
147
0.0
147
1.0
147
0.0
147
0.0
147
0.0
147
0.0
147
1.0
  0
MLEADERSTYLE
  5
67
102
{ACAD_REACTORS
330
66
102
}
330
66
100
AcDbMLeaderStyle
179
     2
170
     2
171
     1
172
     0
 90
        2
 40
0.0
 41
0.0
173
     1
 91
-1056964608
340
5B
 92
       -2
290
     1
 42
0.09
291
     1
 43
0.36
  3
Standard
 44
0.18
300

342
55
174
     1
178
     6
175
     1
176
     0
 93
-1056964608
 45
0.18
292
     0
297
     0
 46
0.18
 94
-1056964608
 47
1.0
 49
1.0
140
1.0
293
     1
141
0.0
294
     1
177
     0
142
1.0
295
     0
296
     0
143
0.125
271
     0
272
     9
273
     9
298
     1
  0
MLINESTYLE
  5
60
102
{ACAD_REACTORS
330
5F
102
}
330
5F
100
AcDbMlineStyle
  2
STANDARD
 70
     0
  3

 62
   256
 51
90.0
 52
90.0
 71
     2
 49
0.5
 62
   256
  6
BYLAYER
 49
-0.5
 62
   256
  6
BYLAYER
  0
ACDBPLACEHOLDER
  5
F
102
{ACAD_REACTORS
330
E
102
}
330
E
  0
SCALE
  5
43
102
{ACAD_REACTORS
330
42
102
}
330
42
100
AcDbScale
 70
     0
300
1:1
140
1.0
141
1.0
290
     1
  0
SCALE
  5
44
102
{ACAD_REACTORS
330
42
102
}
330
42
100
AcDbScale
 70
     0
300
1/128" = 1'-0"
140
0.0078125
141
12.0
290
     0
  0
SCALE
  5
45
102
{ACAD_REACTORS
330
42
102
}
330
42
100
AcDbScale
 70
     0
300
1/64" = 1'-0"
140
0.015625
141
12.0
290
     0
  0
SCALE
  5
46
102
{ACAD_REACTORS
330
42
102
}
330
42
100
AcDbScale
 70
     0
300
1/32" = 1'-0"
140
0.03125
141
12.0
290
     0
  0
SCALE
  5
47
102
{ACAD_REACTORS
330
42
102
}
330
42
100
AcDbScale
 70
     0
300
1/16" = 1'-0"
140
0.0625
141
12.0
290
     0
  0
SCALE
  5
48
102
{ACAD_REACTORS
330
42
102
}
330
42
100
AcDbScale
 70
     0
300
3/32" = 1'-0"
140
0.09375
141
12.0
290
     0
  0
SCALE
  5
49
102
{ACAD_REACTORS
330
42
102
}
330
42
100
AcDbScale
 70
     0
300
1/8" = 1'-0"
140
0.125
141
12.0
290
     0
  0
SCALE
  5
4A
102
{ACAD_REACTORS
330
42
102
}
330
42
100
AcDbScale
 70
     0
300
3/16" = 1'-0"
140
0.1875
141
12.0
290
     0
  0
SCALE
  5
4B
102
{ACAD_REACTORS
330
42
102
}
330
42
100
AcDbScale
 70
     0
300
1/4" = 1'-0"
140
0.25
141
12.0
290
     0
  0
SCALE
  5
4C
102
{ACAD_REACTORS
330
42
102
}
330
42
100
AcDbScale
 70
     0
300
3/8" = 1'-0"
140
0.375
141
12.0
290
     0
  0
SCALE
  5
4D
102
{ACAD_REACTORS
330
42
102
}
330
42
100
AcDbScale
 70
     0
300
1/2" = 1'-0"
140
0.5
141
12.0
290
     0
  0
SCALE
  5
4E
102
{ACAD_REACTORS
330
42
102
}
330
42
100
AcDbScale
 70
     0
300
3/4" = 1'-0"
140
0.75
141
12.0
290
     0
  0
SCALE
  5
4F
102
{ACAD_REACTORS
330
42
102
}
330
42
100
AcDbScale
 70
     0
300
1" = 1'-0"
140
1.0
141
12.0
290
     0
  0
SCALE
  5
50
102
{ACAD_REACTORS
330
42
102
}
330
42
100
AcDbScale
 70
     0
300
1-1/2" = 1'-0"
140
1.5
141
12.0
290
     0
  0
SCALE
  5
51
102
{ACAD_REACTORS
330
42
102
}
330
42
100
AcDbScale
 70
     0
300
3" = 1'-0"
140
3.0
141
12.0
290
     0
  0
SCALE
  5
52
102
{ACAD_REACTORS
330
42
102
}
330
42
100
AcDbScale
 70
     0
300
6" = 1'-0"
140
6.0
141
12.0
290
     0
  0
SCALE
  5
53
102
{ACAD_REACTORS
330
42
102
}
330
42
100
AcDbScale
 70
     0
300
1'-0" = 1'-0"
140
12.0
141
12.0
290
     0
  0
ACDBSECTIONVIEWSTYLE
  5
69
102
{ACAD_REACTORS
330
68
102
}
330
68
100
AcDbModelDocViewStyle
 70
     0
  3
Imperial24
290
     0
300
Imperial24
 90
        0
100
AcDbSectionViewStyle
 70
     0
 71
     0
 90
       78
 71
     1
340
55
 62
   256
 40
0.24
340
0
340
0
 62
   256
 40
0.24
300
I, O, Q, S, X, Z
 40
0.48
 90
        3
 40
0.18
 90
        1
 71
     2
340
5D
 90
       25
 62
   256
340
5D
 90
       50
 62
   256
 40
0.24
 40
0.0
 40
0.24
 71
     3
340
55
 62
   256
 40
0.24
 90
        1
 40
0.75
 90
        1
300
%<\AcVar ViewType \f "%tc1">% %<\AcVar ViewSectionStartId>%-%<\AcVar ViewSectionEndId>%\PSCALE %<\AcVar ViewScale \f "%sn">%
 71
     4
 62
   256
 62
   257
300
ANSI31
 40
1.0
 90
        0
290
     0
290
     0
 90
        6
 40
0.0
 40
1.570796326794896
 40
0.2617993877991494
 40
1.308996938995747
 40
-0.2617993877991494
 40
1.832595714594046
  0
TABLESTYLE
  5
65
102
{ACAD_XDICTIONARY
360
2E7
102
}
102
{ACAD_REACTORS
330
64
102
}
330
64
100
AcDbTableStyle
280
     0
  3
Standard
 70
     0
 71
     0
 40
0.06
 41
0.06
280
     0
281
     0
  7
Standard
140
0.18
170
     2
 62
     0
 63
     7
283
     0
 90
      512
 91
        0
  1

274
    -2
284
     1
 64
     0
275
    -2
285
     1
 65
     0
276
    -2
286
     1
 66
     0
277
    -2
287
     1
 67
     0
278
    -2
288
     1
 68
     0
279
    -2
289
     1
 69
     0
  7
Standard
140
0.25
170
     5
 62
     0
 63
     7
283
     0
 90
      512
 91
        0
  1

274
    -2
284
     1
 64
     0
275
    -2
285
     1
 65
     0
276
    -2
286
     1
 66
     0
277
    -2
287
     1
 67
     0
278
    -2
288
     1
 68
     0
279
    -2
289
     1
 69
     0
  7
Standard
140
0.18
170
     5
 62
     0
 63
     7
283
     0
 90
      512
 91
        0
  1

274
    -2
284
     1
 64
     0
275
    -2
285
     1
 65
     0
276
    -2
286
     1
 66
     0
277
    -2
287
     1
 67
     0
278
    -2
288
     1
 68
     0
279
    -2
289
     1
 69
     0
  0
VISUALSTYLE
  5
2F
102
{ACAD_REACTORS
330
29
102
}
330
29
100
AcDbVisualStyle
  2
2dWireframe
 70
     4
177
     3
291
     0
 70
    58
 90
        0
176
     1
 90
        2
176
     1
 90
        0
176
     1
 90
        0
176
     1
 40
0.6
176
     1
 40
30.0
176
     1
 62
     7
420
 16777215
176
     1
 90
        1
176
     1
 90
        4
176
     1
 62
     7
176
     1
 62
   257
176
     1
 90
        1
176
     1
 90
        1
176
     1
 40
1.0
176
     1
 90
        0
176
     1
 62
   257
176
     1
 40
1.0
176
     1
 90
        1
176
     1
 90
        6
176
     1
 90
        2
176
     1
 62
     7
176
     1
 90
        5
176
     1
 90
        0
176
     1
 90
        0
176
     1
290
     0
176
     1
 90
        1
176
     1
 40
0.0
176
     1
 90
        0
176
     1
290
     1
176
     1
290
     1
176
     1
290
     0
176
     1
290
     0
176
     1
290
     0
176
     1
290
     0
176
     1
290
     0
176
     1
290
     0
176
     1
290
     0
176
     1
 90
       50
176
     1
 40
0.0
176
     1
 40
1.0
176
     1
 90
        0
176
     1
 62
    18
420
        0
176
     1
 90
       50
176
     1
 90
        3
176
     1
 62
     5
420
      255
176
     1
290
     0
176
     1
 90
       50
176
     1
 90
       50
176
     1
 90
       50
176
     1
290
     0
176
     1
 90
       50
176
     1
 62
   256
176
     0
 40
1.0
176
     0
 90
        2
176
     1
  1
strokes_ogs.tif
176
     1
290
     0
176
     1
 40
1.0
176
     1
 40
1.0
176
     1
  0
VISUALSTYLE
  5
2E
102
{ACAD_REACTORS
330
29
102
}
330
29
100
AcDbVisualStyle
  2
Basic
 70
     7
177
     3
291
     1
 70
    58
 90
        1
176
     1
 90
        0
176
     1
 90
        1
176
     1
 90
        0
176
     1
 40
0.6
176
     1
 40
30.0
176
     1
 62
     7
420
 16777215
176
     1
 90
        0
176
     1
 90
        4
176
     1
 62
     7
176
     1
 62
   257
176
     1
 90
        1
176
     1
 90
        1
176
     1
 40
1.0
176
     1
 90
        8
176
     1
 62
     7
176
     1
 40
1.0
176
     1
 90
        1
176
     1
 90
        6
176
     1
 90
        2
176
     1
 62
     7
176
     1
 90
        5
176
     1
 90
        0
176
     1
 90
        0
176
     1
290
     0
176
     1
 90
        1
176
     1
 40
0.0
176
     1
 90
        0
176
     1
290
     0
176
     1
290
     1
176
     1
290
     1
176
     1
290
     0
176
     1
290
     0
176
     1
290
     0
176
     1
290
     0
176
     1
290
     0
176
     1
290
     0
176
     1
 90
       50
176
     1
 40
0.0
176
     1
 40
1.0
176
     1
 90
        0
176
     1
 62
    18
420
        0
176
     1
 90
       50
176
     1
 90
        3
176
     1
 62
     5
420
      255
176
     1
290
     0
176
     1
 90
       50
176
     1
 90
       50
176
     1
 90
       50
176
     1
290
     0
176
     1
 90
       50
176
     1
 62
   256
176
     0
 40
1.0
176
     0
 90
        2
176
     1
  1
strokes_ogs.tif
176
     1
290
     0
176
     1
 40
1.0
176
     1
 40
1.0
176
     1
  0
VISUALSTYLE
  5
35
102
{ACAD_REACTORS
330
29
102
}
330
29
100
AcDbVisualStyle
  2
Brighten
 70
    12
177
     3
291
     1
 70
    58
 90
        2
176
     1
 90
        2
176
     1
 90
        0
176
     1
 90
        0
176
     1
 40
0.6
176
     1
 40
30.0
176
     1
 62
     7
420
 16777215
176
     1
 90
        1
176
     1
 90
        4
176
     1
 62
     7
176
     1
 62
   257
176
     1
 90
        1
176
     1
 90
        1
176
     1
 40
1.0
176
     1
 90
        8
176
     1
 62
     7
176
     1
 40
1.0
176
     1
 90
        1
176
     1
 90
        6
176
     1
 90
        2
176
     1
 62
     7
176
     1
 90
        5
176
     1
 90
        0
176
     1
 90
        0
176
     1
290
     0
176
     1
 90
        1
176
     1
 40
50.0
176
     1
 90
        0
176
     1
290
     0
176
     1
290
     1
176
     1
290
     1
176
     1
290
     0
176
     1
290
     0
176
     1
290
     0
176
     1
290
     0
176
     1
290
     0
176
     1
290
     0
176
     1
 90
       50
176
     1
 40
0.0
176
     1
 40
1.0
176
     1
 90
        0
176
     1
 62
    18
420
        0
176
     1
 90
       50
176
     1
 90
        3
176
     1
 62
     5
420
      255
176
     1
290
     0
176
     1
 90
       50
176
     1
 90
       50
176
     1
 90
       50
176
     1
290
     0
176
     1
 90
       50
176
     1
 62
   256
176
     0
 40
1.0
176
     0
 90
        2
176
     1
  1
strokes_ogs.tif
176
     1
290
     0
176
     1
 40
1.0
176
     1
 40
1.0
176
     1
  0
VISUALSTYLE
  5
39
102
{ACAD_REACTORS
330
29
102
}
330
29
100
AcDbVisualStyle
  2
ColorChange
 70
    16
177
     3
291
     1
 70
    58
 90
        2
176
     1
 90
        2
176
     1
 90
        3
176
     1
 90
        0
176
     1
 40
0.6
176
     1
 40
30.0
176
     1
 62
     8
420
  8421504
176
     1
 90
        1
176
     1
 90
        4
176
     1
 62
     7
176
     1
 62
   257
176
     1
 90
        1
176
     1
 90
        1
176
     1
 40
1.0
176
     1
 90
        8
176
     1
 62
     8
420
  8421504
176
     1
 40
1.0
176
     1
 90
        1
176
     1
 90
        6
176
     1
 90
        2
176
     1
 62
     7
176
     1
 90
        5
176
     1
 90
        0
176
     1
 90
        0
176
     1
290
     0
176
     1
 90
        1
176
     1
 40
0.0
176
     1
 90
        0
176
     1
290
     0
176
     1
290
     1
176
     1
290
     1
176
     1
290
     0
176
     1
290
     0
176
     1
290
     0
176
     1
290
     0
176
     1
290
     0
176
     1
290
     0
176
     1
 90
       50
176
     1
 40
0.0
176
     1
 40
1.0
176
     1
 90
        0
176
     1
 62
    18
420
        0
176
     1
 90
       50
176
     1
 90
        3
176
     1
 62
     5
420
      255
176
     1
290
     0
176
     1
 90
       50
176
     1
 90
       50
176
     1
 90
       50
176
     1
290
     0
176
     1
 90
       50
176
     1
 62
   256
176
     0
 40
1.0
176
     0
 90
        2
176
     1
  1
strokes_ogs.tif
176
     1
290
     0
176
     1
 40
1.0
176
     1
 40
1.0
176
     1
  0
VISUALSTYLE
  5
32
102
{ACAD_REACTORS
330
29
102
}
330
29
100
AcDbVisualStyle
  2
Conceptual
 70
     9
177
     3
291
     0
 70
    58
 90
        3
176
     1
 90
        2
176
     1
 90
        0
176
     1
 90
        0
176
     1
 40
0.6
176
     1
 40
30.0
176
     1
 62
     7
420
 16777215
176
     1
 90
        2
176
     1
 90
        2
176
     1
 62
     7
176
     1
 62
   257
176
     1
 90
        1
176
     1
 90
        1
176
     1
 40
179.0
176
     1
 90
        8
176
     1
 62
     7
176
     1
 40
1.0
176
     1
 90
        1
176
     1
 90
        6
176
     1
 90
        2
176
     1
 62
     7
176
     1
 90
        3
176
     1
 90
        0
176
     1
 90
        0
176
     1
290
     0
176
     1
 90
        1
176
     1
 40
0.0
176
     1
 90
        0
176
     1
290
     0
176
     1
290
     1
176
     1
290
     1
176
     1
290
     0
176
     1
290
     0
176
     1
290
     0
176
     1
290
     0
176
     1
290
     0
176
     1
290
     0
176
     1
 90
       50
176
     1
 40
0.0
176
     1
 40
1.0
176
     1
 90
        0
176
     1
 62
    18
420
        0
176
     1
 90
       50
176
     1
 90
        3
176
     1
 62
     5
420
      255
176
     1
290
     0
176
     1
 90
       50
176
     1
 90
       50
176
     1
 90
       50
176
     1
290
     0
176
     1
 90
       50
176
     1
 62
   256
176
     0
 40
1.0
176
     0
 90
        2
176
     1
  1
strokes_ogs.tif
176
     1
290
     0
176
     1
 40
1.0
176
     1
 40
1.0
176
     1
  0
VISUALSTYLE
  5
34
102
{ACAD_REACTORS
330
29
102
}
330
29
100
AcDbVisualStyle
  2
Dim
 70
    11
177
     3
291
     1
 70
    58
 90
        2
176
     1
 90
        2
176
     1
 90
        0
176
     1
 90
        0
176
     1
 40
0.6
176
     1
 40
30.0
176
     1
 62
     7
420
 16777215
176
     1
 90
        1
176
     1
 90
        4
176
     1
 62
     7
176
     1
 62
   257
176
     1
 90
        1
176
     1
 90
        1
176
     1
 40
1.0
176
     1
 90
        8
176
     1
 62
     7
176
     1
 40
1.0
176
     1
 90
        1
176
     1
 90
        6
176
     1
 90
        2
176
     1
 62
     7
176
     1
 90
        5
176
     1
 90
        0
176
     1
 90
        0
176
     1
290
     0
176
     1
 90
        1
176
     1
 40
-50.0
176
     1
 90
        0
176
     1
290
     0
176
     1
290
     1
176
     1
290
     1
176
     1
290
     0
176
     1
290
     0
176
     1
290
     0
176
     1
290
     0
176
     1
290
     0
176
     1
290
     0
176
     1
 90
       50
176
     1
 40
0.0
176
     1
 40
1.0
176
     1
 90
        0
176
     1
 62
    18
420
        0
176
     1
 90
       50
176
     1
 90
        3
176
     1
 62
     5
420
      255
176
     1
290
     0
176
     1
 90
       50
176
     1
 90
       50
176
     1
 90
       50
176
     1
290
     0
176
     1
 90
       50
176
     1
 62
   256
176
     0
 40
1.0
176
     0
 90
        2
176
     1
  1
strokes_ogs.tif
176
     1
290
     0
176
     1
 40
1.0
176
     1
 40
1.0
176
     1
  0
VISUALSTYLE
  5
41
102
{ACAD_REACTORS
330
29
102
}
330
29
100
AcDbVisualStyle
  2
EdgeColorOff
 70
    22
177
     3
291
     1
 70
    58
 90
        2
176
     0
 90
        2
176
     0
 90
        0
176
     0
 90
        0
176
     0
 40
0.6
176
     0
 40
30.0
176
     0
 62
     7
420
 16777215
176
     0
 90
        1
176
     0
 90
        4
176
     0
 62
     7
176
     0
 62
   257
176
     0
 90
        1
176
     0
 90
        1
176
     0
 40
1.0
176
     0
 90
        8
176
     2
 62
     7
176
     0
 40
1.0
176
     0
 90
        1
176
     0
 90
        6
176
     0
 90
        2
176
     0
 62
     7
176
     0
 90
        5
176
     0
 90
        0
176
     0
 90
        0
176
     0
290
     0
176
     0
 90
        1
176
     0
 40
0.0
176
     0
 90
        0
176
     0
290
     0
176
     0
290
     1
176
     0
290
     1
176
     0
290
     0
176
     0
290
     0
176
     0
290
     0
176
     0
290
     0
176
     0
290
     0
176
     0
290
     0
176
     0
 90
       50
176
     0
 40
0.0
176
     0
 40
1.0
176
     0
 90
        0
176
     0
 62
    18
420
        0
176
     0
 90
       50
176
     0
 90
        3
176
     0
 62
     5
420
      255
176
     0
290
     0
176
     0
 90
       50
176
     0
 90
       50
176
     0
 90
       50
176
     0
290
     0
176
     0
 90
       50
176
     0
 62
   256
176
     0
 40
1.0
176
     0
 90
        2
176
     0
  1
strokes_ogs.tif
176
     0
290
     0
176
     0
 40
1.0
176
     0
 40
1.0
176
     0
  0
VISUALSTYLE
  5
38
102
{ACAD_REACTORS
330
29
102
}
330
29
100
AcDbVisualStyle
  2
Facepattern
 70
    15
177
     3
291
     1
 70
    58
 90
        2
176
     1
 90
        2
176
     1
 90
        0
176
     1
 90
        0
176
     1
 40
0.6
176
     1
 40
30.0
176
     1
 62
     7
420
 16777215
176
     1
 90
        1
176
     1
 90
        4
176
     1
 62
     7
176
     1
 62
   257
176
     1
 90
        1
176
     1
 90
        1
176
     1
 40
1.0
176
     1
 90
        8
176
     1
 62
     7
176
     1
 40
1.0
176
     1
 90
        1
176
     1
 90
        6
176
     1
 90
        2
176
     1
 62
     7
176
     1
 90
        5
176
     1
 90
        0
176
     1
 90
        0
176
     1
290
     0
176
     1
 90
        1
176
     1
 40
0.0
176
     1
 90
        0
176
     1
290
     0
176
     1
290
     1
176
     1
290
     1
176
     1
290
     0
176
     1
290
     0
176
     1
290
     0
176
     1
290
     0
176
     1
290
     0
176
     1
290
     0
176
     1
 90
       50
176
     1
 40
0.0
176
     1
 40
1.0
176
     1
 90
        0
176
     1
 62
    18
420
        0
176
     1
 90
       50
176
     1
 90
        3
176
     1
 62
     5
420
      255
176
     1
290
     0
176
     1
 90
       50
176
     1
 90
       50
176
     1
 90
       50
176
     1
290
     0
176
     1
 90
       50
176
     1
 62
   256
176
     0
 40
1.0
176
     0
 90
        2
176
     1
  1
strokes_ogs.tif
176
     1
290
     0
176
     1
 40
1.0
176
     1
 40
1.0
176
     1
  0
VISUALSTYLE
  5
2A
102
{ACAD_REACTORS
330
29
102
}
330
29
100
AcDbVisualStyle
  2
Flat
 70
     0
177
     3
291
     1
 70
    58
 90
        2
176
     1
 90
        1
176
     1
 90
        1
176
     1
 90
        2
176
     1
 40
0.6
176
     1
 40
30.0
176
     1
 62
     7
420
 16777215
176
     1
 90
        0
176
     1
 90
        0
176
     1
 62
     7
176
     1
 62
   257
176
     1
 90
        1
176
     1
 90
        1
176
     1
 40
1.0
176
     1
 90
        8
176
     1
 62
     7
176
     1
 40
1.0
176
     1
 90
        1
176
     1
 90
        6
176
     1
 90
        2
176
     1
 62
     7
176
     1
 90
        5
176
     1
 90
        0
176
     1
 90
        0
176
     1
290
     0
176
     1
 90
       13
176
     1
 40
0.0
176
     1
 90
        0
176
     1
290
     0
176
     1
290
     1
176
     1
290
     1
176
     1
290
     0
176
     1
290
     0
176
     1
290
     0
176
     1
290
     0
176
     1
290
     0
176
     1
290
     0
176
     1
 90
       50
176
     1
 40
0.0
176
     1
 40
1.0
176
     1
 90
        0
176
     1
 62
    18
420
        0
176
     1
 90
       50
176
     1
 90
        3
176
     1
 62
     5
420
      255
176
     1
290
     0
176
     1
 90
       50
176
     1
 90
       50
176
     1
 90
       50
176
     1
290
     0
176
     1
 90
       50
176
     1
 62
   256
176
     0
 40
1.0
176
     0
 90
        2
176
     1
  1
strokes_ogs.tif
176
     1
290
     0
176
     1
 40
1.0
176
     1
 40
1.0
176
     1
  0
VISUALSTYLE
  5
2B
102
{ACAD_REACTORS
330
29
102
}
330
29
100
AcDbVisualStyle
  2
FlatWithEdges
 70
     1
177
     3
291
     1
 70
    58
 90
        2
176
     1
 90
        1
176
     1
 90
        1
176
     1
 90
        2
176
     1
 40
0.6
176
     1
 40
30.0
176
     1
 62
     7
420
 16777215
176
     1
 90
        1
176
     1
 90
        0
176
     1
 62
     7
176
     1
 62
   257
176
     1
 90
        1
176
     1
 90
        1
176
     1
 40
1.0
176
     1
 90
        0
176
     1
 62
   257
176
     1
 40
1.0
176
     1
 90
        1
176
     1
 90
        6
176
     1
 90
        2
176
     1
 62
     7
176
     1
 90
        5
176
     1
 90
        0
176
     1
 90
        0
176
     1
290
     0
176
     1
 90
       13
176
     1
 40
0.0
176
     1
 90
        0
176
     1
290
     0
176
     1
290
     1
176
     1
290
     1
176
     1
290
     0
176
     1
290
     0
176
     1
290
     0
176
     1
290
     0
176
     1
290
     0
176
     1
290
     0
176
     1
 90
       50
176
     1
 40
0.0
176
     1
 40
1.0
176
     1
 90
        0
176
     1
 62
    18
420
        0
176
     1
 90
       50
176
     1
 90
        3
176
     1
 62
     5
420
      255
176
     1
290
     0
176
     1
 90
       50
176
     1
 90
       50
176
     1
 90
       50
176
     1
290
     0
176
     1
 90
       50
176
     1
 62
   256
176
     0
 40
1.0
176
     0
 90
        2
176
     1
  1
strokes_ogs.tif
176
     1
290
     0
176
     1
 40
1.0
176
     1
 40
1.0
176
     1
  0
VISUALSTYLE
  5
2C
102
{ACAD_REACTORS
330
29
102
}
330
29
100
AcDbVisualStyle
  2
Gouraud
 70
     2
177
     3
291
     1
 70
    58
 90
        2
176
     1
 90
        2
176
     1
 90
        1
176
     1
 90
        2
176
     1
 40
0.6
176
     1
 40
30.0
176
     1
 62
     7
420
 16777215
176
     1
 90
        0
176
     1
 90
        0
176
     1
 62
     7
176
     1
 62
   257
176
     1
 90
        1
176
     1
 90
        1
176
     1
 40
1.0
176
     1
 90
        0
176
     1
 62
     7
176
     1
 40
1.0
176
     1
 90
        1
176
     1
 90
        6
176
     1
 90
        2
176
     1
 62
     7
176
     1
 90
        5
176
     1
 90
        0
176
     1
 90
        0
176
     1
290
     0
176
     1
 90
       13
176
     1
 40
0.0
176
     1
 90
        0
176
     1
290
     0
176
     1
290
     1
176
     1
290
     1
176
     1
290
     0
176
     1
290
     0
176
     1
290
     0
176
     1
290
     0
176
     1
290
     0
176
     1
290
     0
176
     1
 90
       50
176
     1
 40
0.0
176
     1
 40
1.0
176
     1
 90
        0
176
     1
 62
    18
420
        0
176
     1
 90
       50
176
     1
 90
        3
176
     1
 62
     5
420
      255
176
     1
290
     0
176
     1
 90
       50
176
     1
 90
       50
176
     1
 90
       50
176
     1
290
     0
176
     1
 90
       50
176
     1
 62
   256
176
     0
 40
1.0
176
     0
 90
        2
176
     1
  1
strokes_ogs.tif
176
     1
290
     0
176
     1
 40
1.0
176
     1
 40
1.0
176
     1
  0
VISUALSTYLE
  5
2D
102
{ACAD_REACTORS
330
29
102
}
330
29
100
AcDbVisualStyle
  2
GouraudWithEdges
 70
     3
177
     3
291
     1
 70
    58
 90
        2
176
     1
 90
        2
176
     1
 90
        1
176
     1
 90
        2
176
     1
 40
0.6
176
     1
 40
30.0
176
     1
 62
     7
420
 16777215
176
     1
 90
        1
176
     1
 90
        0
176
     1
 62
     7
176
     1
 62
   257
176
     1
 90
        1
176
     1
 90
        1
176
     1
 40
1.0
176
     1
 90
        0
176
     1
 62
   257
176
     1
 40
1.0
176
     1
 90
        1
176
     1
 90
        6
176
     1
 90
        2
176
     1
 62
     7
176
     1
 90
        5
176
     1
 90
        0
176
     1
 90
        0
176
     1
290
     0
176
     1
 90
       13
176
     1
 40
0.0
176
     1
 90
        0
176
     1
290
     0
176
     1
290
     1
176
     1
290
     1
176
     1
290
     0
176
     1
290
     0
176
     1
290
     0
176
     1
290
     0
176
     1
290
     0
176
     1
290
     0
176
     1
 90
       50
176
     1
 40
0.0
176
     1
 40
1.0
176
     1
 90
        0
176
     1
 62
    18
420
        0
176
     1
 90
       50
176
     1
 90
        3
176
     1
 62
     5
420
      255
176
     1
290
     0
176
     1
 90
       50
176
     1
 90
       50
176
     1
 90
       50
176
     1
290
     0
176
     1
 90
       50
176
     1
 62
   256
176
     0
 40
1.0
176
     0
 90
        2
176
     1
  1
strokes_ogs.tif
176
     1
290
     0
176
     1
 40
1.0
176
     1
 40
1.0
176
     1
  0
VISUALSTYLE
  5
31
102
{ACAD_REACTORS
330
29
102
}
330
29
100
AcDbVisualStyle
  2
Hidden
 70
     6
177
     3
291
     0
 70
    58
 90
        1
176
     1
 90
        2
176
     1
 90
        2
176
     1
 90
        0
176
     1
 40
0.6
176
     1
 40
30.0
176
     1
 62
     7
420
 16777215
176
     1
 90
        2
176
     1
 90
        2
176
     1
 62
     7
176
     1
 62
   257
176
     1
 90
        2
176
     1
 90
        1
176
     1
 40
40.0
176
     1
 90
        0
176
     1
 62
   257
176
     1
 40
1.0
176
     1
 90
        1
176
     1
 90
        6
176
     1
 90
        2
176
     1
 62
     7
176
     1
 90
        3
176
     1
 90
        0
176
     1
 90
        0
176
     1
290
     0
176
     1
 90
        1
176
     1
 40
0.0
176
     1
 90
        0
176
     1
290
     0
176
     1
290
     1
176
     1
290
     1
176
     1
290
     0
176
     1
290
     0
176
     1
290
     0
176
     1
290
     0
176
     1
290
     0
176
     1
290
     0
176
     1
 90
       50
176
     1
 40
0.0
176
     1
 40
1.0
176
     1
 90
        0
176
     1
 62
    18
420
        0
176
     1
 90
       50
176
     1
 90
        3
176
     1
 62
     5
420
      255
176
     1
290
     0
176
     1
 90
       50
176
     1
 90
       50
176
     1
 90
       50
176
     1
290
     0
176
     1
 90
       50
176
     1
 62
   256
176
     0
 40
1.0
176
     0
 90
        2
176
     1
  1
strokes_ogs.tif
176
     1
290
     0
176
     1
 40
1.0
176
     1
 40
1.0
176
     1
  0
VISUALSTYLE
  5
3F
102
{ACAD_REACTORS
330
29
102
}
330
29
100
AcDbVisualStyle
  2
JitterOff
 70
    20
177
     3
291
     1
 70
    58
 90
        2
176
     0
 90
        2
176
     0
 90
        0
176
     0
 90
        0
176
     0
 40
0.6
176
     0
 40
30.0
176
     0
 62
     7
420
 16777215
176
     0
 90
        1
176
     0
 90
        4
176
     0
 62
     7
176
     0
 62
   257
176
     0
 90
        1
176
     0
 90
        1
176
     0
 40
1.0
176
     0
 90
       10
176
     2
 62
     7
176
     0
 40
1.0
176
     0
 90
        1
176
     0
 90
        6
176
     0
 90
        2
176
     0
 62
     7
176
     0
 90
        5
176
     0
 90
        0
176
     0
 90
        0
176
     0
290
     0
176
     0
 90
        1
176
     0
 40
0.0
176
     0
 90
        0
176
     0
290
     0
176
     0
290
     1
176
     0
290
     1
176
     0
290
     0
176
     0
290
     0
176
     0
290
     0
176
     0
290
     0
176
     0
290
     0
176
     0
290
     0
176
     0
 90
       50
176
     0
 40
0.0
176
     0
 40
1.0
176
     0
 90
        0
176
     0
 62
    18
420
        0
176
     0
 90
       50
176
     0
 90
        3
176
     0
 62
     5
420
      255
176
     0
290
     0
176
     0
 90
       50
176
     0
 90
       50
176
     0
 90
       50
176
     0
290
     0
176
     0
 90
       50
176
     0
 62
   256
176
     0
 40
1.0
176
     0
 90
        2
176
     0
  1
strokes_ogs.tif
176
     0
290
     0
176
     0
 40
1.0
176
     0
 40
1.0
176
     0
  0
VISUALSTYLE
  5
37
102
{ACAD_REACTORS
330
29
102
}
330
29
100
AcDbVisualStyle
  2
Linepattern
 70
    14
177
     3
291
     1
 70
    58
 90
        2
176
     1
 90
        2
176
     1
 90
        0
176
     1
 90
        0
176
     1
 40
0.6
176
     1
 40
30.0
176
     1
 62
     7
420
 16777215
176
     1
 90
        1
176
     1
 90
        4
176
     1
 62
     7
176
     1
 62
   257
176
     1
 90
        7
176
     1
 90
        7
176
     1
 40
1.0
176
     1
 90
        8
176
     1
 62
     7
176
     1
 40
1.0
176
     1
 90
        1
176
     1
 90
        6
176
     1
 90
        2
176
     1
 62
     7
176
     1
 90
        5
176
     1
 90
        0
176
     1
 90
        0
176
     1
290
     0
176
     1
 90
        1
176
     1
 40
0.0
176
     1
 90
        0
176
     1
290
     0
176
     1
290
     1
176
     1
290
     1
176
     1
290
     0
176
     1
290
     0
176
     1
290
     0
176
     1
290
     0
176
     1
290
     0
176
     1
290
     0
176
     1
 90
       50
176
     1
 40
0.0
176
     1
 40
1.0
176
     1
 90
        0
176
     1
 62
    18
420
        0
176
     1
 90
       50
176
     1
 90
        3
176
     1
 62
     5
420
      255
176
     1
290
     0
176
     1
 90
       50
176
     1
 90
       50
176
     1
 90
       50
176
     1
290
     0
176
     1
 90
       50
176
     1
 62
   256
176
     0
 40
1.0
176
     0
 90
        2
176
     1
  1
strokes_ogs.tif
176
     1
290
     0
176
     1
 40
1.0
176
     1
 40
1.0
176
     1
  0
VISUALSTYLE
  5
40
102
{ACAD_REACTORS
330
29
102
}
330
29
100
AcDbVisualStyle
  2
OverhangOff
 70
    21
177
     3
291
     1
 70
    58
 90
        2
176
     0
 90
        2
176
     0
 90
        0
176
     0
 90
        0
176
     0
 40
0.6
176
     0
 40
30.0
176
     0
 62
     7
420
 16777215
176
     0
 90
        1
176
     0
 90
        4
176
     0
 62
     7
176
     0
 62
   257
176
     0
 90
        1
176
     0
 90
        1
176
     0
 40
1.0
176
     0
 90
        9
176
     2
 62
     7
176
     0
 40
1.0
176
     0
 90
        1
176
     0
 90
        6
176
     0
 90
        2
176
     0
 62
     7
176
     0
 90
        5
176
     0
 90
        0
176
     0
 90
        0
176
     0
290
     0
176
     0
 90
        1
176
     0
 40
0.0
176
     0
 90
        0
176
     0
290
     0
176
     0
290
     1
176
     0
290
     1
176
     0
290
     0
176
     0
290
     0
176
     0
290
     0
176
     0
290
     0
176
     0
290
     0
176
     0
290
     0
176
     0
 90
       50
176
     0
 40
0.0
176
     0
 40
1.0
176
     0
 90
        0
176
     0
 62
    18
420
        0
176
     0
 90
       50
176
     0
 90
        3
176
     0
 62
     5
420
      255
176
     0
290
     0
176
     0
 90
       50
176
     0
 90
       50
176
     0
 90
       50
176
     0
290
     0
176
     0
 90
       50
176
     0
 62
   256
176
     0
 40
1.0
176
     0
 90
        2
176
     0
  1
strokes_ogs.tif
176
     0
290
     0
176
     0
 40
1.0
176
     0
 40
1.0
176
     0
  0
VISUALSTYLE
  5
33
102
{ACAD_REACTORS
330
29
102
}
330
29
100
AcDbVisualStyle
  2
Realistic
 70
     8
177
     3
291
     0
 70
    58
 90
        2
176
     1
 90
        3
176
     1
 90
        0
176
     1
 90
        2
176
     1
 40
0.6
176
     1
 40
30.0
176
     1
 62
     7
420
 16777215
176
     1
 90
        0
176
     1
 90
        0
176
     1
 62
     7
176
     1
 62
   257
176
     1
 90
        1
176
     1
 90
        1
176
     1
 40
1.0
176
     1
 90
        8
176
     1
 62
   257
176
     1
 40
1.0
176
     1
 90
        1
176
     1
 90
        6
176
     1
 90
        2
176
     1
 62
     7
176
     1
 90
        3
176
     1
 90
        0
176
     1
 90
        0
176
     1
290
     0
176
     1
 90
       13
176
     1
 40
0.0
176
     1
 90
        0
176
     1
290
     0
176
     1
290
     1
176
     1
290
     1
176
     1
290
     0
176
     1
290
     0
176
     1
290
     0
176
     1
290
     0
176
     1
290
     0
176
     1
290
     0
176
     1
 90
       50
176
     1
 40
0.0
176
     1
 40
1.0
176
     1
 90
        0
176
     1
 62
    18
420
        0
176
     1
 90
       50
176
     1
 90
        3
176
     1
 62
     5
420
      255
176
     1
290
     0
176
     1
 90
       50
176
     1
 90
       50
176
     1
 90
       50
176
     1
290
     0
176
     1
 90
       50
176
     1
 62
   256
176
     0
 40
1.0
176
     0
 90
        2
176
     1
  1
strokes_ogs.tif
176
     1
290
     0
176
     1
 40
1.0
176
     1
 40
1.0
176
     1
  0
VISUALSTYLE
  5
3E
102
{ACAD_REACTORS
330
29
102
}
330
29
100
AcDbVisualStyle
  2
Shaded
 70
    27
177
     3
291
     0
 70
    58
 90
        2
176
     1
 90
        2
176
     1
 90
        1
176
     1
 90
        2
176
     1
 40
0.6
176
     1
 40
30.0
176
     1
 62
     7
420
 16777215
176
     1
 90
        0
176
     1
 90
        4
176
     1
 62
     7
176
     1
 62
   257
176
     1
 90
        1
176
     1
 90
        1
176
     1
 40
1.0
176
     1
 90
        8
176
     1
 62
   257
176
     1
 40
1.0
176
     1
 90
        1
176
     1
 90
        6
176
     1
 90
        2
176
     1
 62
     8
420
  7895160
176
     1
 90
        3
176
     1
 90
        0
176
     1
 90
        0
176
     1
290
     0
176
     1
 90
        5
176
     1
 40
0.0
176
     1
 90
        0
176
     1
290
     0
176
     1
290
     1
176
     1
290
     1
176
     1
290
     0
176
     1
290
     0
176
     1
290
     0
176
     1
290
     0
176
     1
290
     0
176
     1
290
     0
176
     1
 90
       50
176
     1
 40
0.0
176
     1
 40
1.0
176
     1
 90
        0
176
     1
 62
    18
420
        0
176
     1
 90
       50
176
     1
 90
        3
176
     1
 62
     5
420
      255
176
     1
290
     0
176
     1
 90
       50
176
     1
 90
       50
176
     1
 90
       50
176
     1
290
     0
176
     1
 90
       50
176
     1
 62
   256
176
     0
 40
1.0
176
     0
 90
        2
176
     1
  1
strokes_ogs.tif
176
     1
290
     0
176
     1
 40
1.0
176
     1
 40
1.0
176
     1
  0
VISUALSTYLE
  5
3D
102
{ACAD_REACTORS
330
29
102
}
330
29
100
AcDbVisualStyle
  2
Shaded with edges
 70
    26
177
     3
291
     0
 70
    58
 90
        2
176
     1
 90
        2
176
     1
 90
        1
176
     1
 90
        2
176
     1
 40
0.6
176
     1
 40
30.0
176
     1
 62
     7
420
 16777215
176
     1
 90
        1
176
     1
 90
        2
176
     1
 62
     7
176
     1
 62
   257
176
     1
 90
        2
176
     1
 90
        1
176
     1
 40
1.0
176
     1
 90
        8
176
     1
 62
   257
176
     1
 40
1.0
176
     1
 90
        1
176
     1
 90
        6
176
     1
 90
        2
176
     1
 62
     7
176
     1
 90
        3
176
     1
 90
        0
176
     1
 90
        0
176
     1
290
     0
176
     1
 90
        5
176
     1
 40
0.0
176
     1
 90
        0
176
     1
290
     0
176
     1
290
     1
176
     1
290
     1
176
     1
290
     0
176
     1
290
     0
176
     1
290
     0
176
     1
290
     0
176
     1
290
     0
176
     1
290
     0
176
     1
 90
       50
176
     1
 40
0.0
176
     1
 40
1.0
176
     1
 90
        0
176
     1
 62
    18
420
        0
176
     1
 90
       50
176
     1
 90
        3
176
     1
 62
     5
420
      255
176
     1
290
     0
176
     1
 90
       50
176
     1
 90
       50
176
     1
 90
       50
176
     1
290
     0
176
     1
 90
       50
176
     1
 62
   256
176
     0
 40
1.0
176
     0
 90
        2
176
     1
  1
strokes_ogs.tif
176
     1
290
     0
176
     1
 40
1.0
176
     1
 40
1.0
176
     1
  0
VISUALSTYLE
  5
3A
102
{ACAD_REACTORS
330
29
102
}
330
29
100
AcDbVisualStyle
  2
Shades of Gray
 70
    23
177
     3
291
     0
 70
    58
 90
        2
176
     1
 90
        2
176
     1
 90
        3
176
     1
 90
        0
176
     1
 40
0.6
176
     1
 40
30.0
176
     1
 62
     7
420
 16777215
176
     1
 90
        2
176
     1
 90
        2
176
     1
 62
     7
176
     1
 62
     7
176
     1
 90
        1
176
     1
 90
        1
176
     1
 40
40.0
176
     1
 90
        8
176
     1
 62
     7
176
     1
 40
1.0
176
     1
 90
        1
176
     1
 90
        6
176
     1
 90
        2
176
     1
 62
     7
176
     1
 90
        3
176
     1
 90
        0
176
     1
 90
        0
176
     1
290
     0
176
     1
 90
        1
176
     1
 40
0.0
176
     1
 90
        0
176
     1
290
     0
176
     1
290
     1
176
     1
290
     1
176
     1
290
     0
176
     1
290
     0
176
     1
290
     0
176
     1
290
     0
176
     1
290
     0
176
     1
290
     0
176
     1
 90
       50
176
     1
 40
0.0
176
     1
 40
1.0
176
     1
 90
        0
176
     1
 62
    18
420
        0
176
     1
 90
       50
176
     1
 90
        3
176
     1
 62
     5
420
      255
176
     1
290
     0
176
     1
 90
       50
176
     1
 90
       50
176
     1
 90
       50
176
     1
290
     0
176
     1
 90
       50
176
     1
 62
   256
176
     0
 40
1.0
176
     0
 90
        2
176
     1
  1
strokes_ogs.tif
176
     1
290
     0
176
     1
 40
1.0
176
     1
 40
1.0
176
     1
  0
VISUALSTYLE
  5
3B
102
{ACAD_REACTORS
330
29
102
}
330
29
100
AcDbVisualStyle
  2
Sketchy
 70
    24
177
     3
291
     0
 70
    58
 90
        1
176
     1
 90
        2
176
     1
 90
        2
176
     1
 90
        0
176
     1
 40
0.6
176
     1
 40
30.0
176
     1
 62
     7
420
 16777215
176
     1
 90
        2
176
     1
 90
        2
176
     1
 62
     7
176
     1
 62
     7
176
     1
 90
        1
176
     1
 90
        1
176
     1
 40
40.0
176
     1
 90
       11
176
     1
 62
     7
176
     1
 40
1.0
176
     1
 90
        1
176
     1
 90
        6
176
     1
 90
        2
176
     1
 62
     7
176
     1
 90
        6
176
     1
 90
        0
176
     1
 90
        0
176
     1
290
     0
176
     1
 90
        1
176
     1
 40
0.0
176
     1
 90
        0
176
     1
290
     0
176
     1
290
     1
176
     1
290
     1
176
     1
290
     0
176
     1
290
     0
176
     1
290
     0
176
     1
290
     0
176
     1
290
     0
176
     1
290
     0
176
     1
 90
       50
176
     1
 40
0.0
176
     1
 40
1.0
176
     1
 90
        0
176
     1
 62
    18
420
        0
176
     1
 90
       50
176
     1
 90
        3
176
     1
 62
     5
420
      255
176
     1
290
     0
176
     1
 90
       50
176
     1
 90
       50
176
     1
 90
       50
176
     1
290
     0
176
     1
 90
       50
176
     1
 62
   256
176
     0
 40
1.0
176
     0
 90
        2
176
     1
  1
strokes_ogs.tif
176
     1
290
     0
176
     1
 40
1.0
176
     1
 40
1.0
176
     1
  0
VISUALSTYLE
  5
36
102
{ACAD_REACTORS
330
29
102
}
330
29
100
AcDbVisualStyle
  2
Thicken
 70
    13
177
     3
291
     1
 70
    58
 90
        2
176
     1
 90
        2
176
     1
 90
        0
176
     1
 90
        0
176
     1
 40
0.6
176
     1
 40
30.0
176
     1
 62
     7
420
 16777215
176
     1
 90
        1
176
     1
 90
        4
176
     1
 62
     7
176
     1
 62
   257
176
     1
 90
        1
176
     1
 90
        1
176
     1
 40
1.0
176
     1
 90
       12
176
     1
 62
     7
176
     1
 40
1.0
176
     1
 90
        1
176
     1
 90
        6
176
     1
 90
        2
176
     1
 62
     7
176
     1
 90
        5
176
     1
 90
        0
176
     1
 90
        0
176
     1
290
     0
176
     1
 90
        1
176
     1
 40
0.0
176
     1
 90
        0
176
     1
290
     0
176
     1
290
     1
176
     1
290
     1
176
     1
290
     0
176
     1
290
     0
176
     1
290
     0
176
     1
290
     0
176
     1
290
     0
176
     1
290
     0
176
     1
 90
       50
176
     1
 40
0.0
176
     1
 40
1.0
176
     1
 90
        0
176
     1
 62
    18
420
        0
176
     1
 90
       50
176
     1
 90
        3
176
     1
 62
     5
420
      255
176
     1
290
     0
176
     1
 90
       50
176
     1
 90
       50
176
     1
 90
       50
176
     1
290
     0
176
     1
 90
       50
176
     1
 62
   256
176
     0
 40
1.0
176
     0
 90
        2
176
     1
  1
strokes_ogs.tif
176
     1
290
     0
176
     1
 40
1.0
176
     1
 40
1.0
176
     1
  0
VISUALSTYLE
  5
30
102
{ACAD_REACTORS
330
29
102
}
330
29
100
AcDbVisualStyle
  2
Wireframe
 70
     5
177
     3
291
     0
 70
    58
 90
        0
176
     1
 90
        2
176
     1
 90
        0
176
     1
 90
        0
176
     1
 40
0.6
176
     1
 40
30.0
176
     1
 62
     7
420
 16777215
176
     1
 90
        1
176
     1
 90
        4
176
     1
 62
     7
176
     1
 62
   257
176
     1
 90
        1
176
     1
 90
        1
176
     1
 40
1.0
176
     1
 90
        0
176
     1
 62
   257
176
     1
 40
1.0
176
     1
 90
        1
176
     1
 90
        6
176
     1
 90
        2
176
     1
 62
     7
176
     1
 90
        3
176
     1
 90
        0
176
     1
 90
        0
176
     1
290
     0
176
     1
 90
        1
176
     1
 40
0.0
176
     1
 90
        0
176
     1
290
     0
176
     1
290
     1
176
     1
290
     1
176
     1
290
     0
176
     1
290
     0
176
     1
290
     0
176
     1
290
     0
176
     1
290
     0
176
     1
290
     0
176
     1
 90
       50
176
     1
 40
0.0
176
     1
 40
1.0
176
     1
 90
        0
176
     1
 62
    18
420
        0
176
     1
 90
       50
176
     1
 90
        3
176
     1
 62
     5
420
      255
176
     1
290
     0
176
     1
 90
       50
176
     1
 90
       50
176
     1
 90
       50
176
     1
290
     0
176
     1
 90
       50
176
     1
 62
   256
176
     0
 40
1.0
176
     0
 90
        2
176
     1
  1
strokes_ogs.tif
176
     1
290
     0
176
     1
 40
1.0
176
     1
 40
1.0
176
     1
  0
VISUALSTYLE
  5
3C
102
{ACAD_REACTORS
330
29
102
}
330
29
100
AcDbVisualStyle
  2
X-Ray
 70
    25
177
     3
291
     0
 70
    58
 90
        2
176
     1
 90
        2
176
     1
 90
        1
176
     1
 90
        1
176
     1
 40
0.5
176
     1
 40
30.0
176
     1
 62
     7
420
 16777215
176
     1
 90
        1
176
     1
 90
        0
176
     1
 62
     7
176
     1
 62
   257
176
     1
 90
        1
176
     1
 90
        1
176
     1
 40
1.0
176
     1
 90
        8
176
     1
 62
     7
176
     1
 40
1.0
176
     1
 90
        1
176
     1
 90
        6
176
     1
 90
        2
176
     1
 62
     7
176
     1
 90
        3
176
     1
 90
        0
176
     1
 90
        0
176
     1
290
     0
176
     1
 90
       13
176
     1
 40
0.0
176
     1
 90
        0
176
     1
290
     0
176
     1
290
     1
176
     1
290
     1
176
     1
290
     0
176
     1
290
     0
176
     1
290
     0
176
     1
290
     0
176
     1
290
     0
176
     1
290
     0
176
     1
 90
       50
176
     1
 40
0.0
176
     1
 40
1.0
176
     1
 90
        0
176
     1
 62
    18
420
        0
176
     1
 90
       50
176
     1
 90
        3
176
     1
 62
     5
420
      255
176
     1
290
     0
176
     1
 90
       50
176
     1
 90
       50
176
     1
 90
       50
176
     1
290
     0
176
     1
 90
       50
176
     1
 62
   256
176
     0
 40
1.0
176
     0
 90
        2
176
     1
  1
strokes_ogs.tif
176
     1
290
     0
176
     1
 40
1.0
176
     1
 40
1.0
176
     1
  0
DICTIONARYVAR
  5
220
102
{ACAD_REACTORS
330
21B
102
}
330
21B
100
DictionaryVariables
280
     0
  1
1:1
  0
DICTIONARYVAR
  5
21D
102
{ACAD_REACTORS
330
21B
102
}
330
21B
100
DictionaryVariables
280
     0
  1
STANDARD
  0
DICTIONARYVAR
  5
21C
102
{ACAD_REACTORS
330
21B
102
}
330
21B
100
DictionaryVariables
280
     0
  1
STANDARD
  0
DICTIONARYVAR
  5
21E
102
{ACAD_REACTORS
330
21B
102
}
330
21B
100
DictionaryVariables
280
     0
  1
Imperial24
  0
DICTIONARYVAR
  5
21F
102
{ACAD_REACTORS
330
21B
102
}
330
21B
100
DictionaryVariables
280
     0
  1
Imperial24
  0
DICTIONARY
  5
1A
330
19
100
AcDbDictionary
280
     1
281
     1
  3
BUMPTILE
360
1C
  3
DIFFUSETILE
360
1B
  3
OPACITYTILE
360
1F
  3
REFLECTIONTILE
360
1E
  3
REFRACTIONTILE
360
20
  3
SPECULARTILE
360
1D
  0
DICTIONARY
  5
12
330
11
100
AcDbDictionary
280
     1
281
     1
  3
BUMPTILE
360
14
  3
DIFFUSETILE
360
13
  3
OPACITYTILE
360
17
  3
REFLECTIONTILE
360
16
  3
REFRACTIONTILE
360
18
  3
SPECULARTILE
360
15
  0
DICTIONARY
  5
22
330
21
100
AcDbDictionary
280
     1
281
     1
  3
BUMPTILE
360
24
  3
DIFFUSETILE
360
23
  3
OPACITYTILE
360
27
  3
REFLECTIONTILE
360
26
  3
REFRACTIONTILE
360
28
  3
SPECULARTILE
360
25
  0
DICTIONARY
  5
2E7
330
65
100
AcDbDictionary
280
     1
281
     1
  3
ACAD_ROUNDTRIP_2008_TABLESTYLE_CELLSTYLEMAP
360
2E8
  0
XRECORD
  5
1C
102
{ACAD_REACTORS
330
1A
102
}
330
1A
100
AcDbXrecord
280
     1
270
     1
271
     1
  0
XRECORD
  5
1B
102
{ACAD_REACTORS
330
1A
102
}
330
1A
100
AcDbXrecord
280
     1
270
     1
271
     1
  0
XRECORD
  5
1F
102
{ACAD_REACTORS
330
1A
102
}
330
1A
100
AcDbXrecord
280
     1
270
     1
271
     1
  0
XRECORD
  5
1E
102
{ACAD_REACTORS
330
1A
102
}
330
1A
100
AcDbXrecord
280
     1
270
     1
271
     1
  0
XRECORD
  5
20
102
{ACAD_REACTORS
330
1A
102
}
330
1A
100
AcDbXrecord
280
     1
270
     1
271
     1
  0
XRECORD
  5
1D
102
{ACAD_REACTORS
330
1A
102
}
330
1A
100
AcDbXrecord
280
     1
270
     1
271
     1
  0
XRECORD
  5
14
102
{ACAD_REACTORS
330
12
102
}
330
12
100
AcDbXrecord
280
     1
270
     1
271
     1
  0
XRECORD
  5
13
102
{ACAD_REACTORS
330
12
102
}
330
12
100
AcDbXrecord
280
     1
270
     1
271
     1
  0
XRECORD
  5
17
102
{ACAD_REACTORS
330
12
102
}
330
12
100
AcDbXrecord
280
     1
270
     1
271
     1
  0
XRECORD
  5
16
102
{ACAD_REACTORS
330
12
102
}
330
12
100
AcDbXrecord
280
     1
270
     1
271
     1
  0
XRECORD
  5
18
102
{ACAD_REACTORS
330
12
102
}
330
12
100
AcDbXrecord
280
     1
270
     1
271
     1
  0
XRECORD
  5
15
102
{ACAD_REACTORS
330
12
102
}
330
12
100
AcDbXrecord
280
     1
270
     1
271
     1
  0
XRECORD
  5
24
102
{ACAD_REACTORS
330
22
102
}
330
22
100
AcDbXrecord
280
     1
270
     1
271
     1
  0
XRECORD
  5
23
102
{ACAD_REACTORS
330
22
102
}
330
22
100
AcDbXrecord
280
     1
270
     1
271
     1
  0
XRECORD
  5
27
102
{ACAD_REACTORS
330
22
102
}
330
22
100
AcDbXrecord
280
     1
270
     1
271
     1
  0
XRECORD
  5
26
102
{ACAD_REACTORS
330
22
102
}
330
22
100
AcDbXrecord
280
     1
270
     1
271
     1
  0
XRECORD
  5
28
102
{ACAD_REACTORS
330
22
102
}
330
22
100
AcDbXrecord
280
     1
270
     1
271
     1
  0
XRECORD
  5
25
102
{ACAD_REACTORS
330
22
102
}
330
22
100
AcDbXrecord
280
     1
270
     1
271
     1
  0
CELLSTYLEMAP
  5
2E8
102
{ACAD_REACTORS
330
2E7
102
}
330
2E7
100
AcDbCellStyleMap
 90
        3
300
CELLSTYLE
  1
TABLEFORMAT_BEGIN
 90
        5
170
     1
 91
        0
 92
    32768
 62
   257
 93
        1
300
CONTENTFORMAT
  1
CONTENTFORMAT_BEGIN
 90
        0
 91
        0
 92
      512
 93
        0
300

 40
0.0
140
1.0
 94
        5
 62
     0
340
55
144
0.25
309
CONTENTFORMAT_END
171
     0
 94
        0
309
TABLEFORMAT_END
  1
CELLSTYLE_BEGIN
 90
        1
 91
        1
300
_TITLE
309
CELLSTYLE_END
300
CELLSTYLE
  1
TABLEFORMAT_BEGIN
 90
        5
170
     1
 91
        0
 92
        0
 62
   257
 93
        1
300
CONTENTFORMAT
  1
CONTENTFORMAT_BEGIN
 90
        0
 91
        0
 92
      512
 93
        0
300

 40
0.0
140
1.0
 94
        5
 62
     0
340
55
144
0.18
309
CONTENTFORMAT_END
171
     0
 94
        0
309
TABLEFORMAT_END
  1
CELLSTYLE_BEGIN
 90
        2
 91
        1
300
_HEADER
309
CELLSTYLE_END
300
CELLSTYLE
  1
TABLEFORMAT_BEGIN
 90
        5
170
     1
 91
        0
 92
        0
 62
   257
 93
        1
300
CONTENTFORMAT
  1
CONTENTFORMAT_BEGIN
 90
        0
 91
        0
 92
      512
 93
        0
300

 40
0.0
140
1.0
 94
        2
 62
     0
340
55
144
0.18
309
CONTENTFORMAT_END
171
     0
 94
        0
309
TABLEFORMAT_END
  1
CELLSTYLE_BEGIN
 90
        3
 91
        2
300
_DATA
309
CELLSTYLE_END
  0
ENDSEC
  0
EOF
