  0
SECTION
  2
HEADER
  9
$ACADVER
  1
AC1027
  9
$ACADMAINTVER
 70
   125
  9
$DWGCODEPAGE
  3
ANSI_1252
  9
$LASTSAVEDBY
  1
ufficio.tecnico
  9
$REQUIREDVERSIONS
160
                 0
  9
$INSBASE
 10
0.0
 20
0.0
 30
0.0
  9
$EXTMIN
 10
5.132559485645481
 20
-18.00722768562225
 30
0.0
  9
$EXTMAX
 10
16.35323209003329
 20
-9.780436177229946
 30
0.0
  9
$LIMMIN
 10
0.0
 20
0.0
  9
$LIMMAX
 10
12.0
 20
9.0
  9
$ORTHOMODE
 70
     1
  9
$REGENMODE
 70
     1
  9
$FILLMODE
 70
     1
  9
$QTEXTMODE
 70
     0
  9
$MIRRTEXT
 70
     0
  9
$LTSCALE
 40
1.0
  9
$ATTMODE
 70
     1
  9
$TEXTSIZE
 40
0.2
  9
$TRACEWID
 40
0.05
  9
$TEXTSTYLE
  7
Standard
  9
$CLAYER
  8
0
  9
$CELTYPE
  6
ByLayer
  9
$CECOLOR
 62
   256
  9
$CELTSCALE
 40
1.0
  9
$DISPSILH
 70
     0
  9
$DIMSCALE
 40
1.0
  9
$DIMASZ
 40
0.18
  9
$DIMEXO
 40
0.0625
  9
$DIMDLI
 40
0.38
  9
$DIMRND
 40
0.0
  9
$DIMDLE
 40
0.0
  9
$DIMEXE
 40
0.18
  9
$DIMTP
 40
0.0
  9
$DIMTM
 40
0.0
  9
$DIMTXT
 40
0.18
  9
$DIMCEN
 40
0.09
  9
$DIMTSZ
 40
0.0
  9
$DIMTOL
 70
     0
  9
$DIMLIM
 70
     0
  9
$DIMTIH
 70
     1
  9
$DIMTOH
 70
     1
  9
$DIMSE1
 70
     0
  9
$DIMSE2
 70
     0
  9
$DIMTAD
 70
     0
  9
$DIMZIN
 70
     0
  9
$DIMBLK
  1

  9
$DIMASO
 70
     1
  9
$DIMSHO
 70
     1
  9
$DIMPOST
  1

  9
$DIMAPOST
  1

  9
$DIMALT
 70
     0
  9
$DIMALTD
 70
     2
  9
$DIMALTF
 40
25.4
  9
$DIMLFAC
 40
1.0
  9
$DIMTOFL
 70
     0
  9
$DIMTVP
 40
0.0
  9
$DIMTIX
 70
     0
  9
$DIMSOXD
 70
     0
  9
$DIMSAH
 70
     0
  9
$DIMBLK1
  1

  9
$DIMBLK2
  1

  9
$DIMSTYLE
  2
Standard
  9
$DIMCLRD
 70
     0
  9
$DIMCLRE
 70
     0
  9
$DIMCLRT
 70
     0
  9
$DIMTFAC
 40
1.0
  9
$DIMGAP
 40
0.09
  9
$DIMJUST
 70
     0
  9
$DIMSD1
 70
     0
  9
$DIMSD2
 70
     0
  9
$DIMTOLJ
 70
     1
  9
$DIMTZIN
 70
     0
  9
$DIMALTZ
 70
     0
  9
$DIMALTTZ
 70
     0
  9
$DIMUPT
 70
     0
  9
$DIMDEC
 70
     4
  9
$DIMTDEC
 70
     4
  9
$DIMALTU
 70
     2
  9
$DIMALTTD
 70
     2
  9
$DIMTXSTY
  7
Standard
  9
$DIMAUNIT
 70
     0
  9
$DIMADEC
 70
     0
  9
$DIMALTRND
 40
0.0
  9
$DIMAZIN
 70
     0
  9
$DIMDSEP
 70
    46
  9
$DIMATFIT
 70
     3
  9
$DIMFRAC
 70
     0
  9
$DIMLDRBLK
  1

  9
$DIMLUNIT
 70
     2
  9
$DIMLWD
 70
    -2
  9
$DIMLWE
 70
    -2
  9
$DIMTMOVE
 70
     0
  9
$DIMFXL
 40
1.0
  9
$DIMFXLON
 70
     0
  9
$DIMJOGANG
 40
0.7853981633974483
  9
$DIMTFILL
 70
     0
  9
$DIMTFILLCLR
 70
     0
  9
$DIMARCSYM
 70
     0
  9
$DIMLTYPE
  6

  9
$DIMLTEX1
  6

  9
$DIMLTEX2
  6

  9
$DIMTXTDIRECTION
 70
     0
  9
$LUNITS
 70
     2
  9
$LUPREC
 70
     4
  9
$SKETCHINC
 40
0.1
  9
$FILLETRAD
 40
0.0
  9
$AUNITS
 70
     0
  9
$AUPREC
 70
     0
  9
$MENU
  1
.
  9
$ELEVATION
 40
0.0
  9
$PELEVATION
 40
0.0
  9
$THICKNESS
 40
0.0
  9
$LIMCHECK
 70
     0
  9
$CHAMFERA
 40
0.0
  9
$CHAMFERB
 40
0.0
  9
$CHAMFERC
 40
0.0
  9
$CHAMFERD
 40
0.0
  9
$SKPOLY
 70
     0
  9
$TDCREATE
 40
2459858.681342593
  9
$TDUCREATE
 40
2459858.598009259
  9
$TDUPDATE
 40
2459913.581238426
  9
$TDUUPDATE
 40
2459913.539571759
  9
$TDINDWG
 40
0.0025578704
  9
$TDUSRTIMER
 40
0.0025578704
  9
$USRTIMER
 70
     1
  9
$ANGBASE
 50
0.0
  9
$ANGDIR
 70
     0
  9
$PDMODE
 70
     0
  9
$PDSIZE
 40
0.0
  9
$PLINEWID
 40
0.0
  9
$SPLFRAME
 70
     0
  9
$SPLINETYPE
 70
     6
  9
$SPLINESEGS
 70
     8
  9
$HANDSEED
  5
24E
  9
$SURFTAB1
 70
     6
  9
$SURFTAB2
 70
     6
  9
$SURFTYPE
 70
     6
  9
$SURFU
 70
     6
  9
$SURFV
 70
     6
  9
$UCSBASE
  2

  9
$UCSNAME
  2

  9
$UCSORG
 10
0.0
 20
0.0
 30
0.0
  9
$UCSXDIR
 10
1.0
 20
0.0
 30
0.0
  9
$UCSYDIR
 10
0.0
 20
1.0
 30
0.0
  9
$UCSORTHOREF
  2

  9
$UCSORTHOVIEW
 70
     0
  9
$UCSORGTOP
 10
0.0
 20
0.0
 30
0.0
  9
$UCSORGBOTTOM
 10
0.0
 20
0.0
 30
0.0
  9
$UCSORGLEFT
 10
0.0
 20
0.0
 30
0.0
  9
$UCSORGRIGHT
 10
0.0
 20
0.0
 30
0.0
  9
$UCSORGFRONT
 10
0.0
 20
0.0
 30
0.0
  9
$UCSORGBACK
 10
0.0
 20
0.0
 30
0.0
  9
$PUCSBASE
  2

  9
$PUCSNAME
  2

  9
$PUCSORG
 10
0.0
 20
0.0
 30
0.0
  9
$PUCSXDIR
 10
1.0
 20
0.0
 30
0.0
  9
$PUCSYDIR
 10
0.0
 20
1.0
 30
0.0
  9
$PUCSORTHOREF
  2

  9
$PUCSORTHOVIEW
 70
     0
  9
$PUCSORGTOP
 10
0.0
 20
0.0
 30
0.0
  9
$PUCSORGBOTTOM
 10
0.0
 20
0.0
 30
0.0
  9
$PUCSORGLEFT
 10
0.0
 20
0.0
 30
0.0
  9
$PUCSORGRIGHT
 10
0.0
 20
0.0
 30
0.0
  9
$PUCSORGFRONT
 10
0.0
 20
0.0
 30
0.0
  9
$PUCSORGBACK
 10
0.0
 20
0.0
 30
0.0
  9
$USERI1
 70
     0
  9
$USERI2
 70
     0
  9
$USERI3
 70
     0
  9
$USERI4
 70
     0
  9
$USERI5
 70
     0
  9
$USERR1
 40
0.0
  9
$USERR2
 40
0.0
  9
$USERR3
 40
0.0
  9
$USERR4
 40
0.0
  9
$USERR5
 40
0.0
  9
$WORLDVIEW
 70
     1
  9
$SHADEDGE
 70
     3
  9
$SHADEDIF
 70
    70
  9
$TILEMODE
 70
     1
  9
$MAXACTVP
 70
    64
  9
$PINSBASE
 10
0.0
 20
0.0
 30
0.0
  9
$PLIMCHECK
 70
     0
  9
$PEXTMIN
 10
1.000000000000000E+20
 20
1.000000000000000E+20
 30
1.000000000000000E+20
  9
$PEXTMAX
 10
-1.000000000000000E+20
 20
-1.000000000000000E+20
 30
-1.000000000000000E+20
  9
$PLIMMIN
 10
0.0
 20
0.0
  9
$PLIMMAX
 10
12.0
 20
9.0
  9
$UNITMODE
 70
     0
  9
$VISRETAIN
 70
     1
  9
$PLINEGEN
 70
     0
  9
$PSLTSCALE
 70
     1
  9
$TREEDEPTH
 70
  3020
  9
$CMLSTYLE
  2
Standard
  9
$CMLJUST
 70
     0
  9
$CMLSCALE
 40
1.0
  9
$PROXYGRAPHICS
 70
     1
  9
$MEASUREMENT
 70
     0
  9
$CELWEIGHT
370
    -1
  9
$ENDCAPS
280
     0
  9
$JOINSTYLE
280
     0
  9
$LWDISPLAY
290
     1
  9
$INSUNITS
 70
     5
  9
$HYPERLINKBASE
  1

  9
$STYLESHEET
  1

  9
$XEDIT
290
     1
  9
$CEPSNTYPE
380
     0
  9
$PSTYLEMODE
290
     1
  9
$FINGERPRINTGUID
  2
{74D1DEBC-222D-C54F-A428-B6A29F7ABBC6}
  9
$VERSIONGUID
  2
{8F716E55-69AC-6B48-B19E-F738E3B2F25F}
  9
$EXTNAMES
290
     1
  9
$PSVPSCALE
 40
0.0
  9
$OLESTARTUP
290
     0
  9
$SORTENTS
280
   127
  9
$INDEXCTL
280
     0
  9
$HIDETEXT
280
     1
  9
$XCLIPFRAME
280
     2
  9
$HALOGAP
280
     0
  9
$OBSCOLOR
 70
   257
  9
$OBSLTYPE
280
     0
  9
$INTERSECTIONDISPLAY
280
     0
  9
$INTERSECTIONCOLOR
 70
   257
  9
$DIMASSOC
280
     2
  9
$PROJECTNAME
  1

  9
$CAMERADISPLAY
290
     0
  9
$LENSLENGTH
 40
50.0
  9
$CAMERAHEIGHT
 40
0.0
  9
$STEPSPERSEC
 40
2.0
  9
$STEPSIZE
 40
6.0
  9
$3DDWFPREC
 40
2.0
  9
$PSOLWIDTH
 40
0.25
  9
$PSOLHEIGHT
 40
4.0
  9
$LOFTANG1
 40
1.570796326794896
  9
$LOFTANG2
 40
1.570796326794896
  9
$LOFTMAG1
 40
0.0
  9
$LOFTMAG2
 40
0.0
  9
$LOFTPARAM
 70
     7
  9
$LOFTNORMALS
280
     1
  9
$LATITUDE
 40
37.795
  9
$LONGITUDE
 40
-122.394
  9
$NORTHDIRECTION
 40
0.0
  9
$TIMEZONE
 70
 -8000
  9
$LIGHTGLYPHDISPLAY
280
     1
  9
$TILEMODELIGHTSYNCH
280
     1
  9
$CMATERIAL
347
11
  9
$SOLIDHIST
280
     0
  9
$SHOWHIST
280
     1
  9
$DWFFRAME
280
     2
  9
$DGNFRAME
280
     0
  9
$REALWORLDSCALE
290
     1
  9
$INTERFERECOLOR
 62
     1
  9
$INTERFEREOBJVS
345
33
  9
$INTERFEREVPVS
346
30
  9
$CSHADOW
280
     0
  9
$SHADOWPLANELOCATION
 40
0.0
  0
ENDSEC
  0
SECTION
  2
CLASSES
  0
CLASS
  1
ACDBDICTIONARYWDFLT
  2
AcDbDictionaryWithDefault
  3
ObjectDBX Classes
 90
        0
 91
        1
280
     0
281
     0
  0
CLASS
  1
MATERIAL
  2
AcDbMaterial
  3
ObjectDBX Classes
 90
     1153
 91
        3
280
     0
281
     0
  0
CLASS
  1
VISUALSTYLE
  2
AcDbVisualStyle
  3
ObjectDBX Classes
 90
     4095
 91
       24
280
     0
281
     0
  0
CLASS
  1
SCALE
  2
AcDbScale
  3
ObjectDBX Classes
 90
     1153
 91
       17
280
     0
281
     0
  0
CLASS
  1
TABLESTYLE
  2
AcDbTableStyle
  3
ObjectDBX Classes
 90
     4095
 91
        1
280
     0
281
     0
  0
CLASS
  1
MLEADERSTYLE
  2
AcDbMLeaderStyle
  3
ACDB_MLEADERSTYLE_CLASS
 90
     4095
 91
        1
280
     0
281
     0
  0
CLASS
  1
ACDBSECTIONVIEWSTYLE
  2
AcDbSectionViewStyle
  3
ObjectDBX Classes
 90
     1025
 91
        1
280
     0
281
     0
  0
CLASS
  1
ACDBDETAILVIEWSTYLE
  2
AcDbDetailViewStyle
  3
ObjectDBX Classes
 90
     1025
 91
        1
280
     0
281
     0
  0
CLASS
  1
DICTIONARYVAR
  2
AcDbDictionaryVar
  3
ObjectDBX Classes
 90
        0
 91
        5
280
     0
281
     0
  0
CLASS
  1
SORTENTSTABLE
  2
AcDbSortentsTable
  3
ObjectDBX Classes
 90
        0
 91
        1
280
     0
281
     0
  0
CLASS
  1
CELLSTYLEMAP
  2
AcDbCellStyleMap
  3
ObjectDBX Classes
 90
     1152
 91
        4
280
     0
281
     0
  0
ENDSEC
  0
SECTION
  2
TABLES
  0
TABLE
  2
VPORT
  5
8
330
0
100
AcDbSymbolTable
 70
     1
1001
ACAD
1000
DbSaveVer
1071
      249
  0
VPORT
  5
57
330
8
100
AcDbSymbolTableRecord
100
AcDbViewportTableRecord
  2
*Active
 70
     0
 10
0.0
 20
0.0
 11
1.0
 21
1.0
 12
5.199007405609025
 22
0.5742209488068753
 13
0.0
 23
0.0
 14
1.0
 24
1.0
 15
0.0
 25
0.0
 16
0.0
 26
0.0
 36
1.0
 17
10.50000721959722
 27
-14.85000416295415
 37
0.0
 40
11.40054559240657
 41
2.495448634590377
 42
50.0
 43
0.0
 44
0.0
 50
0.0
 51
0.0
 71
     0
 72
   100
 73
     1
 74
     1
 75
     0
 76
     0
 77
     0
 78
     0
281
     0
 65
     1
110
0.0
120
0.0
130
0.0
111
1.0
121
0.0
131
0.0
112
0.0
122
1.0
132
0.0
 79
     0
146
0.0
348
2F
 60
     3
 61
     5
292
     1
282
     1
141
0.0
142
0.0
 63
   250
421
  3355443
1001
ACAD_NAV_VCDISPLAY
1070
     3
  0
ENDTAB
  0
TABLE
  2
LTYPE
  5
5
330
0
100
AcDbSymbolTable
 70
     2
  0
LTYPE
  5
5B
330
5
100
AcDbSymbolTableRecord
100
AcDbLinetypeTableRecord
  2
ByBlock
 70
     0
  3

 72
    65
 73
     0
 40
0.0
  0
LTYPE
  5
5C
330
5
100
AcDbSymbolTableRecord
100
AcDbLinetypeTableRecord
  2
ByLayer
 70
     0
  3

 72
    65
 73
     0
 40
0.0
  0
LTYPE
  5
5D
330
5
100
AcDbSymbolTableRecord
100
AcDbLinetypeTableRecord
  2
Continuous
 70
     0
  3
Solid line
 72
    65
 73
     0
 40
0.0
  0
ENDTAB
  0
TABLE
  2
LAYER
  5
2
330
0
100
AcDbSymbolTable
 70
     2
  0
LAYER
  5
54
330
2
100
AcDbSymbolTableRecord
100
AcDbLayerTableRecord
  2
0
 70
     0
 62
     7
  6
Continuous
370
    -3
390
F
347
21
348
0
  0
LAYER
  5
78
330
2
100
AcDbSymbolTableRecord
100
AcDbLayerTableRecord
  2
Livello 1
 70
     0
 62
     7
  6
Continuous
370
     0
390
F
347
21
348
0
  0
ENDTAB
  0
TABLE
  2
STYLE
  5
3
330
0
100
AcDbSymbolTable
 70
     2
  0
STYLE
  5
55
330
3
100
AcDbSymbolTableRecord
100
AcDbTextStyleTableRecord
  2
Standard
 70
     0
 40
0.0
 41
1.0
 50
0.0
 71
     0
 42
0.2
  3
txt
  4

  0
STYLE
  5
5A
330
3
100
AcDbSymbolTableRecord
100
AcDbTextStyleTableRecord
  2
Annotative
 70
     0
 40
0.0
 41
1.0
 50
0.0
 71
     0
 42
0.2
  3
txt
  4

1001
AcadAnnotative
1000
AnnotativeData
1002
{
1070
     1
1070
     1
1002
}
  0
ENDTAB
  0
TABLE
  2
VIEW
  5
6
330
0
100
AcDbSymbolTable
 70
     0
  0
ENDTAB
  0
TABLE
  2
UCS
  5
7
330
0
100
AcDbSymbolTable
 70
     0
  0
ENDTAB
  0
TABLE
  2
APPID
  5
9
330
0
100
AcDbSymbolTable
 70
     4
  0
APPID
  5
56
330
9
100
AcDbSymbolTableRecord
100
AcDbRegAppTableRecord
  2
ACAD
 70
     0
  0
APPID
  5
5E
330
9
100
AcDbSymbolTableRecord
100
AcDbRegAppTableRecord
  2
AcadAnnotative
 70
     0
  0
APPID
  5
210
330
9
100
AcDbSymbolTableRecord
100
AcDbRegAppTableRecord
  2
ACAD_EXEMPT_FROM_CAD_STANDARDS
 70
     0
  0
APPID
  5
21F
330
9
100
AcDbSymbolTableRecord
100
AcDbRegAppTableRecord
  2
ACAD_NAV_VCDISPLAY
 70
     0
  0
ENDTAB
  0
TABLE
  2
DIMSTYLE
  5
A
330
0
100
AcDbSymbolTable
 70
     2
100
AcDbDimStyleTable
 71
     1
340
58
  0
DIMSTYLE
105
58
330
A
100
AcDbSymbolTableRecord
100
AcDbDimStyleTableRecord
  2
Standard
 70
     0
340
55
  0
DIMSTYLE
105
59
330
A
100
AcDbSymbolTableRecord
100
AcDbDimStyleTableRecord
  2
Annotative
 70
     0
340
55
1001
AcadAnnotative
1000
AnnotativeData
1002
{
1070
     1
1070
     1
1002
}
  0
ENDTAB
  0
TABLE
  2
BLOCK_RECORD
  5
1
330
0
100
AcDbSymbolTable
 70
    15
  0
BLOCK_RECORD
  5
70
102
{ACAD_XDICTIONARY
360
192
102
}
330
1
100
AcDbSymbolTableRecord
100
AcDbBlockTableRecord
  2
*Model_Space
340
73
 70
     0
280
     1
281
     0
  0
BLOCK_RECORD
  5
6C
330
1
100
AcDbSymbolTableRecord
100
AcDbBlockTableRecord
  2
*Paper_Space
340
6F
 70
     0
280
     1
281
     0
  0
BLOCK_RECORD
  5
74
330
1
100
AcDbSymbolTableRecord
100
AcDbBlockTableRecord
  2
*Paper_Space0
340
77
 70
     0
280
     1
281
     0
  0
BLOCK_RECORD
  5
88
330
1
100
AcDbSymbolTableRecord
100
AcDbBlockTableRecord
  2
Block_0
340
0
 70
     0
280
     1
281
     0
  0
BLOCK_RECORD
  5
8C
330
1
100
AcDbSymbolTableRecord
100
AcDbBlockTableRecord
  2
Block_1
340
0
102
{BLKREFS
331
8D
102
}
 70
     0
280
     1
281
     0
  0
BLOCK_RECORD
  5
9D
330
1
100
AcDbSymbolTableRecord
100
AcDbBlockTableRecord
  2
Block_2
340
0
 70
     0
280
     1
281
     0
  0
BLOCK_RECORD
  5
A4
330
1
100
AcDbSymbolTableRecord
100
AcDbBlockTableRecord
  2
Block_3
340
0
 70
     0
280
     1
281
     0
  0
BLOCK_RECORD
  5
AB
330
1
100
AcDbSymbolTableRecord
100
AcDbBlockTableRecord
  2
Block_4
340
0
 70
     0
280
     1
281
     0
  0
BLOCK_RECORD
  5
AF
330
1
100
AcDbSymbolTableRecord
100
AcDbBlockTableRecord
  2
Block_5
340
0
102
{BLKREFS
331
B0
102
}
 70
     0
280
     1
281
     0
  0
BLOCK_RECORD
  5
B3
330
1
100
AcDbSymbolTableRecord
100
AcDbBlockTableRecord
  2
Block_6
340
0
102
{BLKREFS
331
B4
102
}
 70
     0
280
     1
281
     0
  0
BLOCK_RECORD
  5
BC
330
1
100
AcDbSymbolTableRecord
100
AcDbBlockTableRecord
  2
Block_7
340
0
102
{BLKREFS
331
BD
102
}
 70
     0
280
     1
281
     0
  0
BLOCK_RECORD
  5
C3
330
1
100
AcDbSymbolTableRecord
100
AcDbBlockTableRecord
  2
Block_8
340
0
102
{BLKREFS
331
C4
102
}
 70
     0
280
     1
281
     0
  0
BLOCK_RECORD
  5
CA
330
1
100
AcDbSymbolTableRecord
100
AcDbBlockTableRecord
  2
Block_9
340
0
 70
     0
280
     1
281
     0
  0
BLOCK_RECORD
  5
CE
330
1
100
AcDbSymbolTableRecord
100
AcDbBlockTableRecord
  2
Block_10
340
0
102
{BLKREFS
331
CF
102
}
 70
     0
280
     1
281
     0
  0
BLOCK_RECORD
  5
D8
330
1
100
AcDbSymbolTableRecord
100
AcDbBlockTableRecord
  2
Block_11
340
0
 70
     0
280
     1
281
     0
  0
BLOCK_RECORD
  5
DF
330
1
100
AcDbSymbolTableRecord
100
AcDbBlockTableRecord
  2
Block_12
340
0
 70
     0
280
     1
281
     0
  0
BLOCK_RECORD
  5
E6
330
1
100
AcDbSymbolTableRecord
100
AcDbBlockTableRecord
  2
Block_13
340
0
 70
     0
280
     1
281
     0
  0
ENDTAB
  0
ENDSEC
  0
SECTION
  2
BLOCKS
  0
BLOCK
  5
71
330
70
100
AcDbEntity
  8
0
100
AcDbBlockBegin
  2
*Model_Space
 70
     0
 10
0.0
 20
0.0
 30
0.0
  3
*Model_Space
  1

  0
ENDBLK
  5
72
330
70
100
AcDbEntity
  8
0
100
AcDbBlockEnd
  0
BLOCK
  5
6D
330
6C
100
AcDbEntity
 67
     1
  8
0
100
AcDbBlockBegin
  2
*Paper_Space
 70
     0
 10
0.0
 20
0.0
 30
0.0
  3
*Paper_Space
  1

  0
ENDBLK
  5
6E
330
6C
100
AcDbEntity
 67
     1
  8
0
100
AcDbBlockEnd
  0
BLOCK
  5
75
330
74
100
AcDbEntity
 67
     1
  8
0
100
AcDbBlockBegin
  2
*Paper_Space0
 70
     0
 10
0.0
 20
0.0
 30
0.0
  3
*Paper_Space0
  1

  0
ENDBLK
  5
76
330
74
100
AcDbEntity
 67
     1
  8
0
100
AcDbBlockEnd
  0
BLOCK
  5
8A
330
88
100
AcDbEntity
  8
0
100
AcDbBlockBegin
  2
Block_0
 70
     0
 10
0.0
 20
0.0
 30
0.0
  3
Block_0
  1

  0
INSERT
  5
8D
330
88
100
AcDbEntity
  8
Livello 1
100
AcDbBlockReference
  2
Block_1
 10
0.0
 20
0.0
 30
0.0
  0
ENDBLK
  5
8B
330
88
100
AcDbEntity
  8
0
100
AcDbBlockEnd
  0
BLOCK
  5
8E
330
8C
100
AcDbEntity
  8
0
100
AcDbBlockBegin
  2
Block_1
 70
     0
 10
0.0
 20
0.0
 30
0.0
  3
Block_1
  1

  0
SPLINE
  5
90
330
8C
100
AcDbEntity
  8
Livello 1
100
AcDbSpline
210
0.0
220
0.0
230
1.0
 70
     9
 71
     3
 72
    17
 73
    13
 74
     0
 42
0.000000001
 43
0.0000000001
 40
0.0
 40
0.0
 40
0.0
 40
0.0
 40
1.0
 40
1.0
 40
1.0
 40
2.0
 40
2.0
 40
2.0
 40
3.0
 40
3.0
 40
3.0
 40
4.0
 40
4.0
 40
4.0
 40
4.0
 10
9.998769528750306
 20
-17.26661186634307
 30
0.0
 10
10.00555636685625
 20
-17.27508680123678
 30
0.0
 10
10.01599500617655
 20
-17.28090901260685
 30
0.0
 10
10.02953423143359
 20
-17.28090901260685
 30
0.0
 10
10.05885199401306
 20
-17.28090901260685
 30
0.0
 10
10.07339029696082
 20
-17.25424397355102
 30
0.0
 10
10.07339029696082
 20
-17.22761338545003
 30
0.0
 10
10.07339029696082
 20
-17.21596896270989
 30
0.0
 10
10.07073757343717
 20
-17.20460014760857
 30
0.0
 10
10.0649153620671
 20
-17.19516058597898
 30
0.0
 10
10.0649153620671
 20
-17.19516058597898
 30
0.0
 10
9.998769528750306
 20
-17.26661186634307
 30
0.0
 10
9.998769528750306
 20
-17.26661186634307
 30
0.0
  0
SPLINE
  5
91
330
8C
100
AcDbEntity
  8
Livello 1
100
AcDbSpline
210
0.0
220
0.0
230
1.0
 70
     9
 71
     3
 72
    17
 73
    13
 74
     0
 42
0.000000001
 43
0.0000000001
 40
0.0
 40
0.0
 40
0.0
 40
0.0
 40
1.0
 40
1.0
 40
1.0
 40
2.0
 40
2.0
 40
2.0
 40
3.0
 40
3.0
 40
3.0
 40
4.0
 40
4.0
 40
4.0
 40
4.0
 10
10.06054009080084
 20
-17.18885606124098
 30
0.0
 10
10.05354654696578
 20
-17.1801399696633
 30
0.0
 10
10.04310790764547
 20
-17.17431775829322
 30
0.0
 10
10.02953423143359
 20
-17.17431775829322
 30
0.0
 10
10.00025091980896
 20
-17.17431775829322
 30
0.0
 10
9.98571261686121
 20
-17.2009483463942
 30
0.0
 10
9.98571261686121
 20
-17.22761338545003
 30
0.0
 10
9.98571261686121
 20
-17.23922335723533
 30
0.0
 10
9.98836534038485
 20
-17.25062662329151
 30
0.0
 10
9.994428708438892
 20
-17.26030734160506
 30
0.0
 10
9.994428708438892
 20
-17.26030734160506
 30
0.0
 10
10.06054009080084
 20
-17.18885606124098
 30
0.0
 10
10.06054009080084
 20
-17.18885606124098
 30
0.0
  0
SPLINE
  5
92
330
8C
100
AcDbEntity
  8
Livello 1
100
AcDbSpline
210
0.0
220
0.0
230
1.0
 70
    11
 71
     3
 72
    41
 73
    37
 74
     0
 42
0.000000001
 43
0.0000000001
 40
0.0
 40
0.0
 40
0.0
 40
0.0
 40
1.0
 40
1.0
 40
1.0
 40
2.0
 40
2.0
 40
2.0
 40
3.0
 40
3.0
 40
3.0
 40
4.0
 40
4.0
 40
4.0
 40
5.0
 40
5.0
 40
5.0
 40
6.0
 40
6.0
 40
6.0
 40
7.0
 40
7.0
 40
7.0
 40
8.0
 40
8.0
 40
8.0
 40
9.0
 40
9.0
 40
9.0
 40
10.0
 40
10.0
 40
10.0
 40
11.0
 40
11.0
 40
11.0
 40
12.0
 40
12.0
 40
12.0
 40
12.0
 10
10.08865206996047
 20
-17.16921901697505
 30
0.0
 10
10.08865206996047
 20
-17.16921901697505
 30
0.0
 10
10.07556070711652
 20
-17.18351616323884
 30
0.0
 10
10.07556070711652
 20
-17.18351616323884
 30
0.0
 10
10.08431124964906
 20
-17.19564289934692
 30
0.0
 10
10.08865206996047
 20
-17.21114582903054
 30
0.0
 10
10.08865206996047
 20
-17.22761338545003
 30
0.0
 10
10.08865206996047
 20
-17.26344237849664
 30
0.0
 10
10.06780924227471
 20
-17.29372476781198
 30
0.0
 10
10.02953423143359
 20
-17.29372476781198
 30
0.0
 10
10.01234320496219
 20
-17.29372476781198
 30
0.0
 10
9.998528372066338
 20
-17.28766139975794
 30
0.0
 10
9.988847653752786
 20
-17.27725721139249
 30
0.0
 10
9.988847653752786
 20
-17.27725721139249
 30
0.0
 10
9.974550507489
 20
-17.29276014107611
 30
0.0
 10
9.974550507489
 20
-17.29276014107611
 30
0.0
 10
9.974550507489
 20
-17.29276014107611
 30
0.0
 10
9.969245060441716
 20
-17.28790255644191
 30
0.0
 10
9.969245060441716
 20
-17.28790255644191
 30
0.0
 10
9.969245060441716
 20
-17.28790255644191
 30
0.0
 10
9.984024520073438
 20
-17.27167615670638
 30
0.0
 10
9.984024520073438
 20
-17.27167615670638
 30
0.0
 10
9.975032820856933
 20
-17.26006618492109
 30
0.0
 10
9.970450843861552
 20
-17.2443220985535
 30
0.0
 10
9.970450843861552
 20
-17.22761338545003
 30
0.0
 10
9.970450843861552
 20
-17.19174994144859
 30
0.0
 10
9.991293671547314
 20
-17.16146755213324
 30
0.0
 10
10.02953423143359
 20
-17.16146755213324
 30
0.0
 10
10.0470008655438
 20
-17.16146755213324
 30
0.0
 10
10.06105685512362
 20
-17.16777207687125
 30
0.0
 10
10.07073757343717
 20
-17.17793510855274
 30
0.0
 10
10.07073757343717
 20
-17.17793510855274
 30
0.0
 10
10.08331217195834
 20
-17.1643958832957
 30
0.0
 10
10.08331217195834
 20
-17.1643958832957
 30
0.0
 10
10.08331217195834
 20
-17.1643958832957
 30
0.0
 10
10.08865206996047
 20
-17.16921901697505
 30
0.0
 10
10.08865206996047
 20
-17.16921901697505
 30
0.0
  0
HATCH
  5
93
330
8C
100
AcDbEntity
  8
Livello 1
 62
    18
420
        0
440
 33554687
100
AcDbHatch
 10
0.0
 20
0.0
 30
0.0
210
0.0
220
0.0
230
1.0
  2
SOLID
 70
     1
 71
     1
 91
        3
 92
        1
 93
        1
 72
     4
 94
        3
 73
     0
 74
     0
 95
       17
 96
       13
 40
0.0
 40
0.0
 40
0.0
 40
0.0
 40
1.0
 40
1.0
 40
1.0
 40
2.0
 40
2.0
 40
2.0
 40
3.0
 40
3.0
 40
3.0
 40
4.0
 40
4.0
 40
4.0
 40
4.0
 10
9.998769528750306
 20
-17.26661186634307
 10
10.00555636685625
 20
-17.27508680123678
 10
10.01599500617655
 20
-17.28090901260685
 10
10.02953423143359
 20
-17.28090901260685
 10
10.05885199401306
 20
-17.28090901260685
 10
10.07339029696082
 20
-17.25424397355102
 10
10.07339029696082
 20
-17.22761338545003
 10
10.07339029696082
 20
-17.21596896270989
 10
10.07073757343717
 20
-17.20460014760857
 10
10.0649153620671
 20
-17.19516058597898
 10
10.0649153620671
 20
-17.19516058597898
 10
9.998769528750306
 20
-17.26661186634307
 10
9.998769528750306
 20
-17.26661186634307
 97
        0
 97
        1
330
90
 92
        1
 93
        1
 72
     4
 94
        3
 73
     0
 74
     0
 95
       17
 96
       13
 40
0.0
 40
0.0
 40
0.0
 40
0.0
 40
1.0
 40
1.0
 40
1.0
 40
2.0
 40
2.0
 40
2.0
 40
3.0
 40
3.0
 40
3.0
 40
4.0
 40
4.0
 40
4.0
 40
4.0
 10
10.06054009080084
 20
-17.18885606124098
 10
10.05354654696578
 20
-17.1801399696633
 10
10.04310790764547
 20
-17.17431775829322
 10
10.02953423143359
 20
-17.17431775829322
 10
10.00025091980896
 20
-17.17431775829322
 10
9.98571261686121
 20
-17.2009483463942
 10
9.98571261686121
 20
-17.22761338545003
 10
9.98571261686121
 20
-17.23922335723533
 10
9.98836534038485
 20
-17.25062662329151
 10
9.994428708438892
 20
-17.26030734160506
 10
9.994428708438892
 20
-17.26030734160506
 10
10.06054009080084
 20
-17.18885606124098
 10
10.06054009080084
 20
-17.18885606124098
 97
        0
 97
        1
330
91
 92
        1
 93
        1
 72
     4
 94
        3
 73
     0
 74
     0
 95
       41
 96
       37
 40
0.0
 40
0.0
 40
0.0
 40
0.0
 40
1.0
 40
1.0
 40
1.0
 40
2.0
 40
2.0
 40
2.0
 40
3.0
 40
3.0
 40
3.0
 40
4.0
 40
4.0
 40
4.0
 40
5.0
 40
5.0
 40
5.0
 40
6.0
 40
6.0
 40
6.0
 40
7.0
 40
7.0
 40
7.0
 40
8.0
 40
8.0
 40
8.0
 40
9.0
 40
9.0
 40
9.0
 40
10.0
 40
10.0
 40
10.0
 40
11.0
 40
11.0
 40
11.0
 40
12.0
 40
12.0
 40
12.0
 40
12.0
 10
10.08865206996047
 20
-17.16921901697505
 10
10.08865206996047
 20
-17.16921901697505
 10
10.07556070711652
 20
-17.18351616323884
 10
10.07556070711652
 20
-17.18351616323884
 10
10.08431124964906
 20
-17.19564289934692
 10
10.08865206996047
 20
-17.21114582903054
 10
10.08865206996047
 20
-17.22761338545003
 10
10.08865206996047
 20
-17.26344237849664
 10
10.06780924227471
 20
-17.29372476781198
 10
10.02953423143359
 20
-17.29372476781198
 10
10.01234320496219
 20
-17.29372476781198
 10
9.998528372066338
 20
-17.28766139975794
 10
9.988847653752786
 20
-17.27725721139249
 10
9.988847653752786
 20
-17.27725721139249
 10
9.974550507489
 20
-17.29276014107611
 10
9.974550507489
 20
-17.29276014107611
 10
9.974550507489
 20
-17.29276014107611
 10
9.969245060441716
 20
-17.28790255644191
 10
9.969245060441716
 20
-17.28790255644191
 10
9.969245060441716
 20
-17.28790255644191
 10
9.984024520073438
 20
-17.27167615670638
 10
9.984024520073438
 20
-17.27167615670638
 10
9.975032820856933
 20
-17.26006618492109
 10
9.970450843861552
 20
-17.2443220985535
 10
9.970450843861552
 20
-17.22761338545003
 10
9.970450843861552
 20
-17.19174994144859
 10
9.991293671547314
 20
-17.16146755213324
 10
10.02953423143359
 20
-17.16146755213324
 10
10.0470008655438
 20
-17.16146755213324
 10
10.06105685512362
 20
-17.16777207687125
 10
10.07073757343717
 20
-17.17793510855274
 10
10.07073757343717
 20
-17.17793510855274
 10
10.08331217195834
 20
-17.1643958832957
 10
10.08331217195834
 20
-17.1643958832957
 10
10.08331217195834
 20
-17.1643958832957
 10
10.08865206996047
 20
-17.16921901697505
 10
10.08865206996047
 20
-17.16921901697505
 97
        0
 97
        1
330
92
 75
     2
 76
     1
 98
        1
 10
0.0
 20
0.0
450
        0
451
        0
460
0.0
461
0.0
452
        0
462
0.0
453
        0
470

  0
SPLINE
  5
94
330
8C
100
AcDbEntity
  8
Livello 1
100
AcDbSpline
210
0.0
220
0.0
230
1.0
 70
     9
 71
     3
 72
    17
 73
    13
 74
     0
 42
0.000000001
 43
0.0000000001
 40
0.0
 40
0.0
 40
0.0
 40
0.0
 40
1.0
 40
1.0
 40
1.0
 40
2.0
 40
2.0
 40
2.0
 40
3.0
 40
3.0
 40
3.0
 40
4.0
 40
4.0
 40
4.0
 40
4.0
 10
10.19210828738253
 20
-17.23729410376359
 30
0.0
 10
10.19210828738253
 20
-17.26127196834093
 30
0.0
 10
10.20495849354251
 20
-17.28090901260685
 30
0.0
 10
10.23451741280595
 20
-17.28090901260685
 30
0.0
 10
10.25873643406726
 20
-17.28090901260685
 30
0.0
 10
10.27520399048675
 20
-17.26078965497299
 30
0.0
 10
10.27520399048675
 20
-17.23729410376359
 30
0.0
 10
10.27520399048675
 20
-17.21259276913435
 30
0.0
 10
10.26018337417106
 20
-17.19247341150049
 30
0.0
 10
10.23427625612198
 20
-17.19247341150049
 30
0.0
 10
10.20761121706615
 20
-17.19247341150049
 30
0.0
 10
10.19210828738253
 20
-17.21235161245038
 30
0.0
 10
10.19210828738253
 20
-17.23729410376359
 30
0.0
  0
SPLINE
  5
95
330
8C
100
AcDbEntity
  8
Livello 1
100
AcDbSpline
210
0.0
220
0.0
230
1.0
 70
     9
 71
     3
 72
    35
 73
    31
 74
     0
 42
0.000000001
 43
0.0000000001
 40
0.0
 40
0.0
 40
0.0
 40
0.0
 40
1.0
 40
1.0
 40
1.0
 40
2.0
 40
2.0
 40
2.0
 40
3.0
 40
3.0
 40
3.0
 40
4.0
 40
4.0
 40
4.0
 40
5.0
 40
5.0
 40
5.0
 40
6.0
 40
6.0
 40
6.0
 40
7.0
 40
7.0
 40
7.0
 40
8.0
 40
8.0
 40
8.0
 40
9.0
 40
9.0
 40
9.0
 40
10.0
 40
10.0
 40
10.0
 40
10.0
 10
10.27110432685931
 20
-17.16339680560498
 30
0.0
 10
10.26841715238081
 20
-17.14475883902978
 30
0.0
 10
10.25536024049171
 20
-17.1319086328698
 30
0.0
 10
10.23572319622578
 20
-17.1319086328698
 30
0.0
 10
10.19624240196483
 20
-17.1319086328698
 30
0.0
 10
10.18897325049095
 20
-17.17697048181686
 30
0.0
 10
10.18897325049095
 20
-17.20773518450014
 30
0.0
 10
10.18897325049095
 20
-17.20773518450014
 30
0.0
 10
10.18945556385888
 20
-17.20773518450014
 30
0.0
 10
10.18945556385888
 20
-17.20773518450014
 30
0.0
 10
10.19744818538466
 20
-17.19102647139668
 30
0.0
 10
10.21536268190796
 20
-17.17965765629536
 30
0.0
 10
10.23451741280595
 20
-17.17965765629536
 30
0.0
 10
10.26841715238081
 20
-17.17965765629536
 30
0.0
 10
10.29046576348641
 20
-17.20315320750476
 30
0.0
 10
10.29046576348641
 20
-17.23632947702772
 30
0.0
 10
10.29046576348641
 20
-17.26926458986671
 30
0.0
 10
10.26648789890907
 20
-17.29372476781198
 30
0.0
 10
10.23307047270215
 20
-17.29372476781198
 30
0.0
 10
10.19186713069856
 20
-17.29372476781198
 30
0.0
 10
10.17371147749129
 20
-17.26974690323464
 30
0.0
 10
10.17371147749129
 20
-17.2036355208727
 30
0.0
 10
10.17371147749129
 20
-17.18351616323884
 30
0.0
 10
10.17881021880946
 20
-17.11909287766467
 30
0.0
 10
10.23427625612198
 20
-17.11909287766467
 30
0.0
 10
10.2640763320694
 20
-17.11909287766467
 30
0.0
 10
10.2827142986446
 20
-17.13387233729639
 30
0.0
 10
10.28636609985896
 20
-17.16339680560498
 30
0.0
 10
10.28636609985896
 20
-17.16339680560498
 30
0.0
 10
10.27110432685931
 20
-17.16339680560498
 30
0.0
 10
10.27110432685931
 20
-17.16339680560498
 30
0.0
  0
HATCH
  5
96
330
8C
100
AcDbEntity
  8
Livello 1
 62
    18
420
        0
440
 33554687
100
AcDbHatch
 10
0.0
 20
0.0
 30
0.0
210
0.0
220
0.0
230
1.0
  2
SOLID
 70
     1
 71
     1
 91
        2
 92
        1
 93
        1
 72
     4
 94
        3
 73
     0
 74
     0
 95
       17
 96
       13
 40
0.0
 40
0.0
 40
0.0
 40
0.0
 40
1.0
 40
1.0
 40
1.0
 40
2.0
 40
2.0
 40
2.0
 40
3.0
 40
3.0
 40
3.0
 40
4.0
 40
4.0
 40
4.0
 40
4.0
 10
10.19210828738253
 20
-17.23729410376359
 10
10.19210828738253
 20
-17.26127196834093
 10
10.20495849354251
 20
-17.28090901260685
 10
10.23451741280595
 20
-17.28090901260685
 10
10.25873643406726
 20
-17.28090901260685
 10
10.27520399048675
 20
-17.26078965497299
 10
10.27520399048675
 20
-17.23729410376359
 10
10.27520399048675
 20
-17.21259276913435
 10
10.26018337417106
 20
-17.19247341150049
 10
10.23427625612198
 20
-17.19247341150049
 10
10.20761121706615
 20
-17.19247341150049
 10
10.19210828738253
 20
-17.21235161245038
 10
10.19210828738253
 20
-17.23729410376359
 97
        0
 97
        1
330
94
 92
        1
 93
        1
 72
     4
 94
        3
 73
     0
 74
     0
 95
       35
 96
       31
 40
0.0
 40
0.0
 40
0.0
 40
0.0
 40
1.0
 40
1.0
 40
1.0
 40
2.0
 40
2.0
 40
2.0
 40
3.0
 40
3.0
 40
3.0
 40
4.0
 40
4.0
 40
4.0
 40
5.0
 40
5.0
 40
5.0
 40
6.0
 40
6.0
 40
6.0
 40
7.0
 40
7.0
 40
7.0
 40
8.0
 40
8.0
 40
8.0
 40
9.0
 40
9.0
 40
9.0
 40
10.0
 40
10.0
 40
10.0
 40
10.0
 10
10.27110432685931
 20
-17.16339680560498
 10
10.26841715238081
 20
-17.14475883902978
 10
10.25536024049171
 20
-17.1319086328698
 10
10.23572319622578
 20
-17.1319086328698
 10
10.19624240196483
 20
-17.1319086328698
 10
10.18897325049095
 20
-17.17697048181686
 10
10.18897325049095
 20
-17.20773518450014
 10
10.18897325049095
 20
-17.20773518450014
 10
10.18945556385888
 20
-17.20773518450014
 10
10.18945556385888
 20
-17.20773518450014
 10
10.19744818538466
 20
-17.19102647139668
 10
10.21536268190796
 20
-17.17965765629536
 10
10.23451741280595
 20
-17.17965765629536
 10
10.26841715238081
 20
-17.17965765629536
 10
10.29046576348641
 20
-17.20315320750476
 10
10.29046576348641
 20
-17.23632947702772
 10
10.29046576348641
 20
-17.26926458986671
 10
10.26648789890907
 20
-17.29372476781198
 10
10.23307047270215
 20
-17.29372476781198
 10
10.19186713069856
 20
-17.29372476781198
 10
10.17371147749129
 20
-17.26974690323464
 10
10.17371147749129
 20
-17.2036355208727
 10
10.17371147749129
 20
-17.18351616323884
 10
10.17881021880946
 20
-17.11909287766467
 10
10.23427625612198
 20
-17.11909287766467
 10
10.2640763320694
 20
-17.11909287766467
 10
10.2827142986446
 20
-17.13387233729639
 10
10.28636609985896
 20
-17.16339680560498
 10
10.28636609985896
 20
-17.16339680560498
 10
10.27110432685931
 20
-17.16339680560498
 10
10.27110432685931
 20
-17.16339680560498
 97
        0
 97
        1
330
95
 75
     2
 76
     1
 98
        1
 10
0.0
 20
0.0
450
        0
451
        0
460
0.0
461
0.0
452
        0
462
0.0
453
        0
470

  0
SPLINE
  5
97
330
8C
100
AcDbEntity
  8
Livello 1
100
AcDbSpline
210
0.0
220
0.0
230
1.0
 70
     9
 71
     3
 72
    17
 73
    13
 74
     0
 42
0.000000001
 43
0.0000000001
 40
0.0
 40
0.0
 40
0.0
 40
0.0
 40
1.0
 40
1.0
 40
1.0
 40
2.0
 40
2.0
 40
2.0
 40
3.0
 40
3.0
 40
3.0
 40
4.0
 40
4.0
 40
4.0
 40
4.0
 10
10.32205728908615
 20
-17.20628824439634
 30
0.0
 10
10.32205728908615
 20
-17.23584716365978
 30
0.0
 10
10.32715603040432
 20
-17.28090901260685
 30
0.0
 10
10.36591335461338
 20
-17.28090901260685
 30
0.0
 10
10.40467067882244
 20
-17.28090901260685
 30
0.0
 10
10.40976942014061
 20
-17.23584716365978
 30
0.0
 10
10.40976942014061
 20
-17.20628824439634
 30
0.0
 10
10.40976942014061
 20
-17.17697048181686
 30
0.0
 10
10.40467067882244
 20
-17.1319086328698
 30
0.0
 10
10.36591335461338
 20
-17.1319086328698
 30
0.0
 10
10.32715603040432
 20
-17.1319086328698
 30
0.0
 10
10.32205728908615
 20
-17.17697048181686
 30
0.0
 10
10.32205728908615
 20
-17.20628824439634
 30
0.0
  0
SPLINE
  5
98
330
8C
100
AcDbEntity
  8
Livello 1
100
AcDbSpline
210
0.0
220
0.0
230
1.0
 70
     9
 71
     3
 72
    17
 73
    13
 74
     0
 42
0.000000001
 43
0.0000000001
 40
0.0
 40
0.0
 40
0.0
 40
0.0
 40
1.0
 40
1.0
 40
1.0
 40
2.0
 40
2.0
 40
2.0
 40
3.0
 40
3.0
 40
3.0
 40
4.0
 40
4.0
 40
4.0
 40
4.0
 10
10.42503119314027
 20
-17.20628824439634
 30
0.0
 10
10.42503119314027
 20
-17.24601019534127
 30
0.0
 10
10.41531602387186
 20
-17.29372476781198
 30
0.0
 10
10.36591335461338
 20
-17.29372476781198
 30
0.0
 10
10.3165106853549
 20
-17.29372476781198
 30
0.0
 10
10.30679551608649
 20
-17.24601019534127
 30
0.0
 10
10.30679551608649
 20
-17.20652940108031
 30
0.0
 10
10.30679551608649
 20
-17.16680745013538
 30
0.0
 10
10.3165106853549
 20
-17.11909287766467
 30
0.0
 10
10.36591335461338
 20
-17.11909287766467
 30
0.0
 10
10.41531602387186
 20
-17.11909287766467
 30
0.0
 10
10.42503119314027
 20
-17.16680745013538
 30
0.0
 10
10.42503119314027
 20
-17.20628824439634
 30
0.0
  0
HATCH
  5
99
330
8C
100
AcDbEntity
  8
Livello 1
 62
    18
420
        0
440
 33554687
100
AcDbHatch
 10
0.0
 20
0.0
 30
0.0
210
0.0
220
0.0
230
1.0
  2
SOLID
 70
     1
 71
     1
 91
        2
 92
        1
 93
        1
 72
     4
 94
        3
 73
     0
 74
     0
 95
       17
 96
       13
 40
0.0
 40
0.0
 40
0.0
 40
0.0
 40
1.0
 40
1.0
 40
1.0
 40
2.0
 40
2.0
 40
2.0
 40
3.0
 40
3.0
 40
3.0
 40
4.0
 40
4.0
 40
4.0
 40
4.0
 10
10.32205728908615
 20
-17.20628824439634
 10
10.32205728908615
 20
-17.23584716365978
 10
10.32715603040432
 20
-17.28090901260685
 10
10.36591335461338
 20
-17.28090901260685
 10
10.40467067882244
 20
-17.28090901260685
 10
10.40976942014061
 20
-17.23584716365978
 10
10.40976942014061
 20
-17.20628824439634
 10
10.40976942014061
 20
-17.17697048181686
 10
10.40467067882244
 20
-17.1319086328698
 10
10.36591335461338
 20
-17.1319086328698
 10
10.32715603040432
 20
-17.1319086328698
 10
10.32205728908615
 20
-17.17697048181686
 10
10.32205728908615
 20
-17.20628824439634
 97
        0
 97
        1
330
97
 92
        1
 93
        1
 72
     4
 94
        3
 73
     0
 74
     0
 95
       17
 96
       13
 40
0.0
 40
0.0
 40
0.0
 40
0.0
 40
1.0
 40
1.0
 40
1.0
 40
2.0
 40
2.0
 40
2.0
 40
3.0
 40
3.0
 40
3.0
 40
4.0
 40
4.0
 40
4.0
 40
4.0
 10
10.42503119314027
 20
-17.20628824439634
 10
10.42503119314027
 20
-17.24601019534127
 10
10.41531602387186
 20
-17.29372476781198
 10
10.36591335461338
 20
-17.29372476781198
 10
10.3165106853549
 20
-17.29372476781198
 10
10.30679551608649
 20
-17.24601019534127
 10
10.30679551608649
 20
-17.20652940108031
 10
10.30679551608649
 20
-17.16680745013538
 10
10.3165106853549
 20
-17.11909287766467
 10
10.36591335461338
 20
-17.11909287766467
 10
10.41531602387186
 20
-17.11909287766467
 10
10.42503119314027
 20
-17.16680745013538
 10
10.42503119314027
 20
-17.20628824439634
 97
        0
 97
        1
330
98
 75
     2
 76
     1
 98
        1
 10
0.0
 20
0.0
450
        0
451
        0
460
0.0
461
0.0
452
        0
462
0.0
453
        0
470

  0
SPLINE
  5
9A
330
8C
100
AcDbEntity
  8
Livello 1
100
AcDbSpline
210
0.0
220
0.0
230
1.0
 70
     9
 71
     3
 72
    17
 73
    13
 74
     0
 42
0.000000001
 43
0.0000000001
 40
0.0
 40
0.0
 40
0.0
 40
0.0
 40
1.0
 40
1.0
 40
1.0
 40
2.0
 40
2.0
 40
2.0
 40
3.0
 40
3.0
 40
3.0
 40
4.0
 40
4.0
 40
4.0
 40
4.0
 10
10.45658826778516
 20
-17.20628824439634
 30
0.0
 10
10.45658826778516
 20
-17.23584716365978
 30
0.0
 10
10.46168700910333
 20
-17.28090901260685
 30
0.0
 10
10.50044433331239
 20
-17.28090901260685
 30
0.0
 10
10.53920165752145
 20
-17.28090901260685
 30
0.0
 10
10.54430039883962
 20
-17.23584716365978
 30
0.0
 10
10.54430039883962
 20
-17.20628824439634
 30
0.0
 10
10.54430039883962
 20
-17.17697048181686
 30
0.0
 10
10.53920165752145
 20
-17.1319086328698
 30
0.0
 10
10.50044433331239
 20
-17.1319086328698
 30
0.0
 10
10.46168700910333
 20
-17.1319086328698
 30
0.0
 10
10.45658826778516
 20
-17.17697048181686
 30
0.0
 10
10.45658826778516
 20
-17.20628824439634
 30
0.0
  0
SPLINE
  5
9B
330
8C
100
AcDbEntity
  8
Livello 1
100
AcDbSpline
210
0.0
220
0.0
230
1.0
 70
     9
 71
     3
 72
    17
 73
    13
 74
     0
 42
0.000000001
 43
0.0000000001
 40
0.0
 40
0.0
 40
0.0
 40
0.0
 40
1.0
 40
1.0
 40
1.0
 40
2.0
 40
2.0
 40
2.0
 40
3.0
 40
3.0
 40
3.0
 40
4.0
 40
4.0
 40
4.0
 40
4.0
 10
10.55956217183927
 20
-17.20628824439634
 30
0.0
 10
10.55956217183927
 20
-17.24601019534127
 30
0.0
 10
10.54984700257087
 20
-17.29372476781198
 30
0.0
 10
10.50044433331239
 20
-17.29372476781198
 30
0.0
 10
10.4510416640539
 20
-17.29372476781198
 30
0.0
 10
10.4413264947855
 20
-17.24601019534127
 30
0.0
 10
10.4413264947855
 20
-17.20652940108031
 30
0.0
 10
10.4413264947855
 20
-17.16680745013538
 30
0.0
 10
10.4510416640539
 20
-17.11909287766467
 30
0.0
 10
10.50044433331239
 20
-17.11909287766467
 30
0.0
 10
10.54984700257087
 20
-17.11909287766467
 30
0.0
 10
10.55956217183927
 20
-17.16680745013538
 30
0.0
 10
10.55956217183927
 20
-17.20628824439634
 30
0.0
  0
HATCH
  5
9C
330
8C
100
AcDbEntity
  8
Livello 1
 62
    18
420
        0
440
 33554687
100
AcDbHatch
 10
0.0
 20
0.0
 30
0.0
210
0.0
220
0.0
230
1.0
  2
SOLID
 70
     1
 71
     1
 91
        2
 92
        1
 93
        1
 72
     4
 94
        3
 73
     0
 74
     0
 95
       17
 96
       13
 40
0.0
 40
0.0
 40
0.0
 40
0.0
 40
1.0
 40
1.0
 40
1.0
 40
2.0
 40
2.0
 40
2.0
 40
3.0
 40
3.0
 40
3.0
 40
4.0
 40
4.0
 40
4.0
 40
4.0
 10
10.45658826778516
 20
-17.20628824439634
 10
10.45658826778516
 20
-17.23584716365978
 10
10.46168700910333
 20
-17.28090901260685
 10
10.50044433331239
 20
-17.28090901260685
 10
10.53920165752145
 20
-17.28090901260685
 10
10.54430039883962
 20
-17.23584716365978
 10
10.54430039883962
 20
-17.20628824439634
 10
10.54430039883962
 20
-17.17697048181686
 10
10.53920165752145
 20
-17.1319086328698
 10
10.50044433331239
 20
-17.1319086328698
 10
10.46168700910333
 20
-17.1319086328698
 10
10.45658826778516
 20
-17.17697048181686
 10
10.45658826778516
 20
-17.20628824439634
 97
        0
 97
        1
330
9A
 92
        1
 93
        1
 72
     4
 94
        3
 73
     0
 74
     0
 95
       17
 96
       13
 40
0.0
 40
0.0
 40
0.0
 40
0.0
 40
1.0
 40
1.0
 40
1.0
 40
2.0
 40
2.0
 40
2.0
 40
3.0
 40
3.0
 40
3.0
 40
4.0
 40
4.0
 40
4.0
 40
4.0
 10
10.55956217183927
 20
-17.20628824439634
 10
10.55956217183927
 20
-17.24601019534127
 10
10.54984700257087
 20
-17.29372476781198
 10
10.50044433331239
 20
-17.29372476781198
 10
10.4510416640539
 20
-17.29372476781198
 10
10.4413264947855
 20
-17.24601019534127
 10
10.4413264947855
 20
-17.20652940108031
 10
10.4413264947855
 20
-17.16680745013538
 10
10.4510416640539
 20
-17.11909287766467
 10
10.50044433331239
 20
-17.11909287766467
 10
10.54984700257087
 20
-17.11909287766467
 10
10.55956217183927
 20
-17.16680745013538
 10
10.55956217183927
 20
-17.20628824439634
 97
        0
 97
        1
330
9B
 75
     2
 76
     1
 98
        1
 10
0.0
 20
0.0
450
        0
451
        0
460
0.0
461
0.0
452
        0
462
0.0
453
        0
470

  0
ENDBLK
  5
8F
330
8C
100
AcDbEntity
  8
0
100
AcDbBlockEnd
  0
BLOCK
  5
9F
330
9D
100
AcDbEntity
  8
0
100
AcDbBlockBegin
  2
Block_2
 70
     0
 10
0.0
 20
0.0
 30
0.0
  3
Block_2
  1

  0
LINE
  5
A1
330
9D
100
AcDbEntity
  8
Livello 1
 62
    18
420
        0
370
     9
100
AcDbLine
 10
9.960250490045117
 20
-17.20877703509454
 30
0.0
 11
5.666390639271752
 21
-17.20877703509454
 31
0.0
  0
LWPOLYLINE
  5
A2
330
9D
100
AcDbEntity
  8
Livello 1
100
AcDbPolyline
 90
        3
 70
     1
 43
0.0
 10
5.409677866588546
 20
-17.20965411816614
 10
5.664574819335749
 20
-17.12467676160325
 10
5.664574819335749
 20
-17.29287730858582
  0
HATCH
  5
A3
330
9D
100
AcDbEntity
  8
Livello 1
 62
    18
420
        0
440
 33554687
100
AcDbHatch
 10
0.0
 20
0.0
 30
0.0
210
0.0
220
0.0
230
1.0
  2
SOLID
 70
     1
 71
     1
 91
        1
 92
        1
 93
        3
 72
     1
 10
5.409677866588546
 20
-17.20965411816614
 11
5.664574819335749
 21
-17.12467676160325
 72
     1
 10
5.664574819335749
 20
-17.12467676160325
 11
5.664574819335749
 21
-17.29287730858582
 72
     1
 10
5.664574819335749
 20
-17.29287730858582
 11
5.409677866588546
 21
-17.20965411816614
 97
        1
330
A2
 75
     0
 76
     1
 98
        1
 10
0.0
 20
0.0
450
        0
451
        0
460
0.0
461
0.0
452
        0
462
0.0
453
        0
470

  0
ENDBLK
  5
A0
330
9D
100
AcDbEntity
  8
0
100
AcDbBlockEnd
  0
BLOCK
  5
A6
330
A4
100
AcDbEntity
  8
0
100
AcDbBlockBegin
  2
Block_3
 70
     0
 10
0.0
 20
0.0
 30
0.0
  3
Block_3
  1

  0
LINE
  5
A8
330
A4
100
AcDbEntity
  8
Livello 1
 62
    18
420
        0
370
     9
100
AcDbLine
 10
10.60432298063745
 20
-17.20877703509454
 30
0.0
 11
14.96424802770341
 21
-17.20877703509454
 31
0.0
  0
LWPOLYLINE
  5
A9
330
A4
100
AcDbEntity
  8
Livello 1
100
AcDbPolyline
 90
        3
 70
     1
 43
0.0
 10
15.22096080038674
 20
-17.20789995202306
 10
14.96606384763951
 20
-17.29287730858582
 10
14.96606384763951
 20
-17.12467676160325
  0
HATCH
  5
AA
330
A4
100
AcDbEntity
  8
Livello 1
 62
    18
420
        0
440
 33554687
100
AcDbHatch
 10
0.0
 20
0.0
 30
0.0
210
0.0
220
0.0
230
1.0
  2
SOLID
 70
     1
 71
     1
 91
        1
 92
        1
 93
        3
 72
     1
 10
15.22096080038674
 20
-17.20789995202306
 11
14.96606384763951
 21
-17.29287730858582
 72
     1
 10
14.96606384763951
 20
-17.29287730858582
 11
14.96606384763951
 21
-17.12467676160325
 72
     1
 10
14.96606384763951
 20
-17.12467676160325
 11
15.22096080038674
 21
-17.20789995202306
 97
        1
330
A9
 75
     0
 76
     1
 98
        1
 10
0.0
 20
0.0
450
        0
451
        0
460
0.0
461
0.0
452
        0
462
0.0
453
        0
470

  0
ENDBLK
  5
A7
330
A4
100
AcDbEntity
  8
0
100
AcDbBlockEnd
  0
BLOCK
  5
AD
330
AB
100
AcDbEntity
  8
0
100
AcDbBlockBegin
  2
Block_4
 70
     0
 10
0.0
 20
0.0
 30
0.0
  3
Block_4
  1

  0
INSERT
  5
B0
330
AB
100
AcDbEntity
  8
Livello 1
100
AcDbBlockReference
  2
Block_5
 10
0.0
 20
0.0
 30
0.0
  0
INSERT
  5
BD
330
AB
100
AcDbEntity
  8
Livello 1
100
AcDbBlockReference
  2
Block_7
 10
0.0
 20
0.0
 30
0.0
  0
INSERT
  5
C4
330
AB
100
AcDbEntity
  8
Livello 1
100
AcDbBlockReference
  2
Block_8
 10
0.0
 20
0.0
 30
0.0
  0
ENDBLK
  5
AE
330
AB
100
AcDbEntity
  8
0
100
AcDbBlockEnd
  0
BLOCK
  5
B1
330
AF
100
AcDbEntity
  8
0
100
AcDbBlockBegin
  2
Block_5
 70
     0
 10
0.0
 20
0.0
 30
0.0
  3
Block_5
  1

  0
INSERT
  5
B4
330
AF
100
AcDbEntity
  8
Livello 1
100
AcDbBlockReference
  2
Block_6
 10
0.0
 20
0.0
 30
0.0
  0
ENDBLK
  5
B2
330
AF
100
AcDbEntity
  8
0
100
AcDbBlockEnd
  0
BLOCK
  5
B5
330
B3
100
AcDbEntity
  8
0
100
AcDbBlockBegin
  2
Block_6
 70
     0
 10
0.0
 20
0.0
 30
0.0
  3
Block_6
  1

  0
SPLINE
  5
B7
330
B3
100
AcDbEntity
  8
Livello 1
100
AcDbSpline
210
0.0
220
0.0
230
1.0
 70
     9
 71
     3
 72
    26
 73
    22
 74
     0
 42
0.000000001
 43
0.0000000001
 40
0.0
 40
0.0
 40
0.0
 40
0.0
 40
1.0
 40
1.0
 40
1.0
 40
2.0
 40
2.0
 40
2.0
 40
3.0
 40
3.0
 40
3.0
 40
4.0
 40
4.0
 40
4.0
 40
5.0
 40
5.0
 40
5.0
 40
6.0
 40
6.0
 40
6.0
 40
7.0
 40
7.0
 40
7.0
 40
7.0
 10
4.685329859939778
 20
-16.42545735266446
 30
0.0
 10
4.711977673518187
 20
-16.4244927259286
 30
0.0
 10
4.728445229937679
 20
-16.42401041256066
 30
0.0
 10
4.733044432410488
 20
-16.39276339650945
 30
0.0
 10
4.733044432410488
 20
-16.39276339650945
 30
0.0
 10
4.745412325202535
 20
-16.39276339650945
 30
0.0
 10
4.745412325202535
 20
-16.39276339650945
 30
0.0
 10
4.745412325202535
 20
-16.39276339650945
 30
0.0
 10
4.745412325202535
 20
-16.56233099629344
 30
0.0
 10
4.745412325202535
 20
-16.56233099629344
 30
0.0
 10
4.745412325202535
 20
-16.56233099629344
 30
0.0
 10
4.730150552202879
 20
-16.56233099629344
 30
0.0
 10
4.730150552202879
 20
-16.56233099629344
 30
0.0
 10
4.730150552202879
 20
-16.56233099629344
 30
0.0
 10
4.730150552202879
 20
-16.43637830535271
 30
0.0
 10
4.730150552202879
 20
-16.43637830535271
 30
0.0
 10
4.730150552202879
 20
-16.43637830535271
 30
0.0
 10
4.685329859939778
 20
-16.43637830535271
 30
0.0
 10
4.685329859939778
 20
-16.43637830535271
 30
0.0
 10
4.685329859939778
 20
-16.43637830535271
 30
0.0
 10
4.685329859939778
 20
-16.42545735266446
 30
0.0
 10
4.685329859939778
 20
-16.42545735266446
 30
0.0
  0
HATCH
  5
B8
330
B3
100
AcDbEntity
  8
Livello 1
 62
    18
420
        0
440
 33554687
100
AcDbHatch
 10
0.0
 20
0.0
 30
0.0
210
0.0
220
0.0
230
1.0
  2
SOLID
 70
     1
 71
     1
 91
        1
 92
        1
 93
        1
 72
     4
 94
        3
 73
     0
 74
     0
 95
       26
 96
       22
 40
0.0
 40
0.0
 40
0.0
 40
0.0
 40
1.0
 40
1.0
 40
1.0
 40
2.0
 40
2.0
 40
2.0
 40
3.0
 40
3.0
 40
3.0
 40
4.0
 40
4.0
 40
4.0
 40
5.0
 40
5.0
 40
5.0
 40
6.0
 40
6.0
 40
6.0
 40
7.0
 40
7.0
 40
7.0
 40
7.0
 10
4.685329859939778
 20
-16.42545735266446
 10
4.711977673518187
 20
-16.4244927259286
 10
4.728445229937679
 20
-16.42401041256066
 10
4.733044432410488
 20
-16.39276339650945
 10
4.733044432410488
 20
-16.39276339650945
 10
4.745412325202535
 20
-16.39276339650945
 10
4.745412325202535
 20
-16.39276339650945
 10
4.745412325202535
 20
-16.39276339650945
 10
4.745412325202535
 20
-16.56233099629344
 10
4.745412325202535
 20
-16.56233099629344
 10
4.745412325202535
 20
-16.56233099629344
 10
4.730150552202879
 20
-16.56233099629344
 10
4.730150552202879
 20
-16.56233099629344
 10
4.730150552202879
 20
-16.56233099629344
 10
4.730150552202879
 20
-16.43637830535271
 10
4.730150552202879
 20
-16.43637830535271
 10
4.730150552202879
 20
-16.43637830535271
 10
4.685329859939778
 20
-16.43637830535271
 10
4.685329859939778
 20
-16.43637830535271
 10
4.685329859939778
 20
-16.43637830535271
 10
4.685329859939778
 20
-16.42545735266446
 10
4.685329859939778
 20
-16.42545735266446
 97
        0
 97
        1
330
B7
 75
     2
 76
     1
 98
        1
 10
0.0
 20
0.0
450
        0
451
        0
460
0.0
461
0.0
452
        0
462
0.0
453
        0
470

  0
SPLINE
  5
B9
330
B3
100
AcDbEntity
  8
Livello 1
100
AcDbSpline
210
0.0
220
0.0
230
1.0
 70
    11
 71
     3
 72
    17
 73
    13
 74
     0
 42
0.000000001
 43
0.0000000001
 40
0.0
 40
0.0
 40
0.0
 40
0.0
 40
1.0
 40
1.0
 40
1.0
 40
2.0
 40
2.0
 40
2.0
 40
3.0
 40
3.0
 40
3.0
 40
4.0
 40
4.0
 40
4.0
 40
4.0
 10
4.881889782850707
 20
-16.50734727234885
 30
0.0
 10
4.881889782850707
 20
-16.50734727234885
 30
0.0
 10
4.881889782850707
 20
-16.41505316429901
 30
0.0
 10
4.881889782850707
 20
-16.41505316429901
 30
0.0
 10
4.881889782850707
 20
-16.41505316429901
 30
0.0
 10
4.881407469482772
 20
-16.41505316429901
 30
0.0
 10
4.881407469482772
 20
-16.41505316429901
 30
0.0
 10
4.881407469482772
 20
-16.41505316429901
 30
0.0
 10
4.817449271799108
 20
-16.50734727234885
 30
0.0
 10
4.817449271799108
 20
-16.50734727234885
 30
0.0
 10
4.817449271799108
 20
-16.50734727234885
 30
0.0
 10
4.881889782850707
 20
-16.50734727234885
 30
0.0
 10
4.881889782850707
 20
-16.50734727234885
 30
0.0
  0
SPLINE
  5
BA
330
B3
100
AcDbEntity
  8
Livello 1
100
AcDbSpline
210
0.0
220
0.0
230
1.0
 70
    11
 71
     3
 72
    38
 73
    34
 74
     0
 42
0.000000001
 43
0.0000000001
 40
0.0
 40
0.0
 40
0.0
 40
0.0
 40
1.0
 40
1.0
 40
1.0
 40
2.0
 40
2.0
 40
2.0
 40
3.0
 40
3.0
 40
3.0
 40
4.0
 40
4.0
 40
4.0
 40
5.0
 40
5.0
 40
5.0
 40
6.0
 40
6.0
 40
6.0
 40
7.0
 40
7.0
 40
7.0
 40
8.0
 40
8.0
 40
8.0
 40
9.0
 40
9.0
 40
9.0
 40
10.0
 40
10.0
 40
10.0
 40
11.0
 40
11.0
 40
11.0
 40
11.0
 10
4.803651664380683
 20
-16.50538356792226
 30
0.0
 10
4.803651664380683
 20
-16.50538356792226
 30
0.0
 10
4.882130939534675
 20
-16.39276339650945
 30
0.0
 10
4.882130939534675
 20
-16.39276339650945
 30
0.0
 10
4.882130939534675
 20
-16.39276339650945
 30
0.0
 10
4.895945772430526
 20
-16.39276339650945
 30
0.0
 10
4.895945772430526
 20
-16.39276339650945
 30
0.0
 10
4.895945772430526
 20
-16.39276339650945
 30
0.0
 10
4.895945772430526
 20
-16.50734727234885
 30
0.0
 10
4.895945772430526
 20
-16.50734727234885
 30
0.0
 10
4.895945772430526
 20
-16.50734727234885
 30
0.0
 10
4.92137057711167
 20
-16.50734727234885
 30
0.0
 10
4.92137057711167
 20
-16.50734727234885
 30
0.0
 10
4.92137057711167
 20
-16.50734727234885
 30
0.0
 10
4.92137057711167
 20
-16.52016302755398
 30
0.0
 10
4.92137057711167
 20
-16.52016302755398
 30
0.0
 10
4.92137057711167
 20
-16.52016302755398
 30
0.0
 10
4.895945772430526
 20
-16.52016302755398
 30
0.0
 10
4.895945772430526
 20
-16.52016302755398
 30
0.0
 10
4.895945772430526
 20
-16.52016302755398
 30
0.0
 10
4.895945772430526
 20
-16.56233099629344
 30
0.0
 10
4.895945772430526
 20
-16.56233099629344
 30
0.0
 10
4.895945772430526
 20
-16.56233099629344
 30
0.0
 10
4.881889782850707
 20
-16.56233099629344
 30
0.0
 10
4.881889782850707
 20
-16.56233099629344
 30
0.0
 10
4.881889782850707
 20
-16.56233099629344
 30
0.0
 10
4.881889782850707
 20
-16.52016302755398
 30
0.0
 10
4.881889782850707
 20
-16.52016302755398
 30
0.0
 10
4.881889782850707
 20
-16.52016302755398
 30
0.0
 10
4.803651664380683
 20
-16.52016302755398
 30
0.0
 10
4.803651664380683
 20
-16.52016302755398
 30
0.0
 10
4.803651664380683
 20
-16.52016302755398
 30
0.0
 10
4.803651664380683
 20
-16.50538356792226
 30
0.0
 10
4.803651664380683
 20
-16.50538356792226
 30
0.0
  0
HATCH
  5
BB
330
B3
100
AcDbEntity
  8
Livello 1
 62
    18
420
        0
440
 33554687
100
AcDbHatch
 10
0.0
 20
0.0
 30
0.0
210
0.0
220
0.0
230
1.0
  2
SOLID
 70
     1
 71
     1
 91
        2
 92
        1
 93
        1
 72
     4
 94
        3
 73
     0
 74
     0
 95
       17
 96
       13
 40
0.0
 40
0.0
 40
0.0
 40
0.0
 40
1.0
 40
1.0
 40
1.0
 40
2.0
 40
2.0
 40
2.0
 40
3.0
 40
3.0
 40
3.0
 40
4.0
 40
4.0
 40
4.0
 40
4.0
 10
4.881889782850707
 20
-16.50734727234885
 10
4.881889782850707
 20
-16.50734727234885
 10
4.881889782850707
 20
-16.41505316429901
 10
4.881889782850707
 20
-16.41505316429901
 10
4.881889782850707
 20
-16.41505316429901
 10
4.881407469482772
 20
-16.41505316429901
 10
4.881407469482772
 20
-16.41505316429901
 10
4.881407469482772
 20
-16.41505316429901
 10
4.817449271799108
 20
-16.50734727234885
 10
4.817449271799108
 20
-16.50734727234885
 10
4.817449271799108
 20
-16.50734727234885
 10
4.881889782850707
 20
-16.50734727234885
 10
4.881889782850707
 20
-16.50734727234885
 97
        0
 97
        1
330
B9
 92
        1
 93
        1
 72
     4
 94
        3
 73
     0
 74
     0
 95
       38
 96
       34
 40
0.0
 40
0.0
 40
0.0
 40
0.0
 40
1.0
 40
1.0
 40
1.0
 40
2.0
 40
2.0
 40
2.0
 40
3.0
 40
3.0
 40
3.0
 40
4.0
 40
4.0
 40
4.0
 40
5.0
 40
5.0
 40
5.0
 40
6.0
 40
6.0
 40
6.0
 40
7.0
 40
7.0
 40
7.0
 40
8.0
 40
8.0
 40
8.0
 40
9.0
 40
9.0
 40
9.0
 40
10.0
 40
10.0
 40
10.0
 40
11.0
 40
11.0
 40
11.0
 40
11.0
 10
4.803651664380683
 20
-16.50538356792226
 10
4.803651664380683
 20
-16.50538356792226
 10
4.882130939534675
 20
-16.39276339650945
 10
4.882130939534675
 20
-16.39276339650945
 10
4.882130939534675
 20
-16.39276339650945
 10
4.895945772430526
 20
-16.39276339650945
 10
4.895945772430526
 20
-16.39276339650945
 10
4.895945772430526
 20
-16.39276339650945
 10
4.895945772430526
 20
-16.50734727234885
 10
4.895945772430526
 20
-16.50734727234885
 10
4.895945772430526
 20
-16.50734727234885
 10
4.92137057711167
 20
-16.50734727234885
 10
4.92137057711167
 20
-16.50734727234885
 10
4.92137057711167
 20
-16.50734727234885
 10
4.92137057711167
 20
-16.52016302755398
 10
4.92137057711167
 20
-16.52016302755398
 10
4.92137057711167
 20
-16.52016302755398
 10
4.895945772430526
 20
-16.52016302755398
 10
4.895945772430526
 20
-16.52016302755398
 10
4.895945772430526
 20
-16.52016302755398
 10
4.895945772430526
 20
-16.56233099629344
 10
4.895945772430526
 20
-16.56233099629344
 10
4.895945772430526
 20
-16.56233099629344
 10
4.881889782850707
 20
-16.56233099629344
 10
4.881889782850707
 20
-16.56233099629344
 10
4.881889782850707
 20
-16.56233099629344
 10
4.881889782850707
 20
-16.52016302755398
 10
4.881889782850707
 20
-16.52016302755398
 10
4.881889782850707
 20
-16.52016302755398
 10
4.803651664380683
 20
-16.52016302755398
 10
4.803651664380683
 20
-16.52016302755398
 10
4.803651664380683
 20
-16.52016302755398
 10
4.803651664380683
 20
-16.50538356792226
 10
4.803651664380683
 20
-16.50538356792226
 97
        0
 97
        1
330
BA
 75
     2
 76
     1
 98
        1
 10
0.0
 20
0.0
450
        0
451
        0
460
0.0
461
0.0
452
        0
462
0.0
453
        0
470

  0
ENDBLK
  5
B6
330
B3
100
AcDbEntity
  8
0
100
AcDbBlockEnd
  0
BLOCK
  5
BE
330
BC
100
AcDbEntity
  8
0
100
AcDbBlockBegin
  2
Block_7
 70
     0
 10
0.0
 20
0.0
 30
0.0
  3
Block_7
  1

  0
LINE
  5
C0
330
BC
100
AcDbEntity
  8
Livello 1
 62
    18
420
        0
370
     9
100
AcDbLine
 10
4.791307359819509
 20
-16.35565839480518
 30
0.0
 11
4.791307359819509
 21
-16.30295162302055
 31
0.0
  0
LWPOLYLINE
  5
C1
330
BC
100
AcDbEntity
  8
Livello 1
100
AcDbPolyline
 90
        3
 70
     1
 43
0.0
 10
4.790430276748035
 20
-16.04623885033728
 10
4.875407633310762
 20
-16.30113580308445
 10
4.70720708632819
 20
-16.30113580308445
  0
HATCH
  5
C2
330
BC
100
AcDbEntity
  8
Livello 1
 62
    18
420
        0
440
 33554687
100
AcDbHatch
 10
0.0
 20
0.0
 30
0.0
210
0.0
220
0.0
230
1.0
  2
SOLID
 70
     1
 71
     1
 91
        1
 92
        1
 93
        3
 72
     1
 10
4.790430276748035
 20
-16.04623885033728
 11
4.875407633310762
 21
-16.30113580308445
 72
     1
 10
4.875407633310762
 20
-16.30113580308445
 11
4.70720708632819
 21
-16.30113580308445
 72
     1
 10
4.70720708632819
 20
-16.30113580308445
 11
4.790430276748035
 21
-16.04623885033728
 97
        1
330
C1
 75
     0
 76
     1
 98
        1
 10
0.0
 20
0.0
450
        0
451
        0
460
0.0
461
0.0
452
        0
462
0.0
453
        0
470

  0
ENDBLK
  5
BF
330
BC
100
AcDbEntity
  8
0
100
AcDbBlockEnd
  0
BLOCK
  5
C5
330
C3
100
AcDbEntity
  8
0
100
AcDbBlockBegin
  2
Block_8
 70
     0
 10
0.0
 20
0.0
 30
0.0
  3
Block_8
  1

  0
LINE
  5
C7
330
C3
100
AcDbEntity
  8
Livello 1
 62
    18
420
        0
370
     9
100
AcDbLine
 10
4.791307359819509
 20
-16.64232426487187
 30
0.0
 11
4.791307359819509
 21
-16.68591183457521
 31
0.0
  0
LWPOLYLINE
  5
C8
330
C3
100
AcDbEntity
  8
Livello 1
100
AcDbPolyline
 90
        3
 70
     1
 43
0.0
 10
4.792184442891013
 20
-16.94262460725854
 10
4.70720708632819
 20
-16.68772765451137
 10
4.875407633310762
 20
-16.68772765451137
  0
HATCH
  5
C9
330
C3
100
AcDbEntity
  8
Livello 1
 62
    18
420
        0
440
 33554687
100
AcDbHatch
 10
0.0
 20
0.0
 30
0.0
210
0.0
220
0.0
230
1.0
  2
SOLID
 70
     1
 71
     1
 91
        1
 92
        1
 93
        3
 72
     1
 10
4.792184442891013
 20
-16.94262460725854
 11
4.70720708632819
 21
-16.68772765451137
 72
     1
 10
4.70720708632819
 20
-16.68772765451137
 11
4.875407633310762
 21
-16.68772765451137
 72
     1
 10
4.875407633310762
 20
-16.68772765451137
 11
4.792184442891013
 21
-16.94262460725854
 97
        1
330
C8
 75
     0
 76
     1
 98
        1
 10
0.0
 20
0.0
450
        0
451
        0
460
0.0
461
0.0
452
        0
462
0.0
453
        0
470

  0
ENDBLK
  5
C6
330
C3
100
AcDbEntity
  8
0
100
AcDbBlockEnd
  0
BLOCK
  5
CC
330
CA
100
AcDbEntity
  8
0
100
AcDbBlockBegin
  2
Block_9
 70
     0
 10
0.0
 20
0.0
 30
0.0
  3
Block_9
  1

  0
INSERT
  5
CF
330
CA
100
AcDbEntity
  8
Livello 1
100
AcDbBlockReference
  2
Block_10
 10
0.0
 20
0.0
 30
0.0
  0
ENDBLK
  5
CD
330
CA
100
AcDbEntity
  8
0
100
AcDbBlockEnd
  0
BLOCK
  5
D0
330
CE
100
AcDbEntity
  8
0
100
AcDbBlockBegin
  2
Block_10
 70
     0
 10
0.0
 20
0.0
 30
0.0
  3
Block_10
  1

  0
SPLINE
  5
D2
330
CE
100
AcDbEntity
  8
Livello 1
100
AcDbSpline
210
0.0
220
0.0
230
1.0
 70
    11
 71
     3
 72
    17
 73
    13
 74
     0
 42
0.000000001
 43
0.0000000001
 40
0.0
 40
0.0
 40
0.0
 40
0.0
 40
1.0
 40
1.0
 40
1.0
 40
2.0
 40
2.0
 40
2.0
 40
3.0
 40
3.0
 40
3.0
 40
4.0
 40
4.0
 40
4.0
 40
4.0
 10
15.77798610716661
 20
-16.18275037572862
 30
0.0
 10
15.77798610716661
 20
-16.18275037572862
 30
0.0
 10
15.77798610716661
 20
-16.09045626767876
 30
0.0
 10
15.77798610716661
 20
-16.09045626767876
 30
0.0
 10
15.77798610716661
 20
-16.09045626767876
 30
0.0
 10
15.77750379379868
 20
-16.09045626767876
 30
0.0
 10
15.77750379379868
 20
-16.09045626767876
 30
0.0
 10
15.77750379379868
 20
-16.09045626767876
 30
0.0
 10
15.71352837063759
 20
-16.18275037572862
 30
0.0
 10
15.71352837063759
 20
-16.18275037572862
 30
0.0
 10
15.71352837063759
 20
-16.18275037572862
 30
0.0
 10
15.77798610716661
 20
-16.18275037572862
 30
0.0
 10
15.77798610716661
 20
-16.18275037572862
 30
0.0
  0
SPLINE
  5
D3
330
CE
100
AcDbEntity
  8
Livello 1
100
AcDbSpline
210
0.0
220
0.0
230
1.0
 70
    11
 71
     3
 72
    38
 73
    34
 74
     0
 42
0.000000001
 43
0.0000000001
 40
0.0
 40
0.0
 40
0.0
 40
0.0
 40
1.0
 40
1.0
 40
1.0
 40
2.0
 40
2.0
 40
2.0
 40
3.0
 40
3.0
 40
3.0
 40
4.0
 40
4.0
 40
4.0
 40
5.0
 40
5.0
 40
5.0
 40
6.0
 40
6.0
 40
6.0
 40
7.0
 40
7.0
 40
7.0
 40
8.0
 40
8.0
 40
8.0
 40
9.0
 40
9.0
 40
9.0
 40
10.0
 40
10.0
 40
10.0
 40
11.0
 40
11.0
 40
11.0
 40
11.0
 10
15.69971353774174
 20
-16.18082112225687
 30
0.0
 10
15.69971353774174
 20
-16.18082112225687
 30
0.0
 10
15.77819281289573
 20
-16.06816649988921
 30
0.0
 10
15.77819281289573
 20
-16.06816649988921
 30
0.0
 10
15.77819281289573
 20
-16.06816649988921
 30
0.0
 10
15.79204209674643
 20
-16.06816649988921
 30
0.0
 10
15.79204209674643
 20
-16.06816649988921
 30
0.0
 10
15.79204209674643
 20
-16.06816649988921
 30
0.0
 10
15.79204209674643
 20
-16.18275037572862
 30
0.0
 10
15.79204209674643
 20
-16.18275037572862
 30
0.0
 10
15.79204209674643
 20
-16.18275037572862
 30
0.0
 10
15.81746690142757
 20
-16.18275037572862
 30
0.0
 10
15.81746690142757
 20
-16.18275037572862
 30
0.0
 10
15.81746690142757
 20
-16.18275037572862
 30
0.0
 10
15.81746690142757
 20
-16.1956005818886
 30
0.0
 10
15.81746690142757
 20
-16.1956005818886
 30
0.0
 10
15.81746690142757
 20
-16.1956005818886
 30
0.0
 10
15.79204209674643
 20
-16.1956005818886
 30
0.0
 10
15.79204209674643
 20
-16.1956005818886
 30
0.0
 10
15.79204209674643
 20
-16.1956005818886
 30
0.0
 10
15.79204209674643
 20
-16.2377340996732
 30
0.0
 10
15.79204209674643
 20
-16.2377340996732
 30
0.0
 10
15.79204209674643
 20
-16.2377340996732
 30
0.0
 10
15.77798610716661
 20
-16.2377340996732
 30
0.0
 10
15.77798610716661
 20
-16.2377340996732
 30
0.0
 10
15.77798610716661
 20
-16.2377340996732
 30
0.0
 10
15.77798610716661
 20
-16.1956005818886
 30
0.0
 10
15.77798610716661
 20
-16.1956005818886
 30
0.0
 10
15.77798610716661
 20
-16.1956005818886
 30
0.0
 10
15.69971353774174
 20
-16.1956005818886
 30
0.0
 10
15.69971353774174
 20
-16.1956005818886
 30
0.0
 10
15.69971353774174
 20
-16.1956005818886
 30
0.0
 10
15.69971353774174
 20
-16.18082112225687
 30
0.0
 10
15.69971353774174
 20
-16.18082112225687
 30
0.0
  0
HATCH
  5
D4
330
CE
100
AcDbEntity
  8
Livello 1
 62
    18
420
        0
440
 33554687
100
AcDbHatch
 10
0.0
 20
0.0
 30
0.0
210
0.0
220
0.0
230
1.0
  2
SOLID
 70
     1
 71
     1
 91
        2
 92
        1
 93
        1
 72
     4
 94
        3
 73
     0
 74
     0
 95
       17
 96
       13
 40
0.0
 40
0.0
 40
0.0
 40
0.0
 40
1.0
 40
1.0
 40
1.0
 40
2.0
 40
2.0
 40
2.0
 40
3.0
 40
3.0
 40
3.0
 40
4.0
 40
4.0
 40
4.0
 40
4.0
 10
15.77798610716661
 20
-16.18275037572862
 10
15.77798610716661
 20
-16.18275037572862
 10
15.77798610716661
 20
-16.09045626767876
 10
15.77798610716661
 20
-16.09045626767876
 10
15.77798610716661
 20
-16.09045626767876
 10
15.77750379379868
 20
-16.09045626767876
 10
15.77750379379868
 20
-16.09045626767876
 10
15.77750379379868
 20
-16.09045626767876
 10
15.71352837063759
 20
-16.18275037572862
 10
15.71352837063759
 20
-16.18275037572862
 10
15.71352837063759
 20
-16.18275037572862
 10
15.77798610716661
 20
-16.18275037572862
 10
15.77798610716661
 20
-16.18275037572862
 97
        0
 97
        1
330
D2
 92
        1
 93
        1
 72
     4
 94
        3
 73
     0
 74
     0
 95
       38
 96
       34
 40
0.0
 40
0.0
 40
0.0
 40
0.0
 40
1.0
 40
1.0
 40
1.0
 40
2.0
 40
2.0
 40
2.0
 40
3.0
 40
3.0
 40
3.0
 40
4.0
 40
4.0
 40
4.0
 40
5.0
 40
5.0
 40
5.0
 40
6.0
 40
6.0
 40
6.0
 40
7.0
 40
7.0
 40
7.0
 40
8.0
 40
8.0
 40
8.0
 40
9.0
 40
9.0
 40
9.0
 40
10.0
 40
10.0
 40
10.0
 40
11.0
 40
11.0
 40
11.0
 40
11.0
 10
15.69971353774174
 20
-16.18082112225687
 10
15.69971353774174
 20
-16.18082112225687
 10
15.77819281289573
 20
-16.06816649988921
 10
15.77819281289573
 20
-16.06816649988921
 10
15.77819281289573
 20
-16.06816649988921
 10
15.79204209674643
 20
-16.06816649988921
 10
15.79204209674643
 20
-16.06816649988921
 10
15.79204209674643
 20
-16.06816649988921
 10
15.79204209674643
 20
-16.18275037572862
 10
15.79204209674643
 20
-16.18275037572862
 10
15.79204209674643
 20
-16.18275037572862
 10
15.81746690142757
 20
-16.18275037572862
 10
15.81746690142757
 20
-16.18275037572862
 10
15.81746690142757
 20
-16.18275037572862
 10
15.81746690142757
 20
-16.1956005818886
 10
15.81746690142757
 20
-16.1956005818886
 10
15.81746690142757
 20
-16.1956005818886
 10
15.79204209674643
 20
-16.1956005818886
 10
15.79204209674643
 20
-16.1956005818886
 10
15.79204209674643
 20
-16.1956005818886
 10
15.79204209674643
 20
-16.2377340996732
 10
15.79204209674643
 20
-16.2377340996732
 10
15.79204209674643
 20
-16.2377340996732
 10
15.77798610716661
 20
-16.2377340996732
 10
15.77798610716661
 20
-16.2377340996732
 10
15.77798610716661
 20
-16.2377340996732
 10
15.77798610716661
 20
-16.1956005818886
 10
15.77798610716661
 20
-16.1956005818886
 10
15.77798610716661
 20
-16.1956005818886
 10
15.69971353774174
 20
-16.1956005818886
 10
15.69971353774174
 20
-16.1956005818886
 10
15.69971353774174
 20
-16.1956005818886
 10
15.69971353774174
 20
-16.18082112225687
 10
15.69971353774174
 20
-16.18082112225687
 97
        0
 97
        1
330
D3
 75
     2
 76
     1
 98
        1
 10
0.0
 20
0.0
450
        0
451
        0
460
0.0
461
0.0
452
        0
462
0.0
453
        0
470

  0
SPLINE
  5
D5
330
CE
100
AcDbEntity
  8
Livello 1
100
AcDbSpline
210
0.0
220
0.0
230
1.0
 70
    11
 71
     3
 72
    17
 73
    13
 74
     0
 42
0.000000001
 43
0.0000000001
 40
0.0
 40
0.0
 40
0.0
 40
0.0
 40
1.0
 40
1.0
 40
1.0
 40
2.0
 40
2.0
 40
2.0
 40
3.0
 40
3.0
 40
3.0
 40
4.0
 40
4.0
 40
4.0
 40
4.0
 10
15.91251708586562
 20
-16.18275037572862
 30
0.0
 10
15.91251708586562
 20
-16.18275037572862
 30
0.0
 10
15.91251708586562
 20
-16.09045626767876
 30
0.0
 10
15.91251708586562
 20
-16.09045626767876
 30
0.0
 10
15.91251708586562
 20
-16.09045626767876
 30
0.0
 10
15.91203477249768
 20
-16.09045626767876
 30
0.0
 10
15.91203477249768
 20
-16.09045626767876
 30
0.0
 10
15.91203477249768
 20
-16.09045626767876
 30
0.0
 10
15.84805934933659
 20
-16.18275037572862
 30
0.0
 10
15.84805934933659
 20
-16.18275037572862
 30
0.0
 10
15.84805934933659
 20
-16.18275037572862
 30
0.0
 10
15.91251708586562
 20
-16.18275037572862
 30
0.0
 10
15.91251708586562
 20
-16.18275037572862
 30
0.0
  0
SPLINE
  5
D6
330
CE
100
AcDbEntity
  8
Livello 1
100
AcDbSpline
210
0.0
220
0.0
230
1.0
 70
    11
 71
     3
 72
    38
 73
    34
 74
     0
 42
0.000000001
 43
0.0000000001
 40
0.0
 40
0.0
 40
0.0
 40
0.0
 40
1.0
 40
1.0
 40
1.0
 40
2.0
 40
2.0
 40
2.0
 40
3.0
 40
3.0
 40
3.0
 40
4.0
 40
4.0
 40
4.0
 40
5.0
 40
5.0
 40
5.0
 40
6.0
 40
6.0
 40
6.0
 40
7.0
 40
7.0
 40
7.0
 40
8.0
 40
8.0
 40
8.0
 40
9.0
 40
9.0
 40
9.0
 40
10.0
 40
10.0
 40
10.0
 40
11.0
 40
11.0
 40
11.0
 40
11.0
 10
15.83427896739559
 20
-16.18082112225687
 30
0.0
 10
15.83427896739559
 20
-16.18082112225687
 30
0.0
 10
15.91275824254959
 20
-16.06816649988921
 30
0.0
 10
15.91275824254959
 20
-16.06816649988921
 30
0.0
 10
15.91275824254959
 20
-16.06816649988921
 30
0.0
 10
15.92657307544544
 20
-16.06816649988921
 30
0.0
 10
15.92657307544544
 20
-16.06816649988921
 30
0.0
 10
15.92657307544544
 20
-16.06816649988921
 30
0.0
 10
15.92657307544544
 20
-16.18275037572862
 30
0.0
 10
15.92657307544544
 20
-16.18275037572862
 30
0.0
 10
15.92657307544544
 20
-16.18275037572862
 30
0.0
 10
15.95199788012658
 20
-16.18275037572862
 30
0.0
 10
15.95199788012658
 20
-16.18275037572862
 30
0.0
 10
15.95199788012658
 20
-16.18275037572862
 30
0.0
 10
15.95199788012658
 20
-16.1956005818886
 30
0.0
 10
15.95199788012658
 20
-16.1956005818886
 30
0.0
 10
15.95199788012658
 20
-16.1956005818886
 30
0.0
 10
15.92657307544544
 20
-16.1956005818886
 30
0.0
 10
15.92657307544544
 20
-16.1956005818886
 30
0.0
 10
15.92657307544544
 20
-16.1956005818886
 30
0.0
 10
15.92657307544544
 20
-16.2377340996732
 30
0.0
 10
15.92657307544544
 20
-16.2377340996732
 30
0.0
 10
15.92657307544544
 20
-16.2377340996732
 30
0.0
 10
15.91251708586562
 20
-16.2377340996732
 30
0.0
 10
15.91251708586562
 20
-16.2377340996732
 30
0.0
 10
15.91251708586562
 20
-16.2377340996732
 30
0.0
 10
15.91251708586562
 20
-16.1956005818886
 30
0.0
 10
15.91251708586562
 20
-16.1956005818886
 30
0.0
 10
15.91251708586562
 20
-16.1956005818886
 30
0.0
 10
15.83427896739559
 20
-16.1956005818886
 30
0.0
 10
15.83427896739559
 20
-16.1956005818886
 30
0.0
 10
15.83427896739559
 20
-16.1956005818886
 30
0.0
 10
15.83427896739559
 20
-16.18082112225687
 30
0.0
 10
15.83427896739559
 20
-16.18082112225687
 30
0.0
  0
HATCH
  5
D7
330
CE
100
AcDbEntity
  8
Livello 1
 62
    18
420
        0
440
 33554687
100
AcDbHatch
 10
0.0
 20
0.0
 30
0.0
210
0.0
220
0.0
230
1.0
  2
SOLID
 70
     1
 71
     1
 91
        2
 92
        1
 93
        1
 72
     4
 94
        3
 73
     0
 74
     0
 95
       17
 96
       13
 40
0.0
 40
0.0
 40
0.0
 40
0.0
 40
1.0
 40
1.0
 40
1.0
 40
2.0
 40
2.0
 40
2.0
 40
3.0
 40
3.0
 40
3.0
 40
4.0
 40
4.0
 40
4.0
 40
4.0
 10
15.91251708586562
 20
-16.18275037572862
 10
15.91251708586562
 20
-16.18275037572862
 10
15.91251708586562
 20
-16.09045626767876
 10
15.91251708586562
 20
-16.09045626767876
 10
15.91251708586562
 20
-16.09045626767876
 10
15.91203477249768
 20
-16.09045626767876
 10
15.91203477249768
 20
-16.09045626767876
 10
15.91203477249768
 20
-16.09045626767876
 10
15.84805934933659
 20
-16.18275037572862
 10
15.84805934933659
 20
-16.18275037572862
 10
15.84805934933659
 20
-16.18275037572862
 10
15.91251708586562
 20
-16.18275037572862
 10
15.91251708586562
 20
-16.18275037572862
 97
        0
 97
        1
330
D5
 92
        1
 93
        1
 72
     4
 94
        3
 73
     0
 74
     0
 95
       38
 96
       34
 40
0.0
 40
0.0
 40
0.0
 40
0.0
 40
1.0
 40
1.0
 40
1.0
 40
2.0
 40
2.0
 40
2.0
 40
3.0
 40
3.0
 40
3.0
 40
4.0
 40
4.0
 40
4.0
 40
5.0
 40
5.0
 40
5.0
 40
6.0
 40
6.0
 40
6.0
 40
7.0
 40
7.0
 40
7.0
 40
8.0
 40
8.0
 40
8.0
 40
9.0
 40
9.0
 40
9.0
 40
10.0
 40
10.0
 40
10.0
 40
11.0
 40
11.0
 40
11.0
 40
11.0
 10
15.83427896739559
 20
-16.18082112225687
 10
15.83427896739559
 20
-16.18082112225687
 10
15.91275824254959
 20
-16.06816649988921
 10
15.91275824254959
 20
-16.06816649988921
 10
15.91275824254959
 20
-16.06816649988921
 10
15.92657307544544
 20
-16.06816649988921
 10
15.92657307544544
 20
-16.06816649988921
 10
15.92657307544544
 20
-16.06816649988921
 10
15.92657307544544
 20
-16.18275037572862
 10
15.92657307544544
 20
-16.18275037572862
 10
15.92657307544544
 20
-16.18275037572862
 10
15.95199788012658
 20
-16.18275037572862
 10
15.95199788012658
 20
-16.18275037572862
 10
15.95199788012658
 20
-16.18275037572862
 10
15.95199788012658
 20
-16.1956005818886
 10
15.95199788012658
 20
-16.1956005818886
 10
15.95199788012658
 20
-16.1956005818886
 10
15.92657307544544
 20
-16.1956005818886
 10
15.92657307544544
 20
-16.1956005818886
 10
15.92657307544544
 20
-16.1956005818886
 10
15.92657307544544
 20
-16.2377340996732
 10
15.92657307544544
 20
-16.2377340996732
 10
15.92657307544544
 20
-16.2377340996732
 10
15.91251708586562
 20
-16.2377340996732
 10
15.91251708586562
 20
-16.2377340996732
 10
15.91251708586562
 20
-16.2377340996732
 10
15.91251708586562
 20
-16.1956005818886
 10
15.91251708586562
 20
-16.1956005818886
 10
15.91251708586562
 20
-16.1956005818886
 10
15.83427896739559
 20
-16.1956005818886
 10
15.83427896739559
 20
-16.1956005818886
 10
15.83427896739559
 20
-16.1956005818886
 10
15.83427896739559
 20
-16.18082112225687
 10
15.83427896739559
 20
-16.18082112225687
 97
        0
 97
        1
330
D6
 75
     2
 76
     1
 98
        1
 10
0.0
 20
0.0
450
        0
451
        0
460
0.0
461
0.0
452
        0
462
0.0
453
        0
470

  0
ENDBLK
  5
D1
330
CE
100
AcDbEntity
  8
0
100
AcDbBlockEnd
  0
BLOCK
  5
DA
330
D8
100
AcDbEntity
  8
0
100
AcDbBlockBegin
  2
Block_11
 70
     0
 10
0.0
 20
0.0
 30
0.0
  3
Block_11
  1

  0
LINE
  5
DC
330
D8
100
AcDbEntity
  8
Livello 1
 62
    18
420
        0
370
     9
100
AcDbLine
 10
15.82194285455552
 20
-15.92523561547723
 30
0.0
 11
15.82194285455552
 21
-15.8725288436926
 31
0.0
  0
LWPOLYLINE
  5
DD
330
D8
100
AcDbEntity
  8
Livello 1
100
AcDbPolyline
 90
        3
 70
     1
 43
0.0
 10
15.82106577148404
 20
-15.61581607100933
 10
15.9060431280468
 20
-15.87071302375657
 10
15.73784258106423
 20
-15.87071302375657
  0
HATCH
  5
DE
330
D8
100
AcDbEntity
  8
Livello 1
 62
    18
420
        0
440
 33554687
100
AcDbHatch
 10
0.0
 20
0.0
 30
0.0
210
0.0
220
0.0
230
1.0
  2
SOLID
 70
     1
 71
     1
 91
        1
 92
        1
 93
        3
 72
     1
 10
15.82106577148404
 20
-15.61581607100933
 11
15.9060431280468
 21
-15.87071302375657
 72
     1
 10
15.9060431280468
 20
-15.87071302375657
 11
15.73784258106423
 21
-15.87071302375657
 72
     1
 10
15.73784258106423
 20
-15.87071302375657
 11
15.82106577148404
 21
-15.61581607100933
 97
        1
330
DD
 75
     0
 76
     1
 98
        1
 10
0.0
 20
0.0
450
        0
451
        0
460
0.0
461
0.0
452
        0
462
0.0
453
        0
470

  0
ENDBLK
  5
DB
330
D8
100
AcDbEntity
  8
0
100
AcDbBlockEnd
  0
BLOCK
  5
E1
330
DF
100
AcDbEntity
  8
0
100
AcDbBlockBegin
  2
Block_12
 70
     0
 10
0.0
 20
0.0
 30
0.0
  3
Block_12
  1

  0
LINE
  5
E3
330
DF
100
AcDbEntity
  8
Livello 1
 62
    18
420
        0
370
     9
100
AcDbLine
 10
15.82194285455552
 20
-16.31773481885086
 30
0.0
 11
15.82194285455552
 21
-16.36132238855413
 31
0.0
  0
LWPOLYLINE
  5
E4
330
DF
100
AcDbEntity
  8
Livello 1
100
AcDbPolyline
 90
        3
 70
     1
 43
0.0
 10
15.82281993762699
 20
-16.61803516123753
 10
15.73784258106423
 20
-16.36313820849036
 10
15.9060431280468
 20
-16.36313820849036
  0
HATCH
  5
E5
330
DF
100
AcDbEntity
  8
Livello 1
 62
    18
420
        0
440
 33554687
100
AcDbHatch
 10
0.0
 20
0.0
 30
0.0
210
0.0
220
0.0
230
1.0
  2
SOLID
 70
     1
 71
     1
 91
        1
 92
        1
 93
        3
 72
     1
 10
15.82281993762699
 20
-16.61803516123753
 11
15.73784258106423
 21
-16.36313820849036
 72
     1
 10
15.73784258106423
 20
-16.36313820849036
 11
15.9060431280468
 21
-16.36313820849036
 72
     1
 10
15.9060431280468
 20
-16.36313820849036
 11
15.82281993762699
 21
-16.61803516123753
 97
        1
330
E4
 75
     0
 76
     1
 98
        1
 10
0.0
 20
0.0
450
        0
451
        0
460
0.0
461
0.0
452
        0
462
0.0
453
        0
470

  0
ENDBLK
  5
E2
330
DF
100
AcDbEntity
  8
0
100
AcDbBlockEnd
  0
BLOCK
  5
E8
330
E6
100
AcDbEntity
  8
0
100
AcDbBlockBegin
  2
Block_13
 70
     0
 10
0.0
 20
0.0
 30
0.0
  3
Block_13
  1

  0
LINE
  5
EA
330
E6
100
AcDbEntity
  8
Livello 1
 62
    28
420
  1250058
370
     9
100
AcDbLine
 10
6.27512886130124
 20
-16.35835544759799
 30
0.0
 11
6.21234749128573
 21
-16.49782716658376
 31
0.0
  0
LINE
  5
EB
330
E6
100
AcDbEntity
  8
Livello 1
 62
    28
420
  1250058
370
     9
100
AcDbLine
 10
14.45803157467641
 20
-16.35835544759799
 30
0.0
 11
6.27512886130124
 21
-16.35835544759799
 31
0.0
  0
LINE
  5
EC
330
E6
100
AcDbEntity
  8
Livello 1
 62
    28
420
  1250058
370
     9
100
AcDbLine
 10
11.08494200033182
 20
-16.35835544759799
 30
0.0
 11
11.07638979708585
 21
-16.35835544759799
 31
0.0
  0
LINE
  5
ED
330
E6
100
AcDbEntity
  8
Livello 1
 62
    28
420
  1250058
370
     9
100
AcDbLine
 10
10.96066488562538
 20
-16.35835544759799
 30
0.0
 11
10.94865639980405
 21
-16.35835544759799
 31
0.0
  0
LINE
  5
EE
330
E6
100
AcDbEntity
  8
Livello 1
 62
    28
420
  1250058
370
     9
100
AcDbLine
 10
10.92081050056433
 20
-16.35835544759799
 30
0.0
 11
10.90007280511187
 21
-16.35835544759799
 31
0.0
  0
LINE
  5
EF
330
E6
100
AcDbEntity
  8
Livello 1
 62
    28
420
  1250058
370
     9
100
AcDbLine
 10
10.67589887623771
 20
-16.35835544759799
 30
0.0
 11
10.62641161736808
 21
-16.35835544759799
 31
0.0
  0
LINE
  5
F0
330
E6
100
AcDbEntity
  8
Livello 1
 62
    28
420
  1250058
370
     9
100
AcDbLine
 10
14.45803157467641
 20
-16.35835544759799
 30
0.0
 11
14.52080494335947
 21
-16.49782716658376
 31
0.0
  0
LINE
  5
F1
330
E6
100
AcDbEntity
  8
Livello 1
 62
    28
420
  1250058
370
     9
100
AcDbLine
 10
13.33172131299026
 20
-16.49063511748509
 30
0.0
 11
13.33172131299026
 21
-16.49328089720537
 31
0.0
  0
LINE
  5
F2
330
E6
100
AcDbEntity
  8
Livello 1
 62
    28
420
  1250058
370
     9
100
AcDbLine
 10
13.33609057586864
 20
-16.48881847295886
 30
0.0
 11
13.36247384339856
 21
-16.48881847295886
 31
0.0
  0
SPLINE
  5
F3
330
E6
100
AcDbEntity
  8
Livello 1
 62
    28
420
  1250058
370
     9
100
AcDbSpline
210
0.0
220
0.0
230
1.0
 70
     8
 71
     3
 72
     8
 73
     4
 74
     0
 42
0.000000001
 43
0.0000000001
 40
0.0
 40
0.0
 40
0.0
 40
0.0
 40
1.0
 40
1.0
 40
1.0
 40
1.0
 10
13.33172131299026
 20
-16.49063511748509
 30
0.0
 10
13.33172131299026
 20
-16.48990845967456
 30
0.0
 10
13.33245728690794
 20
-16.48927496312191
 30
0.0
 10
13.33408760887751
 20
-16.48881847295886
 30
0.0
  0
LINE
  5
F4
330
E6
100
AcDbEntity
  8
Livello 1
 62
    28
420
  1250058
370
     9
100
AcDbLine
 10
13.50185239760563
 20
-16.48881847295886
 30
0.0
 11
13.53115290222212
 21
-16.48881847295886
 31
0.0
  0
SPLINE
  5
F5
330
E6
100
AcDbEntity
  8
Livello 1
 62
    28
420
  1250058
370
     9
100
AcDbSpline
210
0.0
220
0.0
230
1.0
 70
     8
 71
     3
 72
     8
 73
     4
 74
     0
 42
0.000000001
 43
0.0000000001
 40
0.0
 40
0.0
 40
0.0
 40
0.0
 40
1.0
 40
1.0
 40
1.0
 40
1.0
 10
13.53115290222212
 20
-16.48881847295886
 30
0.0
 10
13.53278193439914
 20
-16.48927496312191
 30
0.0
 10
13.53351790831682
 20
-16.48990845967456
 30
0.0
 10
13.53351790831682
 20
-16.49063511748509
 30
0.0
  0
SPLINE
  5
F6
330
E6
100
AcDbEntity
  8
Livello 1
 62
    28
420
  1250058
370
     9
100
AcDbSpline
210
0.0
220
0.0
230
1.0
 70
     8
 71
     3
 72
     8
 73
     4
 74
     0
 42
0.000000001
 43
0.0000000001
 40
0.0
 40
0.0
 40
0.0
 40
0.0
 40
1.0
 40
1.0
 40
1.0
 40
1.0
 10
13.49821910864493
 20
-16.48799865389056
 30
0.0
 10
13.49985071961629
 20
-16.48799865389056
 30
0.0
 10
13.5007624109174
 20
-16.4883619827958
 30
0.0
 10
13.50185239760563
 20
-16.48881847295886
 30
0.0
  0
LINE
  5
F7
330
E6
100
AcDbEntity
  8
Livello 1
 62
    28
420
  1250058
370
     9
100
AcDbLine
 10
10.36639855354076
 20
-16.49328089720537
 30
0.0
 11
5.668304391988423
 21
-16.49328089720537
 31
0.0
  0
SPLINE
  5
F8
330
E6
100
AcDbEntity
  8
Livello 1
 62
    28
420
  1250058
370
     9
100
AcDbSpline
210
0.0
220
0.0
230
1.0
 70
    24
 71
     3
 72
    26
 73
    22
 74
     0
 42
0.000000001
 43
0.0000000001
 40
0.0
 40
0.0
 40
0.0
 40
0.0
 40
1.0
 40
1.0
 40
1.0
 40
2.0
 40
2.0
 40
2.0
 40
3.0
 40
3.0
 40
3.0
 40
4.0
 40
4.0
 40
4.0
 40
5.0
 40
5.0
 40
5.0
 40
6.0
 40
6.0
 40
6.0
 40
7.0
 40
7.0
 40
7.0
 40
7.0
 10
15.06466972147835
 20
-16.49328089720537
 30
0.0
 10
15.06630935957349
 20
-16.49328089720537
 30
0.0
 10
15.06303008338335
 20
-16.49328089720537
 30
0.0
 10
15.06230342559117
 20
-16.49328089720537
 30
0.0
 10
15.05520453792955
 20
-16.49328089720537
 30
0.0
 10
15.04847829528948
 20
-16.49328089720537
 30
0.0
 10
15.04137940762786
 20
-16.49328089720537
 30
0.0
 10
15.00772024605105
 20
-16.49328089720537
 30
0.0
 10
14.97387476196351
 20
-16.49328089720537
 30
0.0
 10
14.94039260677198
 20
-16.49328089720537
 30
0.0
 10
14.78682559336709
 20
-16.49328089720537
 30
0.0
 10
14.63325058147052
 20
-16.49328089720537
 30
0.0
 10
14.47950524404655
 20
-16.49328089720537
 30
0.0
 10
14.28389586488712
 20
-16.49328089720537
 30
0.0
 10
14.08811617785123
 20
-16.49328089720537
 30
0.0
 10
13.89232848349806
 20
-16.49328089720537
 30
0.0
 10
13.50057608840662
 20
-16.49328089720537
 30
0.0
 10
13.10901001582596
 20
-16.49328089720537
 30
0.0
 10
12.71725762073452
 20
-16.49328089720537
 30
0.0
 10
11.9335758241663
 20
-16.49328089720537
 30
0.0
 10
11.15008035010899
 20
-16.49328089720537
 30
0.0
 10
10.36639855354076
 20
-16.49328089720537
 30
0.0
  0
LINE
  5
F9
330
E6
100
AcDbEntity
  8
Livello 1
 62
    28
420
  1250058
370
     9
100
AcDbLine
 10
14.80356667096286
 20
-16.49063511748509
 30
0.0
 11
14.80356667096286
 21
-16.49328089720537
 31
0.0
  0
LINE
  5
FA
330
E6
100
AcDbEntity
  8
Livello 1
 62
    28
420
  1250058
370
     9
100
AcDbLine
 10
14.60195639814714
 20
-16.49063511748509
 30
0.0
 11
14.60195639814714
 21
-16.49328089720537
 31
0.0
  0
SPLINE
  5
FB
330
E6
100
AcDbEntity
  8
Livello 1
 62
    28
420
  1250058
370
     9
100
AcDbSpline
210
0.0
220
0.0
230
1.0
 70
     8
 71
     3
 72
     8
 73
     4
 74
     0
 42
0.000000001
 43
0.0000000001
 40
0.0
 40
0.0
 40
0.0
 40
0.0
 40
1.0
 40
1.0
 40
1.0
 40
1.0
 10
14.63234559965932
 20
-16.48881847295886
 30
0.0
 10
14.63343690398605
 20
-16.48827813766392
 30
0.0
 10
14.6347118955465
 20
-16.48799865389056
 30
0.0
 10
14.63652854002685
 20
-16.48799865389056
 30
0.0
  0
LINE
  5
FC
330
E6
100
AcDbEntity
  8
Livello 1
 62
    28
420
  1250058
370
     9
100
AcDbLine
 10
10.45937348643207
 20
-16.48799865389056
 30
0.0
 11
10.43499318589335
 21
-16.48799865389056
 31
0.0
  0
LINE
  5
FD
330
E6
100
AcDbEntity
  8
Livello 1
 62
    28
420
  1250058
370
     9
100
AcDbLine
 10
10.43207723859926
 20
-16.48799865389056
 30
0.0
 11
10.30071055235673
 21
-16.48799865389056
 31
0.0
  0
LINE
  5
FE
330
E6
100
AcDbEntity
  8
Livello 1
 62
    28
420
  1250058
370
     9
100
AcDbLine
 10
10.29670461837445
 20
-16.48799865389056
 30
0.0
 11
10.28014986328945
 21
-16.48799865389056
 31
0.0
  0
SPLINE
  5
FF
330
E6
100
AcDbEntity
  8
Livello 1
 62
    28
420
  1250058
370
     9
100
AcDbSpline
210
0.0
220
0.0
230
1.0
 70
     8
 71
     3
 72
     8
 73
     4
 74
     0
 42
0.000000001
 43
0.0000000001
 40
0.0
 40
0.0
 40
0.0
 40
0.0
 40
1.0
 40
1.0
 40
1.0
 40
1.0
 10
10.26795505495737
 20
-16.48881847295886
 30
0.0
 10
10.26631662417807
 20
-16.48927496312191
 30
0.0
 10
10.26558875907015
 20
-16.48990845967456
 30
0.0
 10
10.26558875907015
 20
-16.49063511748509
 30
0.0
  0
SPLINE
  5
100
330
E6
100
AcDbEntity
  8
Livello 1
 62
    28
420
  1250058
370
     9
100
AcDbSpline
210
0.0
220
0.0
230
1.0
 70
    24
 71
     3
 72
    17
 73
    13
 74
     0
 42
0.000000001
 43
0.0000000001
 40
0.0
 40
0.0
 40
0.0
 40
0.0
 40
1.0
 40
1.0
 40
1.0
 40
2.0
 40
2.0
 40
2.0
 40
3.0
 40
3.0
 40
3.0
 40
4.0
 40
4.0
 40
4.0
 40
4.0
 10
14.60413637152355
 20
-16.48881847295886
 30
0.0
 10
14.60195639814714
 20
-16.48881847295886
 30
0.0
 10
14.60650266741074
 20
-16.48881847295886
 30
0.0
 10
14.60777897660975
 20
-16.48881847295886
 30
0.0
 10
14.60886896329799
 20
-16.48881847295886
 30
0.0
 10
14.61014658954719
 20
-16.48881847295886
 30
0.0
 10
14.61123525918517
 20
-16.48881847295886
 30
0.0
 10
14.61360155507236
 20
-16.48881847295886
 30
0.0
 10
14.6159678509596
 20
-16.48881847295886
 30
0.0
 10
14.61833414684686
 20
-16.48881847295886
 30
0.0
 10
14.62306673862123
 20
-16.48881847295886
 30
0.0
 10
14.62779933039573
 20
-16.48881847295886
 30
0.0
 10
14.63234559965932
 20
-16.48881847295886
 30
0.0
  0
SPLINE
  5
101
330
E6
100
AcDbEntity
  8
Livello 1
 62
    28
420
  1250058
370
     9
100
AcDbSpline
210
0.0
220
0.0
230
1.0
 70
     8
 71
     3
 72
     8
 73
     4
 74
     0
 42
0.000000001
 43
0.0000000001
 40
0.0
 40
0.0
 40
0.0
 40
0.0
 40
1.0
 40
1.0
 40
1.0
 40
1.0
 10
10.46738535439672
 20
-16.49063511748509
 30
0.0
 10
10.46738535439672
 20
-16.48881847295886
 30
0.0
 10
10.46501905850947
 20
-16.48799865389056
 30
0.0
 10
10.45919648004686
 20
-16.48799865389056
 30
0.0
  0
LINE
  5
102
330
E6
100
AcDbEntity
  8
Livello 1
 62
    28
420
  1250058
370
     9
100
AcDbLine
 10
10.46738535439672
 20
-16.49063511748509
 30
0.0
 11
10.46738535439672
 21
-16.49328089720537
 31
0.0
  0
LINE
  5
103
330
E6
100
AcDbEntity
  8
Livello 1
 62
    28
420
  1250058
370
     9
100
AcDbLine
 10
10.26558875907015
 20
-16.49328089720537
 30
0.0
 11
10.26558875907015
 21
-16.49063511748509
 31
0.0
  0
LINE
  5
104
330
E6
100
AcDbEntity
  8
Livello 1
 62
    28
420
  1250058
370
     9
100
AcDbLine
 10
7.365944684679128
 20
-16.48799865389056
 30
0.0
 11
7.234942458069602
 21
-16.48799865389056
 31
0.0
  0
LINE
  5
105
330
E6
100
AcDbEntity
  8
Livello 1
 62
    28
420
  1250058
370
     9
100
AcDbLine
 10
7.231662051142512
 20
-16.48799865389056
 30
0.0
 11
7.209461723980192
 21
-16.48799865389056
 31
0.0
  0
SPLINE
  5
106
330
E6
100
AcDbEntity
  8
Livello 1
 62
    28
420
  1250058
370
     9
100
AcDbSpline
210
0.0
220
0.0
230
1.0
 70
     8
 71
     3
 72
     8
 73
     4
 74
     0
 42
0.000000001
 43
0.0000000001
 40
0.0
 40
0.0
 40
0.0
 40
0.0
 40
1.0
 40
1.0
 40
1.0
 40
1.0
 10
14.60195639814714
 20
-16.49063511748509
 30
0.0
 10
14.60195639814714
 20
-16.48990845967456
 30
0.0
 10
14.60250736641121
 20
-16.48927496312191
 30
0.0
 10
14.60413637152355
 20
-16.48881847295886
 30
0.0
  0
LINE
  5
107
330
E6
100
AcDbEntity
  8
Livello 1
 62
    28
420
  1250058
370
     9
100
AcDbLine
 10
14.77281414055463
 20
-16.48881847295886
 30
0.0
 11
14.80120037507568
 21
-16.48881847295886
 31
0.0
  0
SPLINE
  5
108
330
E6
100
AcDbEntity
  8
Livello 1
 62
    28
420
  1250058
370
     9
100
AcDbSpline
210
0.0
220
0.0
230
1.0
 70
    24
 71
     3
 72
    20
 73
    16
 74
     0
 42
0.000000001
 43
0.0000000001
 40
0.0
 40
0.0
 40
0.0
 40
0.0
 40
1.0
 40
1.0
 40
1.0
 40
2.0
 40
2.0
 40
2.0
 40
3.0
 40
3.0
 40
3.0
 40
4.0
 40
4.0
 40
4.0
 40
5.0
 40
5.0
 40
5.0
 40
5.0
 10
7.391237965520811
 20
-16.48799865389056
 30
0.0
 10
7.391787616927678
 20
-16.48799865389056
 30
0.0
 10
7.392514274719856
 20
-16.48799865389056
 30
0.0
 10
7.39324093251194
 20
-16.48799865389056
 30
0.0
 10
7.394330919200142
 20
-16.48799865389056
 30
0.0
 10
7.391964623312925
 20
-16.48799865389056
 30
0.0
 10
7.391601294416867
 20
-16.48799865389056
 30
0.0
 10
7.390335436005861
 20
-16.48799865389056
 30
0.0
 10
7.389057992144403
 20
-16.48799865389056
 30
0.0
 10
7.387781682945389
 20
-16.48799865389056
 30
0.0
 10
7.385415387058173
 20
-16.48799865389056
 30
0.0
 10
7.383049091170953
 20
-16.48799865389056
 30
0.0
 10
7.380505788898457
 20
-16.48799865389056
 30
0.0
 10
7.375596190738776
 20
-16.48799865389056
 30
0.0
 10
7.370864733134891
 20
-16.48799865389056
 30
0.0
 10
7.365944684679128
 20
-16.48799865389056
 30
0.0
  0
SPLINE
  5
109
330
E6
100
AcDbEntity
  8
Livello 1
 62
    28
420
  1250058
370
     9
100
AcDbSpline
210
0.0
220
0.0
230
1.0
 70
     8
 71
     3
 72
     8
 73
     4
 74
     0
 42
0.000000001
 43
0.0000000001
 40
0.0
 40
0.0
 40
0.0
 40
0.0
 40
1.0
 40
1.0
 40
1.0
 40
1.0
 10
14.76826787129104
 20
-16.48799865389056
 30
0.0
 10
14.76989819326053
 20
-16.48799865389056
 30
0.0
 10
14.7708111735635
 20
-16.4883619827958
 30
0.0
 10
14.77190116025167
 20
-16.48881847295886
 30
0.0
  0
SPLINE
  5
10A
330
E6
100
AcDbEntity
  8
Livello 1
 62
    28
420
  1250058
370
     9
100
AcDbSpline
210
0.0
220
0.0
230
1.0
 70
     8
 71
     3
 72
     8
 73
     4
 74
     0
 42
0.000000001
 43
0.0000000001
 40
0.0
 40
0.0
 40
0.0
 40
0.0
 40
1.0
 40
1.0
 40
1.0
 40
1.0
 10
14.80120037507568
 20
-16.48881847295886
 30
0.0
 10
14.80284001317068
 20
-16.48927496312191
 30
0.0
 10
14.80356667096286
 20
-16.48990845967456
 30
0.0
 10
14.80356667096286
 20
-16.49063511748509
 30
0.0
  0
LINE
  5
10B
330
E6
100
AcDbEntity
  8
Livello 1
 62
    28
420
  1250058
370
     9
100
AcDbLine
 10
6.030394243359865
 20
-16.48799865389056
 30
0.0
 11
5.939049632438094
 21
-16.48799865389056
 31
0.0
  0
LINE
  5
10C
330
E6
100
AcDbEntity
  8
Livello 1
 62
    28
420
  1250058
370
     9
100
AcDbLine
 10
5.929593765014757
 20
-16.49063511748509
 30
0.0
 11
5.929593765014757
 21
-16.49328089720537
 31
0.0
  0
LINE
  5
10D
330
E6
100
AcDbEntity
  8
Livello 1
 62
    28
420
  1250058
370
     9
100
AcDbLine
 10
6.131194721704941
 20
-16.49063511748509
 30
0.0
 11
6.131194721704941
 21
-16.49328089720537
 31
0.0
  0
SPLINE
  5
10E
330
E6
100
AcDbEntity
  8
Livello 1
 62
    28
420
  1250058
370
     9
100
AcDbSpline
210
0.0
220
0.0
230
1.0
 70
    24
 71
     3
 72
    20
 73
    16
 74
     0
 42
0.000000001
 43
0.0000000001
 40
0.0
 40
0.0
 40
0.0
 40
0.0
 40
1.0
 40
1.0
 40
1.0
 40
2.0
 40
2.0
 40
2.0
 40
3.0
 40
3.0
 40
3.0
 40
4.0
 40
4.0
 40
4.0
 40
5.0
 40
5.0
 40
5.0
 40
5.0
 10
6.121552531770826
 20
-16.48799865389056
 30
0.0
 10
6.121738854281637
 20
-16.48799865389056
 30
0.0
 10
6.12282884096984
 20
-16.48799865389056
 30
0.0
 10
6.122279189562974
 20
-16.48799865389056
 30
0.0
 10
6.119009229498362
 20
-16.48799865389056
 30
0.0
 10
6.115916275818999
 20
-16.48799865389056
 30
0.0
 10
6.113001430919138
 20
-16.48799865389056
 30
0.0
 10
6.108995496835652
 20
-16.48799865389056
 30
0.0
 10
6.104997776685867
 20
-16.48799865389056
 30
0.0
 10
6.101178165214389
 20
-16.48799865389056
 30
0.0
 10
6.093166297249813
 20
-16.48799865389056
 30
0.0
 10
6.085340751796045
 20
-16.48799865389056
 30
0.0
 10
6.077524522467777
 20
-16.48799865389056
 30
0.0
 10
6.061687109049433
 20
-16.48799865389056
 30
0.0
 10
6.045859011756621
 20
-16.48799865389056
 30
0.0
 10
6.030394243359865
 20
-16.48799865389056
 30
0.0
  0
LINE
  5
10F
330
E6
100
AcDbEntity
  8
Livello 1
 62
    28
420
  1250058
370
     9
100
AcDbLine
 10
6.100451507422244
 20
-16.48881847295886
 30
0.0
 11
6.128828425817727
 21
-16.48881847295886
 31
0.0
  0
SPLINE
  5
110
330
E6
100
AcDbEntity
  8
Livello 1
 62
    28
420
  1250058
370
     9
100
AcDbSpline
210
0.0
220
0.0
230
1.0
 70
     8
 71
     3
 72
     8
 73
     4
 74
     0
 42
0.000000001
 43
0.0000000001
 40
0.0
 40
0.0
 40
0.0
 40
0.0
 40
1.0
 40
1.0
 40
1.0
 40
1.0
 10
6.095895922033118
 20
-16.48799865389056
 30
0.0
 10
6.097536662131746
 20
-16.48799865389056
 30
0.0
 10
6.098625546816362
 20
-16.4883619827958
 30
0.0
 10
6.099352204608508
 20
-16.48881847295886
 30
0.0
  0
SPLINE
  5
111
330
E6
100
AcDbEntity
  8
Livello 1
 62
    28
420
  1250058
370
     9
100
AcDbSpline
210
0.0
220
0.0
230
1.0
 70
    24
 71
     3
 72
    20
 73
    16
 74
     0
 42
0.000000001
 43
0.0000000001
 40
0.0
 40
0.0
 40
0.0
 40
0.0
 40
1.0
 40
1.0
 40
1.0
 40
2.0
 40
2.0
 40
2.0
 40
3.0
 40
3.0
 40
3.0
 40
4.0
 40
4.0
 40
4.0
 40
5.0
 40
5.0
 40
5.0
 40
5.0
 10
14.79392448102871
 20
-16.48799865389056
 30
0.0
 10
14.79410148741399
 20
-16.48799865389056
 30
0.0
 10
14.79519147410216
 20
-16.48799865389056
 30
0.0
 10
14.79465113882089
 20
-16.48799865389056
 30
0.0
 10
14.79155818514153
 20
-16.48799865389056
 30
0.0
 10
14.78827890895139
 20
-16.48799865389056
 30
0.0
 10
14.78518595527202
 20
-16.48799865389056
 30
0.0
 10
14.78136634380054
 20
-16.48799865389056
 30
0.0
 10
14.77736040981822
 20
-16.48799865389056
 30
0.0
 10
14.77354079834675
 20
-16.48799865389056
 30
0.0
 10
14.76553956748345
 20
-16.48799865389056
 30
0.0
 10
14.75771402183207
 20
-16.48799865389056
 30
0.0
 10
14.7498884761805
 20
-16.48799865389056
 30
0.0
 10
14.73405905830739
 20
-16.48799865389056
 30
0.0
 10
14.71823096101451
 20
-16.48799865389056
 30
0.0
 10
14.70275687649219
 20
-16.48799865389056
 30
0.0
  0
SPLINE
  5
112
330
E6
100
AcDbEntity
  8
Livello 1
 62
    28
420
  1250058
370
     9
100
AcDbSpline
210
0.0
220
0.0
230
1.0
 70
     8
 71
     3
 72
     8
 73
     4
 74
     0
 42
0.000000001
 43
0.0000000001
 40
0.0
 40
0.0
 40
0.0
 40
0.0
 40
1.0
 40
1.0
 40
1.0
 40
1.0
 10
6.128828425817727
 20
-16.48881847295886
 30
0.0
 10
6.13046806391283
 20
-16.48927496312191
 30
0.0
 10
6.131194721704941
 20
-16.48990845967456
 30
0.0
 10
6.131194721704941
 20
-16.49063511748509
 30
0.0
  0
SPLINE
  5
113
330
E6
100
AcDbEntity
  8
Livello 1
 62
    28
420
  1250058
370
     9
100
AcDbSpline
210
0.0
220
0.0
230
1.0
 70
     8
 71
     3
 72
     8
 73
     4
 74
     0
 42
0.000000001
 43
0.0000000001
 40
0.0
 40
0.0
 40
0.0
 40
0.0
 40
1.0
 40
1.0
 40
1.0
 40
1.0
 10
5.960159972912211
 20
-16.48881847295886
 30
0.0
 10
5.961072953215134
 20
-16.48827813766392
 30
0.0
 10
5.962339946288616
 20
-16.48799865389056
 30
0.0
 10
5.9641659068945
 20
-16.48799865389056
 30
0.0
  0
LINE
  5
114
330
E6
100
AcDbEntity
  8
Livello 1
 62
    28
420
  1250058
370
     9
100
AcDbLine
 10
14.70275687649219
 20
-16.48799865389056
 30
0.0
 11
14.61142158169601
 21
-16.48799865389056
 31
0.0
  0
SPLINE
  5
115
330
E6
100
AcDbEntity
  8
Livello 1
 62
    28
420
  1250058
370
     9
100
AcDbSpline
210
0.0
220
0.0
230
1.0
 70
    24
 71
     3
 72
    17
 73
    13
 74
     0
 42
0.000000001
 43
0.0000000001
 40
0.0
 40
0.0
 40
0.0
 40
0.0
 40
1.0
 40
1.0
 40
1.0
 40
2.0
 40
2.0
 40
2.0
 40
3.0
 40
3.0
 40
3.0
 40
4.0
 40
4.0
 40
4.0
 40
4.0
 10
5.931773738391162
 20
-16.48881847295886
 30
0.0
 10
5.929593765014757
 20
-16.48881847295886
 30
0.0
 10
5.934140034278382
 20
-16.48881847295886
 30
0.0
 10
5.935416343477394
 20
-16.48881847295886
 30
0.0
 10
5.936506330165598
 20
-16.48881847295886
 30
0.0
 10
5.937782639364613
 20
-16.48881847295886
 30
0.0
 10
5.938872626052847
 20
-16.48881847295886
 30
0.0
 10
5.941238921940034
 20
-16.48881847295886
 30
0.0
 10
5.943605217827252
 20
-16.48881847295886
 30
0.0
 10
5.945963295763379
 20
-16.48881847295886
 30
0.0
 10
5.950517782978093
 20
-16.48881847295886
 30
0.0
 10
5.955427381137774
 20
-16.48881847295886
 30
0.0
 10
5.960159972912211
 20
-16.48881847295886
 30
0.0
  0
SPLINE
  5
116
330
E6
100
AcDbEntity
  8
Livello 1
 62
    28
420
  1250058
370
     9
100
AcDbSpline
210
0.0
220
0.0
230
1.0
 70
     8
 71
     3
 72
     8
 73
     4
 74
     0
 42
0.000000001
 43
0.0000000001
 40
0.0
 40
0.0
 40
0.0
 40
0.0
 40
1.0
 40
1.0
 40
1.0
 40
1.0
 10
5.929593765014757
 20
-16.49063511748509
 30
0.0
 10
5.929593765014757
 20
-16.48990845967456
 30
0.0
 10
5.930134100296093
 20
-16.48927496312191
 30
0.0
 10
5.931773738391162
 20
-16.48881847295886
 30
0.0
  0
SPLINE
  5
117
330
E6
100
AcDbEntity
  8
Livello 1
 62
    28
420
  1250058
370
     9
100
AcDbSpline
210
0.0
220
0.0
230
1.0
 70
    24
 71
     3
 72
    20
 73
    16
 74
     0
 42
0.000000001
 43
0.0000000001
 40
0.0
 40
0.0
 40
0.0
 40
0.0
 40
1.0
 40
1.0
 40
1.0
 40
2.0
 40
2.0
 40
2.0
 40
3.0
 40
3.0
 40
3.0
 40
4.0
 40
4.0
 40
4.0
 40
5.0
 40
5.0
 40
5.0
 40
5.0
 10
13.52350307336105
 20
-16.48799865389056
 30
0.0
 10
13.52405272476795
 20
-16.48799865389056
 30
0.0
 10
13.52477938256007
 20
-16.48799865389056
 30
0.0
 10
13.52550604035224
 20
-16.48799865389056
 30
0.0
 10
13.52623269814442
 20
-16.48799865389056
 30
0.0
 10
13.52441605366407
 20
-16.48799865389056
 30
0.0
 10
13.52405272476795
 20
-16.48799865389056
 30
0.0
 10
13.52314103405515
 20
-16.48799865389056
 30
0.0
 10
13.52204975777682
 20
-16.48799865389056
 30
0.0
 10
13.52095977108859
 20
-16.48799865389056
 30
0.0
 10
13.51877979771225
 20
-16.48799865389056
 30
0.0
 10
13.51659050821027
 20
-16.48799865389056
 30
0.0
 10
13.51441053483387
 20
-16.48799865389056
 30
0.0
 10
13.51004127195549
 20
-16.48799865389056
 30
0.0
 10
13.5054950026919
 20
-16.48799865389056
 30
0.0
 10
13.5013120623243
 20
-16.48799865389056
 30
0.0
  0
LINE
  5
118
330
E6
100
AcDbEntity
  8
Livello 1
 62
    28
420
  1250058
370
     9
100
AcDbLine
 10
13.49821910864493
 20
-16.48799865389056
 30
0.0
 11
13.36702942878771
 21
-16.48799865389056
 31
0.0
  0
LINE
  5
119
330
E6
100
AcDbEntity
  8
Livello 1
 62
    28
420
  1250058
370
     9
100
AcDbLine
 10
7.19945620515002
 20
-16.49063511748509
 30
0.0
 11
7.19945620515002
 21
-16.49328089720537
 31
0.0
  0
LINE
  5
11A
330
E6
100
AcDbEntity
  8
Livello 1
 62
    28
420
  1250058
370
     9
100
AcDbLine
 10
7.401243484350985
 20
-16.49063511748509
 30
0.0
 11
7.401243484350985
 21
-16.49328089720537
 31
0.0
  0
LINE
  5
11B
330
E6
100
AcDbEntity
  8
Livello 1
 62
    28
420
  1250058
370
     9
100
AcDbLine
 10
13.36266016590934
 20
-16.48799865389056
 30
0.0
 11
13.34173614794603
 21
-16.48799865389056
 31
0.0
  0
SPLINE
  5
11C
330
E6
100
AcDbEntity
  8
Livello 1
 62
    28
420
  1250058
370
     9
100
AcDbSpline
210
0.0
220
0.0
230
1.0
 70
     8
 71
     3
 72
     8
 73
     4
 74
     0
 42
0.000000001
 43
0.0000000001
 40
0.0
 40
0.0
 40
0.0
 40
0.0
 40
1.0
 40
1.0
 40
1.0
 40
1.0
 10
7.398886504589332
 20
-16.48881847295886
 30
0.0
 10
7.400516826558837
 20
-16.48927496312191
 30
0.0
 10
7.401243484350985
 20
-16.48990845967456
 30
0.0
 10
7.401243484350985
 20
-16.49063511748509
 30
0.0
  0
LINE
  5
11D
330
E6
100
AcDbEntity
  8
Livello 1
 62
    28
420
  1250058
370
     9
100
AcDbLine
 10
7.370136941172227
 20
-16.48881847295886
 30
0.0
 11
7.396697215087391
 21
-16.48881847295886
 31
0.0
  0
SPLINE
  5
11E
330
E6
100
AcDbEntity
  8
Livello 1
 62
    28
420
  1250058
370
     9
100
AcDbSpline
210
0.0
220
0.0
230
1.0
 70
     8
 71
     3
 72
     8
 73
     4
 74
     0
 42
0.000000001
 43
0.0000000001
 40
0.0
 40
0.0
 40
0.0
 40
0.0
 40
1.0
 40
1.0
 40
1.0
 40
1.0
 10
15.06575970816659
 20
-16.49328089720537
 30
0.0
 10
15.07158228662919
 20
-16.49328089720537
 30
0.0
 10
15.07377157613117
 20
-16.4941007162736
 30
0.0
 10
15.07377157613117
 20
-16.49591736079983
 30
0.0
  0
LINE
  5
11F
330
E6
100
AcDbEntity
  8
Livello 1
 62
    28
420
  1250058
370
     9
100
AcDbLine
 10
10.26795505495737
 20
-16.48881847295886
 30
0.0
 11
10.29616428309311
 21
-16.48881847295886
 31
0.0
  0
SPLINE
  5
120
330
E6
100
AcDbEntity
  8
Livello 1
 62
    28
420
  1250058
370
     9
100
AcDbSpline
210
0.0
220
0.0
230
1.0
 70
     8
 71
     3
 72
     8
 73
     4
 74
     0
 42
0.000000001
 43
0.0000000001
 40
0.0
 40
0.0
 40
0.0
 40
0.0
 40
1.0
 40
1.0
 40
1.0
 40
1.0
 10
10.43207723859926
 20
-16.48799865389056
 30
0.0
 10
10.4337168766944
 20
-16.48799865389056
 30
0.0
 10
10.43444353448651
 20
-16.48827813766392
 30
0.0
 10
10.43554283730018
 20
-16.48872531170116
 30
0.0
  0
LINE
  5
121
330
E6
100
AcDbEntity
  8
Livello 1
 62
    28
420
  1250058
370
     9
100
AcDbLine
 10
10.43554283730018
 20
-16.48881847295886
 30
0.0
 11
10.46501905850947
 21
-16.48881847295886
 31
0.0
  0
SPLINE
  5
122
330
E6
100
AcDbEntity
  8
Livello 1
 62
    28
420
  1250058
370
     9
100
AcDbSpline
210
0.0
220
0.0
230
1.0
 70
     8
 71
     3
 72
     8
 73
     4
 74
     0
 42
0.000000001
 43
0.0000000001
 40
0.0
 40
0.0
 40
0.0
 40
0.0
 40
1.0
 40
1.0
 40
1.0
 40
1.0
 10
10.29616428309311
 20
-16.48872531170116
 30
0.0
 10
10.29743248426851
 20
-16.48818497640615
 30
0.0
 10
10.29853057898033
 20
-16.48799865389056
 30
0.0
 10
10.30034722346067
 20
-16.48799865389056
 30
0.0
  0
SPLINE
  5
123
330
E6
100
AcDbEntity
  8
Livello 1
 62
    28
420
  1250058
370
     9
100
AcDbSpline
210
0.0
220
0.0
230
1.0
 70
     8
 71
     3
 72
     8
 73
     4
 74
     0
 42
0.000000001
 43
0.0000000001
 40
0.0
 40
0.0
 40
0.0
 40
0.0
 40
1.0
 40
1.0
 40
1.0
 40
1.0
 10
7.19945620515002
 20
-16.49063511748509
 30
0.0
 10
7.19945620515002
 20
-16.48990845967456
 30
0.0
 10
7.200182862942134
 20
-16.48927496312191
 30
0.0
 10
7.201822501037205
 20
-16.48881847295886
 30
0.0
  0
SPLINE
  5
124
330
E6
100
AcDbEntity
  8
Livello 1
 62
    28
420
  1250058
370
     9
100
AcDbSpline
210
0.0
220
0.0
230
1.0
 70
    24
 71
     3
 72
    17
 73
    13
 74
     0
 42
0.000000001
 43
0.0000000001
 40
0.0
 40
0.0
 40
0.0
 40
0.0
 40
1.0
 40
1.0
 40
1.0
 40
2.0
 40
2.0
 40
2.0
 40
3.0
 40
3.0
 40
3.0
 40
4.0
 40
4.0
 40
4.0
 40
4.0
 10
7.201822501037205
 20
-16.48881847295886
 30
0.0
 10
7.19945620515002
 20
-16.48881847295886
 30
0.0
 10
7.204188796924422
 20
-16.48881847295886
 30
0.0
 10
7.205278783612625
 20
-16.48881847295886
 30
0.0
 10
7.206555092811639
 20
-16.48881847295886
 30
0.0
 10
7.207832532062587
 20
-16.48881847295886
 30
0.0
 10
7.208921388698857
 20
-16.48881847295886
 30
0.0
 10
7.211101362075264
 20
-16.48881847295886
 30
0.0
 10
7.213467657962482
 20
-16.48881847295886
 30
0.0
 10
7.216020276360509
 20
-16.48881847295886
 30
0.0
 10
7.220566545624102
 20
-16.48881847295886
 30
0.0
 10
7.225476143783816
 20
-16.48881847295886
 30
0.0
 10
7.23020873555825
 20
-16.48881847295886
 30
0.0
  0
SPLINE
  5
125
330
E6
100
AcDbEntity
  8
Livello 1
 62
    28
420
  1250058
370
     9
100
AcDbSpline
210
0.0
220
0.0
230
1.0
 70
     8
 71
     3
 72
     8
 73
     4
 74
     0
 42
0.000000001
 43
0.0000000001
 40
0.0
 40
0.0
 40
0.0
 40
0.0
 40
1.0
 40
1.0
 40
1.0
 40
1.0
 10
7.230572064454309
 20
-16.48864146656915
 30
0.0
 10
7.231485044757233
 20
-16.48818497640615
 30
0.0
 10
7.232575031445438
 20
-16.48799865389056
 30
0.0
 10
7.234028347029728
 20
-16.48799865389056
 30
0.0
  0
LINE
  5
126
330
E6
100
AcDbEntity
  8
Livello 1
 62
    28
420
  1250058
370
     9
100
AcDbLine
 10
13.53351790831682
 20
-16.49063511748509
 30
0.0
 11
13.53351790831682
 21
-16.49328089720537
 31
0.0
  0
LINE
  5
127
330
E6
100
AcDbEntity
  8
Livello 1
 62
    28
420
  1250058
370
     9
100
AcDbLine
 10
13.36120685032511
 20
-16.49063511748509
 30
0.0
 11
13.33391060249223
 21
-16.49063511748509
 31
0.0
  0
SPLINE
  5
128
330
E6
100
AcDbEntity
  8
Livello 1
 62
    28
420
  1250058
370
     9
100
AcDbSpline
210
0.0
220
0.0
230
1.0
 70
    24
 71
     3
 72
    23
 73
    19
 74
     0
 42
0.000000001
 43
0.0000000001
 40
0.0
 40
0.0
 40
0.0
 40
0.0
 40
1.0
 40
1.0
 40
1.0
 40
2.0
 40
2.0
 40
2.0
 40
3.0
 40
3.0
 40
3.0
 40
4.0
 40
4.0
 40
4.0
 40
5.0
 40
5.0
 40
5.0
 40
6.0
 40
6.0
 40
6.0
 40
6.0
 10
13.53132861881491
 20
-16.49063511748509
 30
0.0
 10
13.53205527660703
 20
-16.49063511748509
 30
0.0
 10
13.53497251379017
 20
-16.49063511748509
 30
0.0
 10
13.53351790831682
 20
-16.49063511748509
 30
0.0
 10
13.53260492801393
 20
-16.49063511748509
 30
0.0
 10
13.53187827022175
 20
-16.49063511748509
 30
0.0
 10
13.53096657970653
 20
-16.49063511748509
 30
0.0
 10
13.52532903396697
 20
-16.49063511748509
 30
0.0
 10
13.51968346188958
 20
-16.49063511748509
 30
0.0
 10
13.51386088342697
 20
-16.49063511748509
 30
0.0
 10
13.50658498938007
 20
-16.49063511748509
 30
0.0
 10
13.49930909533317
 20
-16.49063511748509
 30
0.0
 10
13.49202517396478
 20
-16.49063511748509
 30
0.0
 10
13.47747209706691
 20
-16.49063511748509
 30
0.0
 10
13.46309731535839
 20
-16.49063511748509
 30
0.0
 10
13.44835920475375
 20
-16.49063511748509
 30
0.0
 10
13.41943263495143
 20
-16.49063511748509
 30
0.0
 10
13.39031974263827
 20
-16.49063511748509
 30
0.0
 10
13.36120685032511
 20
-16.49063511748509
 30
0.0
  0
SPLINE
  5
129
330
E6
100
AcDbEntity
  8
Livello 1
 62
    28
420
  1250058
370
     9
100
AcDbSpline
210
0.0
220
0.0
230
1.0
 70
     8
 71
     3
 72
     8
 73
     4
 74
     0
 42
0.000000001
 43
0.0000000001
 40
0.0
 40
0.0
 40
0.0
 40
0.0
 40
1.0
 40
1.0
 40
1.0
 40
1.0
 10
13.36684310627693
 20
-16.48799865389056
 30
0.0
 10
13.36229683701328
 20
-16.48827813766392
 30
0.0
 10
13.36065719891821
 20
-16.48900479547438
 30
0.0
 10
13.36120685032511
 20
-16.49063511748509
 30
0.0
  0
LINE
  5
12A
330
E6
100
AcDbEntity
  8
Livello 1
 62
    28
420
  1250058
370
     9
100
AcDbLine
 10
14.70275687649219
 20
-16.49328089720537
 30
0.0
 11
14.70275687649219
 21
-16.49063511748509
 31
0.0
  0
LINE
  5
12B
330
E6
100
AcDbEntity
  8
Livello 1
 62
    28
420
  1250058
370
     9
100
AcDbLine
 10
14.70275687649219
 20
-16.49063511748509
 30
0.0
 11
14.60340971373137
 21
-16.49063511748509
 31
0.0
  0
SPLINE
  5
12C
330
E6
100
AcDbEntity
  8
Livello 1
 62
    28
420
  1250058
370
     9
100
AcDbSpline
210
0.0
220
0.0
230
1.0
 70
    24
 71
     3
 72
    11
 73
     7
 74
     0
 42
0.000000001
 43
0.0000000001
 40
0.0
 40
0.0
 40
0.0
 40
0.0
 40
1.0
 40
1.0
 40
1.0
 40
2.0
 40
2.0
 40
2.0
 40
2.0
 10
14.80192703286779
 20
-16.49063511748509
 30
0.0
 10
14.80301701955603
 20
-16.49063511748509
 30
0.0
 10
14.80356667096286
 20
-16.49063511748509
 30
0.0
 10
14.80356667096286
 20
-16.49063511748509
 30
0.0
 10
14.80356667096286
 20
-16.49063511748509
 30
0.0
 10
14.76171995591552
 20
-16.49063511748509
 30
0.0
 10
14.70275687649219
 20
-16.49063511748509
 30
0.0
  0
LINE
  5
12D
330
E6
100
AcDbEntity
  8
Livello 1
 62
    28
420
  1250058
370
     9
100
AcDbLine
 10
14.70275687649219
 20
-16.48799865389056
 30
0.0
 11
14.70275687649219
 21
-16.49063511748509
 31
0.0
  0
LINE
  5
12E
330
E6
100
AcDbEntity
  8
Livello 1
 62
    28
420
  1250058
370
     9
100
AcDbLine
 10
6.030394243359865
 20
-16.49063511748509
 30
0.0
 11
6.030394243359865
 21
-16.49328089720537
 31
0.0
  0
SPLINE
  5
12F
330
E6
100
AcDbEntity
  8
Livello 1
 62
    28
420
  1250058
370
     9
100
AcDbSpline
210
0.0
220
0.0
230
1.0
 70
    24
 71
     3
 72
    20
 73
    16
 74
     0
 42
0.000000001
 43
0.0000000001
 40
0.0
 40
0.0
 40
0.0
 40
0.0
 40
1.0
 40
1.0
 40
1.0
 40
2.0
 40
2.0
 40
2.0
 40
3.0
 40
3.0
 40
3.0
 40
4.0
 40
4.0
 40
4.0
 40
5.0
 40
5.0
 40
5.0
 40
5.0
 10
6.129564399735405
 20
-16.49063511748509
 30
0.0
 10
6.129741406120682
 20
-16.49063511748509
 30
0.0
 10
6.130831392808888
 20
-16.49063511748509
 30
0.0
 10
6.13029105752755
 20
-16.49063511748509
 30
0.0
 10
6.12683477495213
 20
-16.49063511748509
 30
0.0
 10
6.123369176251175
 20
-16.49063511748509
 30
0.0
 10
6.120099216186598
 20
-16.49063511748509
 30
0.0
 10
6.115729953308187
 20
-16.49063511748509
 30
0.0
 10
6.111547012940651
 20
-16.49063511748509
 30
0.0
 10
6.107177750062274
 20
-16.49063511748509
 30
0.0
 10
6.098811869327173
 20
-16.49063511748509
 30
0.0
 10
6.090259666081259
 20
-16.49063511748509
 30
0.0
 10
6.081521140324535
 20
-16.49063511748509
 30
0.0
 10
6.06460305634352
 20
-16.49063511748509
 30
0.0
 10
6.047312327340883
 20
-16.49063511748509
 30
0.0
 10
6.030394243359865
 20
-16.49063511748509
 30
0.0
  0
LINE
  5
130
330
E6
100
AcDbEntity
  8
Livello 1
 62
    28
420
  1250058
370
     9
100
AcDbLine
 10
6.030394243359865
 20
-16.49063511748509
 30
0.0
 11
6.030394243359865
 21
-16.48799865389056
 31
0.0
  0
LINE
  5
131
330
E6
100
AcDbEntity
  8
Livello 1
 62
    28
420
  1250058
370
     9
100
AcDbLine
 10
6.030394243359865
 20
-16.49063511748509
 30
0.0
 11
5.931047080599049
 21
-16.49063511748509
 31
0.0
  0
LINE
  5
132
330
E6
100
AcDbEntity
  8
Livello 1
 62
    28
420
  1250058
370
     9
100
AcDbLine
 10
7.371590256756486
 20
-16.49063511748509
 30
0.0
 11
7.371590256756486
 21
-16.49328089720537
 31
0.0
  0
SPLINE
  5
133
330
E6
100
AcDbEntity
  8
Livello 1
 62
    28
420
  1250058
370
     9
100
AcDbSpline
210
0.0
220
0.0
230
1.0
 70
    24
 71
     3
 72
    20
 73
    16
 74
     0
 42
0.000000001
 43
0.0000000001
 40
0.0
 40
0.0
 40
0.0
 40
0.0
 40
1.0
 40
1.0
 40
1.0
 40
2.0
 40
2.0
 40
2.0
 40
3.0
 40
3.0
 40
3.0
 40
4.0
 40
4.0
 40
4.0
 40
5.0
 40
5.0
 40
5.0
 40
5.0
 10
7.399063510974577
 20
-16.49063511748509
 30
0.0
 10
7.399790168766723
 20
-16.49063511748509
 30
0.0
 10
7.400516826558837
 20
-16.49063511748509
 30
0.0
 10
7.401243484350985
 20
-16.49063511748509
 30
0.0
 10
7.402342787164752
 20
-16.49063511748509
 30
0.0
 10
7.399976491277534
 20
-16.49063511748509
 30
0.0
 10
7.399426839870635
 20
-16.49063511748509
 30
0.0
 10
7.398150530671652
 20
-16.49063511748509
 30
0.0
 10
7.396883537598171
 20
-16.49063511748509
 30
0.0
 10
7.395420905888346
 20
-16.49063511748509
 30
0.0
 10
7.392877603615882
 20
-16.49063511748509
 30
0.0
 10
7.390149113490302
 20
-16.49063511748509
 30
0.0
 10
7.38760467656011
 20
-16.49063511748509
 30
0.0
 10
7.382323567838763
 20
-16.49063511748509
 30
0.0
 10
7.37704950632307
 20
-16.49063511748509
 30
0.0
 10
7.371590256756486
 20
-16.49063511748509
 30
0.0
  0
SPLINE
  5
134
330
E6
100
AcDbEntity
  8
Livello 1
 62
    28
420
  1250058
370
     9
100
AcDbSpline
210
0.0
220
0.0
230
1.0
 70
     8
 71
     3
 72
     8
 73
     4
 74
     0
 42
0.000000001
 43
0.0000000001
 40
0.0
 40
0.0
 40
0.0
 40
0.0
 40
1.0
 40
1.0
 40
1.0
 40
1.0
 10
7.371590256756486
 20
-16.49063511748509
 30
0.0
 10
7.372316914548667
 20
-16.48900479547438
 30
0.0
 10
7.370864733134891
 20
-16.48827813766392
 30
0.0
 10
7.365944684679128
 20
-16.48799865389056
 30
0.0
  0
LINE
  5
135
330
E6
100
AcDbEntity
  8
Livello 1
 62
    28
420
  1250058
370
     9
100
AcDbLine
 10
7.371590256756486
 20
-16.49063511748509
 30
0.0
 11
7.201645494651958
 21
-16.49063511748509
 31
0.0
  0
LINE
  5
136
330
E6
100
AcDbEntity
  8
Livello 1
 62
    28
420
  1250058
370
     9
100
AcDbLine
 10
10.46738535439672
 20
-16.49063511748509
 30
0.0
 11
10.26577508158093
 21
-16.49063511748509
 31
0.0
  0
LINE
  5
137
330
E6
100
AcDbEntity
  8
Livello 1
 62
    28
420
  1250058
370
     9
100
AcDbLine
 10
10.36639855354076
 20
-16.49591736079983
 30
0.0
 11
10.36639855354076
 21
-16.49328089720537
 31
0.0
  0
LINE
  5
138
330
E6
100
AcDbEntity
  8
Livello 1
 62
    28
420
  1250058
370
     9
100
AcDbLine
 10
10.36639855354076
 20
-16.49591736079983
 30
0.0
 11
5.660292524023846
 21
-16.49591736079983
 31
0.0
  0
SPLINE
  5
139
330
E6
100
AcDbEntity
  8
Livello 1
 62
    28
420
  1250058
370
     9
100
AcDbSpline
210
0.0
220
0.0
230
1.0
 70
    24
 71
     3
 72
    26
 73
    22
 74
     0
 42
0.000000001
 43
0.0000000001
 40
0.0
 40
0.0
 40
0.0
 40
0.0
 40
1.0
 40
1.0
 40
1.0
 40
2.0
 40
2.0
 40
2.0
 40
3.0
 40
3.0
 40
3.0
 40
4.0
 40
4.0
 40
4.0
 40
5.0
 40
5.0
 40
5.0
 40
6.0
 40
6.0
 40
6.0
 40
7.0
 40
7.0
 40
7.0
 40
7.0
 10
15.07285859582821
 20
-16.49591736079983
 30
0.0
 10
15.0743119114125
 20
-16.49591736079983
 30
0.0
 10
15.07104195134786
 20
-16.49591736079983
 30
0.0
 10
15.07031529355575
 20
-16.49591736079983
 30
0.0
 10
15.06321640589412
 20
-16.49591736079983
 30
0.0
 10
15.05648217545404
 20
-16.49591736079983
 30
0.0
 10
15.04938195946688
 20
-16.49591736079983
 30
0.0
 10
15.01572279789012
 20
-16.49591736079983
 30
0.0
 10
14.98187731380253
 20
-16.49591736079983
 30
0.0
 10
14.94804247142669
 20
-16.49591736079983
 30
0.0
 10
14.79428780992483
 20
-16.49591736079983
 30
0.0
 10
14.64053447400918
 20
-16.49591736079983
 30
0.0
 10
14.48659481558267
 20
-16.49591736079983
 30
0.0
 10
14.29063011484435
 20
-16.49591736079983
 30
0.0
 10
14.0943020852099
 20
-16.49591736079983
 30
0.0
 10
13.89833738447157
 20
-16.49591736079983
 30
0.0
 10
13.50603533797323
 20
-16.49591736079983
 30
0.0
 10
13.11355628508962
 20
-16.49591736079983
 30
0.0
 10
12.72144987722762
 20
-16.49591736079983
 30
0.0
 10
11.93630544894967
 20
-16.49591736079983
 30
0.0
 10
11.15153489537159
 20
-16.49591736079983
 30
0.0
 10
10.36639855354076
 20
-16.49591736079983
 30
0.0
  0
SPLINE
  5
13A
330
E6
100
AcDbEntity
  8
Livello 1
 62
    28
420
  1250058
370
     9
100
AcDbSpline
210
0.0
220
0.0
230
1.0
 70
    24
 71
     3
 72
    26
 73
    22
 74
     0
 42
0.000000001
 43
0.0000000001
 40
0.0
 40
0.0
 40
0.0
 40
0.0
 40
1.0
 40
1.0
 40
1.0
 40
2.0
 40
2.0
 40
2.0
 40
3.0
 40
3.0
 40
3.0
 40
4.0
 40
4.0
 40
4.0
 40
5.0
 40
5.0
 40
5.0
 40
6.0
 40
6.0
 40
6.0
 40
7.0
 40
7.0
 40
7.0
 40
7.0
 10
5.668481398373701
 20
-16.66295549595559
 30
0.0
 10
5.666665845012217
 20
-16.66295549595559
 30
0.0
 10
5.669944030083527
 20
-16.66295549595559
 30
0.0
 10
5.670671779095639
 20
-16.66295549595559
 30
0.0
 10
5.677760259411763
 20
-16.66295549595559
 30
0.0
 10
5.684682140688138
 20
-16.66295549595559
 30
0.0
 10
5.691594705838976
 20
-16.66295549595559
 30
0.0
 10
5.725253867415762
 20
-16.66295549595559
 30
0.0
 10
5.758913028992549
 20
-16.66295549595559
 30
0.0
 10
5.792581506694866
 20
-16.66295549595559
 30
0.0
 10
5.946335940794496
 20
-16.66295549595559
 30
0.0
 10
6.099715533504565
 20
-16.66295549595559
 30
0.0
 10
6.253468869420224
 20
-16.66295549595559
 30
0.0
 10
6.449256563773337
 20
-16.66295549595559
 30
0.0
 10
6.645045373961283
 20
-16.66295549595559
 30
0.0
 10
6.84082263635403
 20
-16.66295549595559
 30
0.0
 10
7.232575031445438
 20
-16.66295549595559
 30
0.0
 10
7.624141104026098
 20
-16.66295549595559
 30
0.0
 10
8.015707176606758
 20
-16.66295549595559
 30
0.0
 10
8.79921313704334
 20
-16.66295549595559
 30
0.0
 10
9.582893763357855
 20
-16.66295549595559
 30
0.0
 10
10.36639855354076
 20
-16.66295549595559
 30
0.0
  0
LINE
  5
13B
330
E6
100
AcDbEntity
  8
Livello 1
 62
    28
420
  1250058
370
     9
100
AcDbLine
 10
10.36639855354076
 20
-16.66295549595559
 30
0.0
 11
15.06466972147835
 21
-16.66295549595559
 31
0.0
  0
SPLINE
  5
13C
330
E6
100
AcDbEntity
  8
Livello 1
 62
    28
420
  1250058
370
     9
100
AcDbSpline
210
0.0
220
0.0
230
1.0
 70
     8
 71
     3
 72
     8
 73
     4
 74
     0
 42
0.000000001
 43
0.0000000001
 40
0.0
 40
0.0
 40
0.0
 40
0.0
 40
1.0
 40
1.0
 40
1.0
 40
1.0
 10
15.07377157613117
 20
-16.66177234798212
 30
0.0
 10
15.07377157613117
 20
-16.66259216705035
 30
0.0
 10
15.07158228662919
 20
-16.66295549595559
 30
0.0
 10
15.06575970816659
 20
-16.66295549595559
 30
0.0
  0
LINE
  5
13D
330
E6
100
AcDbEntity
  8
Livello 1
 62
    28
420
  1250058
370
     9
100
AcDbLine
 10
15.07377157613117
 20
-16.49591736079983
 30
0.0
 11
15.07377157613117
 21
-16.66185619311407
 31
0.0
  0
SPLINE
  5
13E
330
E6
100
AcDbEntity
  8
Livello 1
 62
    28
420
  1250058
370
     9
100
AcDbSpline
210
0.0
220
0.0
230
1.0
 70
    24
 71
     3
 72
    26
 73
    22
 74
     0
 42
0.000000001
 43
0.0000000001
 40
0.0
 40
0.0
 40
0.0
 40
0.0
 40
1.0
 40
1.0
 40
1.0
 40
2.0
 40
2.0
 40
2.0
 40
3.0
 40
3.0
 40
3.0
 40
4.0
 40
4.0
 40
4.0
 40
5.0
 40
5.0
 40
5.0
 40
6.0
 40
6.0
 40
6.0
 40
7.0
 40
7.0
 40
7.0
 40
7.0
 10
15.07285859582821
 20
-16.66177234798212
 30
0.0
 10
15.0743119114125
 20
-16.66177234798212
 30
0.0
 10
15.07104195134786
 20
-16.66177234798212
 30
0.0
 10
15.07031529355575
 20
-16.66177234798212
 30
0.0
 10
15.06321640589412
 20
-16.66177234798212
 30
0.0
 10
15.05648217545404
 20
-16.66177234798212
 30
0.0
 10
15.04938195946688
 20
-16.66177234798212
 30
0.0
 10
15.01572279789012
 20
-16.66177234798212
 30
0.0
 10
14.98187731380253
 20
-16.66177234798212
 30
0.0
 10
14.94804247142669
 20
-16.66177234798212
 30
0.0
 10
14.79428780992483
 20
-16.66177234798212
 30
0.0
 10
14.64053447400918
 20
-16.66177234798212
 30
0.0
 10
14.48659481558267
 20
-16.66177234798212
 30
0.0
 10
14.29063011484435
 20
-16.66177234798212
 30
0.0
 10
14.0943020852099
 20
-16.66177234798212
 30
0.0
 10
13.89833738447157
 20
-16.66177234798212
 30
0.0
 10
13.50603533797323
 20
-16.66177234798212
 30
0.0
 10
13.11355628508962
 20
-16.66177234798212
 30
0.0
 10
12.72144987722762
 20
-16.66177234798212
 30
0.0
 10
11.93630544894967
 20
-16.66177234798212
 30
0.0
 10
11.15153489537159
 20
-16.66177234798212
 30
0.0
 10
10.36639855354076
 20
-16.66177234798212
 30
0.0
  0
LINE
  5
13F
330
E6
100
AcDbEntity
  8
Livello 1
 62
    28
420
  1250058
370
     9
100
AcDbLine
 10
10.36639855354076
 20
-16.66177234798212
 30
0.0
 11
5.660292524023846
 21
-16.66177234798212
 31
0.0
  0
LINE
  5
140
330
E6
100
AcDbEntity
  8
Livello 1
 62
    28
420
  1250058
370
     9
100
AcDbLine
 10
10.36639855354076
 20
-16.66295549595559
 30
0.0
 11
10.36639855354076
 21
-16.66177234798212
 31
0.0
  0
LINE
  5
141
330
E6
100
AcDbEntity
  8
Livello 1
 62
    28
420
  1250058
370
     9
100
AcDbLine
 10
13.36120685032511
 20
-16.49328089720537
 30
0.0
 11
13.36120685032511
 21
-16.49063511748509
 31
0.0
  0
LINE
  5
142
330
E6
100
AcDbEntity
  8
Livello 1
 62
    28
420
  1250058
370
     9
100
AcDbLine
 10
13.18689282534214
 20
-15.96024012870525
 30
0.0
 11
13.19216575239791
 21
-16.35899826027651
 31
0.0
  0
LINE
  5
143
330
E6
100
AcDbEntity
  8
Livello 1
 62
    28
420
  1250058
370
     9
100
AcDbLine
 10
7.543351663341398
 20
-16.35899826027651
 30
0.0
 11
7.548810912907949
 21
-15.96024012870525
 31
0.0
  0
SPLINE
  5
144
330
E6
100
AcDbEntity
  8
Livello 1
 62
    28
420
  1250058
370
     9
100
AcDbSpline
210
0.0
220
0.0
230
1.0
 70
    24
 71
     3
 72
    23
 73
    19
 74
     0
 42
0.000000001
 43
0.0000000001
 40
0.0
 40
0.0
 40
0.0
 40
0.0
 40
1.0
 40
1.0
 40
1.0
 40
2.0
 40
2.0
 40
2.0
 40
3.0
 40
3.0
 40
3.0
 40
4.0
 40
4.0
 40
4.0
 40
5.0
 40
5.0
 40
5.0
 40
6.0
 40
6.0
 40
6.0
 40
6.0
 10
13.17251804363362
 20
-15.95050477726988
 30
0.0
 10
13.18088392436875
 20
-15.95050477726988
 30
0.0
 10
13.16414284677292
 20
-15.95050477726988
 30
0.0
 10
13.15995990640544
 20
-15.95050477726988
 30
0.0
 10
13.14394548660179
 20
-15.95050477726988
 30
0.0
 10
13.12830371181975
 20
-15.95050477726988
 30
0.0
 10
13.11210296950532
 20
-15.95050477726988
 30
0.0
 10
13.04387166604879
 20
-15.95050477726988
 30
0.0
 10
12.97564036259227
 20
-15.95050477726988
 30
0.0
 10
12.90722273662496
 20
-15.95050477726988
 30
0.0
 10
12.81879407299731
 20
-15.95050477726988
 30
0.0
 10
12.73000208047353
 20
-15.95050477726988
 30
0.0
 10
12.64156410072031
 20
-15.95050477726988
 30
0.0
 10
12.46415712205804
 20
-15.95050477726988
 30
0.0
 10
12.28712278841739
 20
-15.95050477726988
 30
0.0
 10
12.1098928161404
 20
-15.95050477726988
 30
0.0
 10
11.75544218771198
 20
-15.95050477726988
 30
0.0
 10
11.40081455289821
 20
-15.95050477726988
 30
0.0
 10
11.04636392446979
 20
-15.95050477726988
 30
0.0
  0
LINE
  5
145
330
E6
100
AcDbEntity
  8
Livello 1
 62
    28
420
  1250058
370
     9
100
AcDbLine
 10
11.04636392446979
 20
-15.95050477726988
 30
0.0
 11
7.563008688231222
 21
-15.95050477726988
 31
0.0
  0
LINE
  5
146
330
E6
100
AcDbEntity
  8
Livello 1
 62
    28
420
  1250058
370
     9
100
AcDbLine
 10
11.01033846700579
 20
-16.35899826027651
 30
0.0
 11
11.00268992793727
 21
-16.35899826027651
 31
0.0
  0
LINE
  5
147
330
E6
100
AcDbEntity
  8
Livello 1
 62
    28
420
  1250058
370
     9
100
AcDbLine
 10
10.89898281842364
 20
-16.35899826027651
 30
0.0
 11
10.88860465457187
 21
-16.35899826027651
 31
0.0
  0
LINE
  5
148
330
E6
100
AcDbEntity
  8
Livello 1
 62
    28
420
  1250058
370
     9
100
AcDbLine
 10
10.86349769624097
 20
-16.35899826027651
 30
0.0
 11
10.84494119609804
 21
-16.35899826027651
 31
0.0
  0
LINE
  5
149
330
E6
100
AcDbEntity
  8
Livello 1
 62
    28
420
  1250058
370
     9
100
AcDbLine
 10
10.64441968803737
 20
-16.35899826027651
 30
0.0
 11
10.60020657197406
 21
-16.35899826027651
 31
0.0
  0
SPLINE
  5
14A
330
E6
100
AcDbEntity
  8
Livello 1
 62
    28
420
  1250058
370
     9
100
AcDbSpline
210
0.0
220
0.0
230
1.0
 70
     8
 71
     3
 72
     8
 73
     4
 74
     0
 42
0.000000001
 43
0.0000000001
 40
0.0
 40
0.0
 40
0.0
 40
0.0
 40
1.0
 40
1.0
 40
1.0
 40
1.0
 10
13.17288137252967
 20
-15.95050477726988
 30
0.0
 10
13.17779225155526
 20
-15.95205125414864
 30
0.0
 10
13.18179818563871
 20
-15.95405422119034
 30
0.0
 10
13.18525318724706
 20
-15.95687700730033
 30
0.0
  0
SPLINE
  5
14B
330
E6
100
AcDbEntity
  8
Livello 1
 62
    28
420
  1250058
370
     9
100
AcDbSpline
210
0.0
220
0.0
230
1.0
 70
     8
 71
     3
 72
     8
 73
     4
 74
     0
 42
0.000000001
 43
0.0000000001
 40
0.0
 40
0.0
 40
0.0
 40
0.0
 40
1.0
 40
1.0
 40
1.0
 40
1.0
 10
7.548447584011891
 20
-15.96024012870525
 30
0.0
 10
7.551363531305977
 20
-15.9552373691638
 30
0.0
 10
7.555360149162733
 20
-15.95241458305388
 30
0.0
 10
7.562822365720443
 20
-15.95050477726988
 30
0.0
  0
LINE
  5
14C
330
E6
100
AcDbEntity
  8
Livello 1
 62
    28
420
  1250058
370
     9
100
AcDbLine
 10
13.13339031636475
 20
-15.93931611021332
 30
0.0
 11
13.13357663887553
 21
-15.95050477726988
 31
0.0
  0
LINE
  5
14D
330
E6
100
AcDbEntity
  8
Livello 1
 62
    28
420
  1250058
370
     9
100
AcDbLine
 10
7.602127099374588
 20
-15.95050477726988
 30
0.0
 11
7.602304105759802
 21
-15.93931611021332
 31
0.0
  0
LINE
  5
14E
330
E6
100
AcDbEntity
  8
Livello 1
 62
    28
420
  1250058
370
     9
100
AcDbLine
 10
11.04982020704521
 20
-15.96024012870525
 30
0.0
 11
7.548810912907949
 21
-15.96024012870525
 31
0.0
  0
SPLINE
  5
14F
330
E6
100
AcDbEntity
  8
Livello 1
 62
    28
420
  1250058
370
     9
100
AcDbSpline
210
0.0
220
0.0
230
1.0
 70
     8
 71
     3
 72
     8
 73
     4
 74
     0
 42
0.000000001
 43
0.0000000001
 40
0.0
 40
0.0
 40
0.0
 40
0.0
 40
1.0
 40
1.0
 40
1.0
 40
1.0
 10
11.04636392446979
 20
-15.95050477726988
 30
0.0
 10
11.04982020704521
 20
-15.95350456976958
 30
0.0
 10
11.05091019373338
 20
-15.95632735587956
 30
0.0
 10
11.04982020704521
 20
-15.96024012870525
 30
0.0
  0
SPLINE
  5
150
330
E6
100
AcDbEntity
  8
Livello 1
 62
    28
420
  1250058
370
     9
100
AcDbSpline
210
0.0
220
0.0
230
1.0
 70
    24
 71
     3
 72
    23
 73
    19
 74
     0
 42
0.000000001
 43
0.0000000001
 40
0.0
 40
0.0
 40
0.0
 40
0.0
 40
1.0
 40
1.0
 40
1.0
 40
2.0
 40
2.0
 40
2.0
 40
3.0
 40
3.0
 40
3.0
 40
4.0
 40
4.0
 40
4.0
 40
5.0
 40
5.0
 40
5.0
 40
6.0
 40
6.0
 40
6.0
 40
6.0
 10
13.18689282534214
 20
-15.96024012870525
 30
0.0
 10
13.19525870607727
 20
-15.96024012870525
 30
0.0
 10
13.1785176284815
 20
-15.96024012870525
 30
0.0
 10
13.17433468811396
 20
-15.96024012870525
 30
0.0
 10
13.15832154868425
 20
-15.96024012870525
 30
0.0
 10
13.14230584850672
 20
-15.96024012870525
 30
0.0
 10
13.12647775121391
 20
-15.96024012870525
 30
0.0
 10
13.05769679635048
 20
-15.96024012870525
 30
0.0
 10
12.98892515761262
 20
-15.96024012870525
 30
0.0
 10
12.92032120913453
 20
-15.96024012870525
 30
0.0
 10
12.83135221022548
 20
-15.96024012870525
 30
0.0
 10
12.74237389519092
 20
-15.96024012870525
 30
0.0
 10
12.65320925764559
 20
-15.96024012870525
 30
0.0
 10
12.47507688430498
 20
-15.96024012870525
 30
0.0
 10
12.29676623696079
 20
-15.96024012870525
 30
0.0
 10
12.11863134189715
 20
-15.96024012870525
 30
0.0
 10
11.76235475286282
 20
-15.96024012870525
 30
0.0
 10
11.40608747995398
 20
-15.96024012870525
 30
0.0
 10
11.04982020704521
 20
-15.96024012870525
 30
0.0
  0
ENDBLK
  5
E9
330
E6
100
AcDbEntity
  8
0
100
AcDbBlockEnd
  0
ENDSEC
  0
SECTION
  2
ENTITIES
  0
LINE
  5
79
330
70
100
AcDbEntity
  8
Livello 1
370
     9
100
AcDbLine
 10
8.838470411842793
 20
-15.9060555942949
 30
0.0
 11
10.11834612378644
 21
-10.17597364324229
 31
0.0
  0
LINE
  5
7A
330
70
100
AcDbEntity
  8
Livello 1
370
     9
100
AcDbLine
 10
9.970593219090023
 20
-15.9060555942949
 30
0.0
 11
10.41907912743406
 21
-10.17597364324229
 31
0.0
  0
LINE
  5
7B
330
70
100
AcDbEntity
  8
Livello 1
370
     9
100
AcDbLine
 10
12.0256590794937
 20
-15.9060555942949
 30
0.0
 11
10.74578336755002
 21
-10.17597364324229
 31
0.0
  0
SPLINE
  5
7D
330
70
100
AcDbEntity
  8
Livello 1
370
     9
100
AcDbSpline
210
0.0
220
0.0
230
1.0
 70
     8
 71
     3
 72
     8
 73
     4
 74
     0
 42
0.000000001
 43
0.0000000001
 40
0.0
 40
0.0
 40
0.0
 40
0.0
 40
1.0
 40
1.0
 40
1.0
 40
1.0
 10
12.32022049874264
 20
-15.9265258410033
 30
0.0
 10
12.32349851672357
 20
-15.928072317882
 30
0.0
 10
12.32622814150694
 20
-15.93007528492382
 30
0.0
 10
12.32877144377941
 20
-15.93298191616575
 30
0.0
  0
SPLINE
  5
7E
330
70
100
AcDbEntity
  8
Livello 1
370
     9
100
AcDbSpline
210
0.0
220
0.0
230
1.0
 70
     8
 71
     3
 72
     8
 73
     4
 74
     0
 42
0.000000001
 43
0.0000000001
 40
0.0
 40
0.0
 40
0.0
 40
0.0
 40
1.0
 40
1.0
 40
1.0
 40
1.0
 10
8.484239336472386
 20
-15.93626119243873
 30
0.0
 10
8.486242303463516
 20
-15.93134227802922
 30
0.0
 10
8.488963773544734
 20
-15.92843564678729
 30
0.0
 10
8.494058532791813
 20
-15.9265258410033
 30
0.0
  0
LINE
  5
7F
330
70
100
AcDbEntity
  8
Livello 1
370
     9
100
AcDbLine
 10
12.29329689525144
 20
-15.9153371739468
 30
0.0
 11
12.29329689525144
 21
-15.9264326797456
 31
0.0
  0
LINE
  5
80
330
70
100
AcDbEntity
  8
Livello 1
370
     9
100
AcDbLine
 10
8.520805129217725
 20
-15.9265258410033
 30
0.0
 11
8.520991451728502
 21
-15.9153371739468
 31
0.0
  0
SPLINE
  5
81
330
70
100
AcDbEntity
  8
Livello 1
370
     9
100
AcDbSpline
210
0.0
220
0.0
230
1.0
 70
     8
 71
     3
 72
     8
 73
     4
 74
     0
 42
0.000000001
 43
0.0000000001
 40
0.0
 40
0.0
 40
0.0
 40
0.0
 40
1.0
 40
1.0
 40
1.0
 40
1.0
 10
10.86985686805666
 20
-15.9265258410033
 30
0.0
 10
10.87240139196341
 20
-15.92961879476069
 30
0.0
 10
10.87294982173601
 20
-15.93244158087074
 30
0.0
 10
10.87222316394378
 20
-15.93626119243873
 30
0.0
  0
SPLINE
  5
82
330
70
100
AcDbEntity
  8
Livello 1
370
     9
100
AcDbSpline
210
0.0
220
0.0
230
1.0
 70
     8
 71
     3
 72
     8
 73
     4
 74
     0
 42
0.000000001
 43
0.0000000001
 40
0.0
 40
0.0
 40
0.0
 40
0.0
 40
1.0
 40
1.0
 40
1.0
 40
1.0
 10
12.37576053286992
 20
-15.93358536028126
 30
0.0
 10
12.37903049293449
 20
-15.93513183716015
 30
0.0
 10
12.38176011771774
 20
-15.93712548807602
 30
0.0
 10
12.38412641360499
 20
-15.93985511292831
 30
0.0
  0
SPLINE
  5
83
330
70
100
AcDbEntity
  8
Livello 1
370
     9
100
AcDbSpline
210
0.0
220
0.0
230
1.0
 70
     8
 71
     3
 72
     8
 73
     4
 74
     0
 42
0.000000001
 43
0.0000000001
 40
0.0
 40
0.0
 40
0.0
 40
0.0
 40
1.0
 40
1.0
 40
1.0
 40
1.0
 10
8.539771312683182
 20
-15.94332071171676
 30
0.0
 10
8.541587957163532
 20
-15.93840179730725
 30
0.0
 10
8.544503904457616
 20
-15.93549516606532
 30
0.0
 10
8.549599825128106
 20
-15.93358536028126
 30
0.0
  0
LINE
  5
84
330
70
100
AcDbEntity
  8
Livello 1
370
     9
100
AcDbLine
 10
12.3488276139331
 20
-15.92238737709913
 30
0.0
 11
12.34901393644388
 21
-15.93358536028126
 31
0.0
  0
LINE
  5
85
330
70
100
AcDbEntity
  8
Livello 1
370
     9
100
AcDbLine
 10
8.576346421554083
 20
-15.93358536028126
 30
0.0
 11
8.57652342793933
 21
-15.92238737709913
 31
0.0
  0
SPLINE
  5
87
330
70
100
AcDbEntity
  8
Livello 1
370
     9
100
AcDbSpline
210
0.0
220
0.0
230
1.0
 70
     8
 71
     3
 72
     8
 73
     4
 74
     0
 42
0.000000001
 43
0.0000000001
 40
0.0
 40
0.0
 40
0.0
 40
0.0
 40
1.0
 40
1.0
 40
1.0
 40
1.0
 10
15.33036609956121
 20
-16.71526918807276
 30
0.0
 10
15.33036609956121
 20
-16.7173680934606
 30
0.0
 10
15.32783403361924
 20
-16.71825615621832
 30
0.0
 10
15.32171292308575
 20
-16.71825615621832
 30
0.0
  0
LINE
  5
194
330
70
100
AcDbEntity
  8
Livello 1
370
     9
100
AcDbLine
 10
9.880838672915386
 20
-9.780436177229946
 30
0.0
 11
10.9571941493599
 21
-9.780436177229946
 31
0.0
  0
LINE
  5
195
330
70
100
AcDbEntity
  8
Livello 1
370
     9
100
AcDbLine
 10
10.9571941493599
 20
-9.780436177229946
 30
0.0
 11
10.9571941493599
 21
-10.17597364324229
 31
0.0
  0
LINE
  5
196
330
70
100
AcDbEntity
  8
Livello 1
370
     9
100
AcDbLine
 10
10.9571941493599
 20
-10.17597364324229
 30
0.0
 11
9.880838672915386
 21
-10.17597364324229
 31
0.0
  0
LINE
  5
197
330
70
100
AcDbEntity
  8
Livello 1
370
     9
100
AcDbLine
 10
9.880838672915386
 20
-10.17597364324229
 30
0.0
 11
9.880838672915386
 21
-9.780436177229946
 31
0.0
  0
LINE
  5
1A9
330
70
100
AcDbEntity
  8
Livello 1
370
     9
100
AcDbLine
 10
6.27512886130124
 20
-16.35835544759799
 30
0.0
 11
6.21234749128573
 21
-16.49782716658376
 31
0.0
  0
LINE
  5
1AA
330
70
100
AcDbEntity
  8
Livello 1
370
     9
100
AcDbLine
 10
14.45803157467641
 20
-16.35835544759799
 30
0.0
 11
6.27512886130124
 21
-16.35835544759799
 31
0.0
  0
LINE
  5
1AB
330
70
100
AcDbEntity
  8
Livello 1
370
     9
100
AcDbLine
 10
11.08494200033182
 20
-16.35835544759799
 30
0.0
 11
11.07638979708585
 21
-16.35835544759799
 31
0.0
  0
LINE
  5
1AC
330
70
100
AcDbEntity
  8
Livello 1
370
     9
100
AcDbLine
 10
10.96066488562538
 20
-16.35835544759799
 30
0.0
 11
10.94865639980405
 21
-16.35835544759799
 31
0.0
  0
LINE
  5
1AD
330
70
100
AcDbEntity
  8
Livello 1
370
     9
100
AcDbLine
 10
10.92081050056433
 20
-16.35835544759799
 30
0.0
 11
10.90007280511187
 21
-16.35835544759799
 31
0.0
  0
LINE
  5
1AE
330
70
100
AcDbEntity
  8
Livello 1
370
     9
100
AcDbLine
 10
10.67589887623771
 20
-16.35835544759799
 30
0.0
 11
10.62641161736808
 21
-16.35835544759799
 31
0.0
  0
LINE
  5
1AF
330
70
100
AcDbEntity
  8
Livello 1
370
     9
100
AcDbLine
 10
14.45803157467641
 20
-16.35835544759799
 30
0.0
 11
14.52080494335947
 21
-16.49782716658376
 31
0.0
  0
LINE
  5
1B0
330
70
100
AcDbEntity
  8
Livello 1
370
     9
100
AcDbLine
 10
13.33172131299026
 20
-16.49063511748509
 30
0.0
 11
13.33172131299026
 21
-16.49328089720537
 31
0.0
  0
LINE
  5
1B1
330
70
100
AcDbEntity
  8
Livello 1
370
     9
100
AcDbLine
 10
13.33609057586864
 20
-16.48881847295886
 30
0.0
 11
13.36247384339856
 21
-16.48881847295886
 31
0.0
  0
SPLINE
  5
1B2
330
70
100
AcDbEntity
  8
Livello 1
370
     9
100
AcDbSpline
210
0.0
220
0.0
230
1.0
 70
     8
 71
     3
 72
     8
 73
     4
 74
     0
 42
0.000000001
 43
0.0000000001
 40
0.0
 40
0.0
 40
0.0
 40
0.0
 40
1.0
 40
1.0
 40
1.0
 40
1.0
 10
13.33172131299026
 20
-16.49063511748509
 30
0.0
 10
13.33172131299026
 20
-16.48990845967456
 30
0.0
 10
13.33245728690794
 20
-16.48927496312191
 30
0.0
 10
13.33408760887751
 20
-16.48881847295886
 30
0.0
  0
LINE
  5
1B3
330
70
100
AcDbEntity
  8
Livello 1
370
     9
100
AcDbLine
 10
13.50185239760563
 20
-16.48881847295886
 30
0.0
 11
13.53115290222212
 21
-16.48881847295886
 31
0.0
  0
SPLINE
  5
1B4
330
70
100
AcDbEntity
  8
Livello 1
370
     9
100
AcDbSpline
210
0.0
220
0.0
230
1.0
 70
     8
 71
     3
 72
     8
 73
     4
 74
     0
 42
0.000000001
 43
0.0000000001
 40
0.0
 40
0.0
 40
0.0
 40
0.0
 40
1.0
 40
1.0
 40
1.0
 40
1.0
 10
13.53115290222212
 20
-16.48881847295886
 30
0.0
 10
13.53278193439914
 20
-16.48927496312191
 30
0.0
 10
13.53351790831682
 20
-16.48990845967456
 30
0.0
 10
13.53351790831682
 20
-16.49063511748509
 30
0.0
  0
SPLINE
  5
1B5
330
70
100
AcDbEntity
  8
Livello 1
370
     9
100
AcDbSpline
210
0.0
220
0.0
230
1.0
 70
     8
 71
     3
 72
     8
 73
     4
 74
     0
 42
0.000000001
 43
0.0000000001
 40
0.0
 40
0.0
 40
0.0
 40
0.0
 40
1.0
 40
1.0
 40
1.0
 40
1.0
 10
13.49821910864493
 20
-16.48799865389056
 30
0.0
 10
13.49985071961629
 20
-16.48799865389056
 30
0.0
 10
13.5007624109174
 20
-16.4883619827958
 30
0.0
 10
13.50185239760563
 20
-16.48881847295886
 30
0.0
  0
LINE
  5
1B6
330
70
100
AcDbEntity
  8
Livello 1
370
     9
100
AcDbLine
 10
10.36639855354076
 20
-16.49328089720537
 30
0.0
 11
5.668304391988423
 21
-16.49328089720537
 31
0.0
  0
SPLINE
  5
1B7
330
70
100
AcDbEntity
  8
Livello 1
370
     9
100
AcDbSpline
210
0.0
220
0.0
230
1.0
 70
    24
 71
     3
 72
    26
 73
    22
 74
     0
 42
0.000000001
 43
0.0000000001
 40
0.0
 40
0.0
 40
0.0
 40
0.0
 40
1.0
 40
1.0
 40
1.0
 40
2.0
 40
2.0
 40
2.0
 40
3.0
 40
3.0
 40
3.0
 40
4.0
 40
4.0
 40
4.0
 40
5.0
 40
5.0
 40
5.0
 40
6.0
 40
6.0
 40
6.0
 40
7.0
 40
7.0
 40
7.0
 40
7.0
 10
15.06466972147835
 20
-16.49328089720537
 30
0.0
 10
15.06630935957349
 20
-16.49328089720537
 30
0.0
 10
15.06303008338335
 20
-16.49328089720537
 30
0.0
 10
15.06230342559117
 20
-16.49328089720537
 30
0.0
 10
15.05520453792955
 20
-16.49328089720537
 30
0.0
 10
15.04847829528948
 20
-16.49328089720537
 30
0.0
 10
15.04137940762786
 20
-16.49328089720537
 30
0.0
 10
15.00772024605105
 20
-16.49328089720537
 30
0.0
 10
14.97387476196351
 20
-16.49328089720537
 30
0.0
 10
14.94039260677198
 20
-16.49328089720537
 30
0.0
 10
14.78682559336709
 20
-16.49328089720537
 30
0.0
 10
14.63325058147052
 20
-16.49328089720537
 30
0.0
 10
14.47950524404655
 20
-16.49328089720537
 30
0.0
 10
14.28389586488712
 20
-16.49328089720537
 30
0.0
 10
14.08811617785123
 20
-16.49328089720537
 30
0.0
 10
13.89232848349806
 20
-16.49328089720537
 30
0.0
 10
13.50057608840662
 20
-16.49328089720537
 30
0.0
 10
13.10901001582596
 20
-16.49328089720537
 30
0.0
 10
12.71725762073452
 20
-16.49328089720537
 30
0.0
 10
11.9335758241663
 20
-16.49328089720537
 30
0.0
 10
11.15008035010899
 20
-16.49328089720537
 30
0.0
 10
10.36639855354076
 20
-16.49328089720537
 30
0.0
  0
LINE
  5
1B8
330
70
100
AcDbEntity
  8
Livello 1
370
     9
100
AcDbLine
 10
14.80356667096286
 20
-16.49063511748509
 30
0.0
 11
14.80356667096286
 21
-16.49328089720537
 31
0.0
  0
LINE
  5
1B9
330
70
100
AcDbEntity
  8
Livello 1
370
     9
100
AcDbLine
 10
14.60195639814714
 20
-16.49063511748509
 30
0.0
 11
14.60195639814714
 21
-16.49328089720537
 31
0.0
  0
SPLINE
  5
1BA
330
70
100
AcDbEntity
  8
Livello 1
370
     9
100
AcDbSpline
210
0.0
220
0.0
230
1.0
 70
     8
 71
     3
 72
     8
 73
     4
 74
     0
 42
0.000000001
 43
0.0000000001
 40
0.0
 40
0.0
 40
0.0
 40
0.0
 40
1.0
 40
1.0
 40
1.0
 40
1.0
 10
14.63234559965932
 20
-16.48881847295886
 30
0.0
 10
14.63343690398605
 20
-16.48827813766392
 30
0.0
 10
14.6347118955465
 20
-16.48799865389056
 30
0.0
 10
14.63652854002685
 20
-16.48799865389056
 30
0.0
  0
LINE
  5
1BB
330
70
100
AcDbEntity
  8
Livello 1
370
     9
100
AcDbLine
 10
10.45937348643207
 20
-16.48799865389056
 30
0.0
 11
10.43499318589335
 21
-16.48799865389056
 31
0.0
  0
LINE
  5
1BC
330
70
100
AcDbEntity
  8
Livello 1
370
     9
100
AcDbLine
 10
10.43207723859926
 20
-16.48799865389056
 30
0.0
 11
10.30071055235673
 21
-16.48799865389056
 31
0.0
  0
LINE
  5
1BD
330
70
100
AcDbEntity
  8
Livello 1
370
     9
100
AcDbLine
 10
10.29670461837445
 20
-16.48799865389056
 30
0.0
 11
10.28014986328945
 21
-16.48799865389056
 31
0.0
  0
SPLINE
  5
1BE
330
70
100
AcDbEntity
  8
Livello 1
370
     9
100
AcDbSpline
210
0.0
220
0.0
230
1.0
 70
     8
 71
     3
 72
     8
 73
     4
 74
     0
 42
0.000000001
 43
0.0000000001
 40
0.0
 40
0.0
 40
0.0
 40
0.0
 40
1.0
 40
1.0
 40
1.0
 40
1.0
 10
10.26795505495737
 20
-16.48881847295886
 30
0.0
 10
10.26631662417807
 20
-16.48927496312191
 30
0.0
 10
10.26558875907015
 20
-16.48990845967456
 30
0.0
 10
10.26558875907015
 20
-16.49063511748509
 30
0.0
  0
SPLINE
  5
1BF
330
70
100
AcDbEntity
  8
Livello 1
370
     9
100
AcDbSpline
210
0.0
220
0.0
230
1.0
 70
    24
 71
     3
 72
    17
 73
    13
 74
     0
 42
0.000000001
 43
0.0000000001
 40
0.0
 40
0.0
 40
0.0
 40
0.0
 40
1.0
 40
1.0
 40
1.0
 40
2.0
 40
2.0
 40
2.0
 40
3.0
 40
3.0
 40
3.0
 40
4.0
 40
4.0
 40
4.0
 40
4.0
 10
14.60413637152355
 20
-16.48881847295886
 30
0.0
 10
14.60195639814714
 20
-16.48881847295886
 30
0.0
 10
14.60650266741074
 20
-16.48881847295886
 30
0.0
 10
14.60777897660975
 20
-16.48881847295886
 30
0.0
 10
14.60886896329799
 20
-16.48881847295886
 30
0.0
 10
14.61014658954719
 20
-16.48881847295886
 30
0.0
 10
14.61123525918517
 20
-16.48881847295886
 30
0.0
 10
14.61360155507236
 20
-16.48881847295886
 30
0.0
 10
14.6159678509596
 20
-16.48881847295886
 30
0.0
 10
14.61833414684686
 20
-16.48881847295886
 30
0.0
 10
14.62306673862123
 20
-16.48881847295886
 30
0.0
 10
14.62779933039573
 20
-16.48881847295886
 30
0.0
 10
14.63234559965932
 20
-16.48881847295886
 30
0.0
  0
SPLINE
  5
1C0
330
70
100
AcDbEntity
  8
Livello 1
370
     9
100
AcDbSpline
210
0.0
220
0.0
230
1.0
 70
     8
 71
     3
 72
     8
 73
     4
 74
     0
 42
0.000000001
 43
0.0000000001
 40
0.0
 40
0.0
 40
0.0
 40
0.0
 40
1.0
 40
1.0
 40
1.0
 40
1.0
 10
10.46738535439672
 20
-16.49063511748509
 30
0.0
 10
10.46738535439672
 20
-16.48881847295886
 30
0.0
 10
10.46501905850947
 20
-16.48799865389056
 30
0.0
 10
10.45919648004686
 20
-16.48799865389056
 30
0.0
  0
LINE
  5
1C1
330
70
100
AcDbEntity
  8
Livello 1
370
     9
100
AcDbLine
 10
10.46738535439672
 20
-16.49063511748509
 30
0.0
 11
10.46738535439672
 21
-16.49328089720537
 31
0.0
  0
LINE
  5
1C2
330
70
100
AcDbEntity
  8
Livello 1
370
     9
100
AcDbLine
 10
10.26558875907015
 20
-16.49328089720537
 30
0.0
 11
10.26558875907015
 21
-16.49063511748509
 31
0.0
  0
LINE
  5
1C3
330
70
100
AcDbEntity
  8
Livello 1
370
     9
100
AcDbLine
 10
7.365944684679128
 20
-16.48799865389056
 30
0.0
 11
7.234942458069602
 21
-16.48799865389056
 31
0.0
  0
LINE
  5
1C4
330
70
100
AcDbEntity
  8
Livello 1
370
     9
100
AcDbLine
 10
7.231662051142512
 20
-16.48799865389056
 30
0.0
 11
7.209461723980192
 21
-16.48799865389056
 31
0.0
  0
SPLINE
  5
1C5
330
70
100
AcDbEntity
  8
Livello 1
370
     9
100
AcDbSpline
210
0.0
220
0.0
230
1.0
 70
     8
 71
     3
 72
     8
 73
     4
 74
     0
 42
0.000000001
 43
0.0000000001
 40
0.0
 40
0.0
 40
0.0
 40
0.0
 40
1.0
 40
1.0
 40
1.0
 40
1.0
 10
14.60195639814714
 20
-16.49063511748509
 30
0.0
 10
14.60195639814714
 20
-16.48990845967456
 30
0.0
 10
14.60250736641121
 20
-16.48927496312191
 30
0.0
 10
14.60413637152355
 20
-16.48881847295886
 30
0.0
  0
LINE
  5
1C6
330
70
100
AcDbEntity
  8
Livello 1
370
     9
100
AcDbLine
 10
14.77281414055463
 20
-16.48881847295886
 30
0.0
 11
14.80120037507568
 21
-16.48881847295886
 31
0.0
  0
SPLINE
  5
1C7
330
70
100
AcDbEntity
  8
Livello 1
370
     9
100
AcDbSpline
210
0.0
220
0.0
230
1.0
 70
    24
 71
     3
 72
    20
 73
    16
 74
     0
 42
0.000000001
 43
0.0000000001
 40
0.0
 40
0.0
 40
0.0
 40
0.0
 40
1.0
 40
1.0
 40
1.0
 40
2.0
 40
2.0
 40
2.0
 40
3.0
 40
3.0
 40
3.0
 40
4.0
 40
4.0
 40
4.0
 40
5.0
 40
5.0
 40
5.0
 40
5.0
 10
7.391237965520811
 20
-16.48799865389056
 30
0.0
 10
7.391787616927678
 20
-16.48799865389056
 30
0.0
 10
7.392514274719856
 20
-16.48799865389056
 30
0.0
 10
7.39324093251194
 20
-16.48799865389056
 30
0.0
 10
7.394330919200142
 20
-16.48799865389056
 30
0.0
 10
7.391964623312925
 20
-16.48799865389056
 30
0.0
 10
7.391601294416867
 20
-16.48799865389056
 30
0.0
 10
7.390335436005861
 20
-16.48799865389056
 30
0.0
 10
7.389057992144403
 20
-16.48799865389056
 30
0.0
 10
7.387781682945389
 20
-16.48799865389056
 30
0.0
 10
7.385415387058173
 20
-16.48799865389056
 30
0.0
 10
7.383049091170953
 20
-16.48799865389056
 30
0.0
 10
7.380505788898457
 20
-16.48799865389056
 30
0.0
 10
7.375596190738776
 20
-16.48799865389056
 30
0.0
 10
7.370864733134891
 20
-16.48799865389056
 30
0.0
 10
7.365944684679128
 20
-16.48799865389056
 30
0.0
  0
SPLINE
  5
1C8
330
70
100
AcDbEntity
  8
Livello 1
370
     9
100
AcDbSpline
210
0.0
220
0.0
230
1.0
 70
     8
 71
     3
 72
     8
 73
     4
 74
     0
 42
0.000000001
 43
0.0000000001
 40
0.0
 40
0.0
 40
0.0
 40
0.0
 40
1.0
 40
1.0
 40
1.0
 40
1.0
 10
14.76826787129104
 20
-16.48799865389056
 30
0.0
 10
14.76989819326053
 20
-16.48799865389056
 30
0.0
 10
14.7708111735635
 20
-16.4883619827958
 30
0.0
 10
14.77190116025167
 20
-16.48881847295886
 30
0.0
  0
SPLINE
  5
1C9
330
70
100
AcDbEntity
  8
Livello 1
370
     9
100
AcDbSpline
210
0.0
220
0.0
230
1.0
 70
     8
 71
     3
 72
     8
 73
     4
 74
     0
 42
0.000000001
 43
0.0000000001
 40
0.0
 40
0.0
 40
0.0
 40
0.0
 40
1.0
 40
1.0
 40
1.0
 40
1.0
 10
14.80120037507568
 20
-16.48881847295886
 30
0.0
 10
14.80284001317068
 20
-16.48927496312191
 30
0.0
 10
14.80356667096286
 20
-16.48990845967456
 30
0.0
 10
14.80356667096286
 20
-16.49063511748509
 30
0.0
  0
LINE
  5
1CA
330
70
100
AcDbEntity
  8
Livello 1
370
     9
100
AcDbLine
 10
6.030394243359865
 20
-16.48799865389056
 30
0.0
 11
5.939049632438094
 21
-16.48799865389056
 31
0.0
  0
LINE
  5
1CB
330
70
100
AcDbEntity
  8
Livello 1
370
     9
100
AcDbLine
 10
5.929593765014757
 20
-16.49063511748509
 30
0.0
 11
5.929593765014757
 21
-16.49328089720537
 31
0.0
  0
LINE
  5
1CC
330
70
100
AcDbEntity
  8
Livello 1
370
     9
100
AcDbLine
 10
6.131194721704941
 20
-16.49063511748509
 30
0.0
 11
6.131194721704941
 21
-16.49328089720537
 31
0.0
  0
SPLINE
  5
1CD
330
70
100
AcDbEntity
  8
Livello 1
370
     9
100
AcDbSpline
210
0.0
220
0.0
230
1.0
 70
    24
 71
     3
 72
    20
 73
    16
 74
     0
 42
0.000000001
 43
0.0000000001
 40
0.0
 40
0.0
 40
0.0
 40
0.0
 40
1.0
 40
1.0
 40
1.0
 40
2.0
 40
2.0
 40
2.0
 40
3.0
 40
3.0
 40
3.0
 40
4.0
 40
4.0
 40
4.0
 40
5.0
 40
5.0
 40
5.0
 40
5.0
 10
6.121552531770826
 20
-16.48799865389056
 30
0.0
 10
6.121738854281637
 20
-16.48799865389056
 30
0.0
 10
6.12282884096984
 20
-16.48799865389056
 30
0.0
 10
6.122279189562974
 20
-16.48799865389056
 30
0.0
 10
6.119009229498362
 20
-16.48799865389056
 30
0.0
 10
6.115916275818999
 20
-16.48799865389056
 30
0.0
 10
6.113001430919138
 20
-16.48799865389056
 30
0.0
 10
6.108995496835652
 20
-16.48799865389056
 30
0.0
 10
6.104997776685867
 20
-16.48799865389056
 30
0.0
 10
6.101178165214389
 20
-16.48799865389056
 30
0.0
 10
6.093166297249813
 20
-16.48799865389056
 30
0.0
 10
6.085340751796045
 20
-16.48799865389056
 30
0.0
 10
6.077524522467777
 20
-16.48799865389056
 30
0.0
 10
6.061687109049433
 20
-16.48799865389056
 30
0.0
 10
6.045859011756621
 20
-16.48799865389056
 30
0.0
 10
6.030394243359865
 20
-16.48799865389056
 30
0.0
  0
LINE
  5
1CE
330
70
100
AcDbEntity
  8
Livello 1
370
     9
100
AcDbLine
 10
6.100451507422244
 20
-16.48881847295886
 30
0.0
 11
6.128828425817727
 21
-16.48881847295886
 31
0.0
  0
SPLINE
  5
1CF
330
70
100
AcDbEntity
  8
Livello 1
370
     9
100
AcDbSpline
210
0.0
220
0.0
230
1.0
 70
     8
 71
     3
 72
     8
 73
     4
 74
     0
 42
0.000000001
 43
0.0000000001
 40
0.0
 40
0.0
 40
0.0
 40
0.0
 40
1.0
 40
1.0
 40
1.0
 40
1.0
 10
6.095895922033118
 20
-16.48799865389056
 30
0.0
 10
6.097536662131746
 20
-16.48799865389056
 30
0.0
 10
6.098625546816362
 20
-16.4883619827958
 30
0.0
 10
6.099352204608508
 20
-16.48881847295886
 30
0.0
  0
SPLINE
  5
1D0
330
70
100
AcDbEntity
  8
Livello 1
370
     9
100
AcDbSpline
210
0.0
220
0.0
230
1.0
 70
    24
 71
     3
 72
    20
 73
    16
 74
     0
 42
0.000000001
 43
0.0000000001
 40
0.0
 40
0.0
 40
0.0
 40
0.0
 40
1.0
 40
1.0
 40
1.0
 40
2.0
 40
2.0
 40
2.0
 40
3.0
 40
3.0
 40
3.0
 40
4.0
 40
4.0
 40
4.0
 40
5.0
 40
5.0
 40
5.0
 40
5.0
 10
14.79392448102871
 20
-16.48799865389056
 30
0.0
 10
14.79410148741399
 20
-16.48799865389056
 30
0.0
 10
14.79519147410216
 20
-16.48799865389056
 30
0.0
 10
14.79465113882089
 20
-16.48799865389056
 30
0.0
 10
14.79155818514153
 20
-16.48799865389056
 30
0.0
 10
14.78827890895139
 20
-16.48799865389056
 30
0.0
 10
14.78518595527202
 20
-16.48799865389056
 30
0.0
 10
14.78136634380054
 20
-16.48799865389056
 30
0.0
 10
14.77736040981822
 20
-16.48799865389056
 30
0.0
 10
14.77354079834675
 20
-16.48799865389056
 30
0.0
 10
14.76553956748345
 20
-16.48799865389056
 30
0.0
 10
14.75771402183207
 20
-16.48799865389056
 30
0.0
 10
14.7498884761805
 20
-16.48799865389056
 30
0.0
 10
14.73405905830739
 20
-16.48799865389056
 30
0.0
 10
14.71823096101451
 20
-16.48799865389056
 30
0.0
 10
14.70275687649219
 20
-16.48799865389056
 30
0.0
  0
SPLINE
  5
1D1
330
70
100
AcDbEntity
  8
Livello 1
370
     9
100
AcDbSpline
210
0.0
220
0.0
230
1.0
 70
     8
 71
     3
 72
     8
 73
     4
 74
     0
 42
0.000000001
 43
0.0000000001
 40
0.0
 40
0.0
 40
0.0
 40
0.0
 40
1.0
 40
1.0
 40
1.0
 40
1.0
 10
6.128828425817727
 20
-16.48881847295886
 30
0.0
 10
6.13046806391283
 20
-16.48927496312191
 30
0.0
 10
6.131194721704941
 20
-16.48990845967456
 30
0.0
 10
6.131194721704941
 20
-16.49063511748509
 30
0.0
  0
SPLINE
  5
1D2
330
70
100
AcDbEntity
  8
Livello 1
370
     9
100
AcDbSpline
210
0.0
220
0.0
230
1.0
 70
     8
 71
     3
 72
     8
 73
     4
 74
     0
 42
0.000000001
 43
0.0000000001
 40
0.0
 40
0.0
 40
0.0
 40
0.0
 40
1.0
 40
1.0
 40
1.0
 40
1.0
 10
5.960159972912211
 20
-16.48881847295886
 30
0.0
 10
5.961072953215134
 20
-16.48827813766392
 30
0.0
 10
5.962339946288616
 20
-16.48799865389056
 30
0.0
 10
5.9641659068945
 20
-16.48799865389056
 30
0.0
  0
LINE
  5
1D3
330
70
100
AcDbEntity
  8
Livello 1
370
     9
100
AcDbLine
 10
14.70275687649219
 20
-16.48799865389056
 30
0.0
 11
14.61142158169601
 21
-16.48799865389056
 31
0.0
  0
SPLINE
  5
1D4
330
70
100
AcDbEntity
  8
Livello 1
370
     9
100
AcDbSpline
210
0.0
220
0.0
230
1.0
 70
    24
 71
     3
 72
    17
 73
    13
 74
     0
 42
0.000000001
 43
0.0000000001
 40
0.0
 40
0.0
 40
0.0
 40
0.0
 40
1.0
 40
1.0
 40
1.0
 40
2.0
 40
2.0
 40
2.0
 40
3.0
 40
3.0
 40
3.0
 40
4.0
 40
4.0
 40
4.0
 40
4.0
 10
5.931773738391162
 20
-16.48881847295886
 30
0.0
 10
5.929593765014757
 20
-16.48881847295886
 30
0.0
 10
5.934140034278382
 20
-16.48881847295886
 30
0.0
 10
5.935416343477394
 20
-16.48881847295886
 30
0.0
 10
5.936506330165598
 20
-16.48881847295886
 30
0.0
 10
5.937782639364613
 20
-16.48881847295886
 30
0.0
 10
5.938872626052847
 20
-16.48881847295886
 30
0.0
 10
5.941238921940034
 20
-16.48881847295886
 30
0.0
 10
5.943605217827252
 20
-16.48881847295886
 30
0.0
 10
5.945963295763379
 20
-16.48881847295886
 30
0.0
 10
5.950517782978093
 20
-16.48881847295886
 30
0.0
 10
5.955427381137774
 20
-16.48881847295886
 30
0.0
 10
5.960159972912211
 20
-16.48881847295886
 30
0.0
  0
SPLINE
  5
1D5
330
70
100
AcDbEntity
  8
Livello 1
370
     9
100
AcDbSpline
210
0.0
220
0.0
230
1.0
 70
     8
 71
     3
 72
     8
 73
     4
 74
     0
 42
0.000000001
 43
0.0000000001
 40
0.0
 40
0.0
 40
0.0
 40
0.0
 40
1.0
 40
1.0
 40
1.0
 40
1.0
 10
5.929593765014757
 20
-16.49063511748509
 30
0.0
 10
5.929593765014757
 20
-16.48990845967456
 30
0.0
 10
5.930134100296093
 20
-16.48927496312191
 30
0.0
 10
5.931773738391162
 20
-16.48881847295886
 30
0.0
  0
SPLINE
  5
1D6
330
70
100
AcDbEntity
  8
Livello 1
370
     9
100
AcDbSpline
210
0.0
220
0.0
230
1.0
 70
    24
 71
     3
 72
    20
 73
    16
 74
     0
 42
0.000000001
 43
0.0000000001
 40
0.0
 40
0.0
 40
0.0
 40
0.0
 40
1.0
 40
1.0
 40
1.0
 40
2.0
 40
2.0
 40
2.0
 40
3.0
 40
3.0
 40
3.0
 40
4.0
 40
4.0
 40
4.0
 40
5.0
 40
5.0
 40
5.0
 40
5.0
 10
13.52350307336105
 20
-16.48799865389056
 30
0.0
 10
13.52405272476795
 20
-16.48799865389056
 30
0.0
 10
13.52477938256007
 20
-16.48799865389056
 30
0.0
 10
13.52550604035224
 20
-16.48799865389056
 30
0.0
 10
13.52623269814442
 20
-16.48799865389056
 30
0.0
 10
13.52441605366407
 20
-16.48799865389056
 30
0.0
 10
13.52405272476795
 20
-16.48799865389056
 30
0.0
 10
13.52314103405515
 20
-16.48799865389056
 30
0.0
 10
13.52204975777682
 20
-16.48799865389056
 30
0.0
 10
13.52095977108859
 20
-16.48799865389056
 30
0.0
 10
13.51877979771225
 20
-16.48799865389056
 30
0.0
 10
13.51659050821027
 20
-16.48799865389056
 30
0.0
 10
13.51441053483387
 20
-16.48799865389056
 30
0.0
 10
13.51004127195549
 20
-16.48799865389056
 30
0.0
 10
13.5054950026919
 20
-16.48799865389056
 30
0.0
 10
13.5013120623243
 20
-16.48799865389056
 30
0.0
  0
LINE
  5
1D7
330
70
100
AcDbEntity
  8
Livello 1
370
     9
100
AcDbLine
 10
13.49821910864493
 20
-16.48799865389056
 30
0.0
 11
13.36702942878771
 21
-16.48799865389056
 31
0.0
  0
LINE
  5
1D8
330
70
100
AcDbEntity
  8
Livello 1
370
     9
100
AcDbLine
 10
7.19945620515002
 20
-16.49063511748509
 30
0.0
 11
7.19945620515002
 21
-16.49328089720537
 31
0.0
  0
LINE
  5
1D9
330
70
100
AcDbEntity
  8
Livello 1
370
     9
100
AcDbLine
 10
7.401243484350985
 20
-16.49063511748509
 30
0.0
 11
7.401243484350985
 21
-16.49328089720537
 31
0.0
  0
LINE
  5
1DA
330
70
100
AcDbEntity
  8
Livello 1
370
     9
100
AcDbLine
 10
13.36266016590934
 20
-16.48799865389056
 30
0.0
 11
13.34173614794603
 21
-16.48799865389056
 31
0.0
  0
SPLINE
  5
1DB
330
70
100
AcDbEntity
  8
Livello 1
370
     9
100
AcDbSpline
210
0.0
220
0.0
230
1.0
 70
     8
 71
     3
 72
     8
 73
     4
 74
     0
 42
0.000000001
 43
0.0000000001
 40
0.0
 40
0.0
 40
0.0
 40
0.0
 40
1.0
 40
1.0
 40
1.0
 40
1.0
 10
7.398886504589332
 20
-16.48881847295886
 30
0.0
 10
7.400516826558837
 20
-16.48927496312191
 30
0.0
 10
7.401243484350985
 20
-16.48990845967456
 30
0.0
 10
7.401243484350985
 20
-16.49063511748509
 30
0.0
  0
LINE
  5
1DC
330
70
100
AcDbEntity
  8
Livello 1
370
     9
100
AcDbLine
 10
7.370136941172227
 20
-16.48881847295886
 30
0.0
 11
7.396697215087391
 21
-16.48881847295886
 31
0.0
  0
SPLINE
  5
1DD
330
70
100
AcDbEntity
  8
Livello 1
370
     9
100
AcDbSpline
210
0.0
220
0.0
230
1.0
 70
     8
 71
     3
 72
     8
 73
     4
 74
     0
 42
0.000000001
 43
0.0000000001
 40
0.0
 40
0.0
 40
0.0
 40
0.0
 40
1.0
 40
1.0
 40
1.0
 40
1.0
 10
15.06575970816659
 20
-16.49328089720537
 30
0.0
 10
15.07158228662919
 20
-16.49328089720537
 30
0.0
 10
15.07377157613117
 20
-16.4941007162736
 30
0.0
 10
15.07377157613117
 20
-16.49591736079983
 30
0.0
  0
LINE
  5
1DE
330
70
100
AcDbEntity
  8
Livello 1
370
     9
100
AcDbLine
 10
10.26795505495737
 20
-16.48881847295886
 30
0.0
 11
10.29616428309311
 21
-16.48881847295886
 31
0.0
  0
SPLINE
  5
1DF
330
70
100
AcDbEntity
  8
Livello 1
370
     9
100
AcDbSpline
210
0.0
220
0.0
230
1.0
 70
     8
 71
     3
 72
     8
 73
     4
 74
     0
 42
0.000000001
 43
0.0000000001
 40
0.0
 40
0.0
 40
0.0
 40
0.0
 40
1.0
 40
1.0
 40
1.0
 40
1.0
 10
10.43207723859926
 20
-16.48799865389056
 30
0.0
 10
10.4337168766944
 20
-16.48799865389056
 30
0.0
 10
10.43444353448651
 20
-16.48827813766392
 30
0.0
 10
10.43554283730018
 20
-16.48872531170116
 30
0.0
  0
LINE
  5
1E0
330
70
100
AcDbEntity
  8
Livello 1
370
     9
100
AcDbLine
 10
10.43554283730018
 20
-16.48881847295886
 30
0.0
 11
10.46501905850947
 21
-16.48881847295886
 31
0.0
  0
SPLINE
  5
1E1
330
70
100
AcDbEntity
  8
Livello 1
370
     9
100
AcDbSpline
210
0.0
220
0.0
230
1.0
 70
     8
 71
     3
 72
     8
 73
     4
 74
     0
 42
0.000000001
 43
0.0000000001
 40
0.0
 40
0.0
 40
0.0
 40
0.0
 40
1.0
 40
1.0
 40
1.0
 40
1.0
 10
10.29616428309311
 20
-16.48872531170116
 30
0.0
 10
10.29743248426851
 20
-16.48818497640615
 30
0.0
 10
10.29853057898033
 20
-16.48799865389056
 30
0.0
 10
10.30034722346067
 20
-16.48799865389056
 30
0.0
  0
SPLINE
  5
1E2
330
70
100
AcDbEntity
  8
Livello 1
370
     9
100
AcDbSpline
210
0.0
220
0.0
230
1.0
 70
     8
 71
     3
 72
     8
 73
     4
 74
     0
 42
0.000000001
 43
0.0000000001
 40
0.0
 40
0.0
 40
0.0
 40
0.0
 40
1.0
 40
1.0
 40
1.0
 40
1.0
 10
7.19945620515002
 20
-16.49063511748509
 30
0.0
 10
7.19945620515002
 20
-16.48990845967456
 30
0.0
 10
7.200182862942134
 20
-16.48927496312191
 30
0.0
 10
7.201822501037205
 20
-16.48881847295886
 30
0.0
  0
SPLINE
  5
1E3
330
70
100
AcDbEntity
  8
Livello 1
370
     9
100
AcDbSpline
210
0.0
220
0.0
230
1.0
 70
    24
 71
     3
 72
    17
 73
    13
 74
     0
 42
0.000000001
 43
0.0000000001
 40
0.0
 40
0.0
 40
0.0
 40
0.0
 40
1.0
 40
1.0
 40
1.0
 40
2.0
 40
2.0
 40
2.0
 40
3.0
 40
3.0
 40
3.0
 40
4.0
 40
4.0
 40
4.0
 40
4.0
 10
7.201822501037205
 20
-16.48881847295886
 30
0.0
 10
7.19945620515002
 20
-16.48881847295886
 30
0.0
 10
7.204188796924422
 20
-16.48881847295886
 30
0.0
 10
7.205278783612625
 20
-16.48881847295886
 30
0.0
 10
7.206555092811639
 20
-16.48881847295886
 30
0.0
 10
7.207832532062587
 20
-16.48881847295886
 30
0.0
 10
7.208921388698857
 20
-16.48881847295886
 30
0.0
 10
7.211101362075264
 20
-16.48881847295886
 30
0.0
 10
7.213467657962482
 20
-16.48881847295886
 30
0.0
 10
7.216020276360509
 20
-16.48881847295886
 30
0.0
 10
7.220566545624102
 20
-16.48881847295886
 30
0.0
 10
7.225476143783816
 20
-16.48881847295886
 30
0.0
 10
7.23020873555825
 20
-16.48881847295886
 30
0.0
  0
SPLINE
  5
1E4
330
70
100
AcDbEntity
  8
Livello 1
370
     9
100
AcDbSpline
210
0.0
220
0.0
230
1.0
 70
     8
 71
     3
 72
     8
 73
     4
 74
     0
 42
0.000000001
 43
0.0000000001
 40
0.0
 40
0.0
 40
0.0
 40
0.0
 40
1.0
 40
1.0
 40
1.0
 40
1.0
 10
7.230572064454309
 20
-16.48864146656915
 30
0.0
 10
7.231485044757233
 20
-16.48818497640615
 30
0.0
 10
7.232575031445438
 20
-16.48799865389056
 30
0.0
 10
7.234028347029728
 20
-16.48799865389056
 30
0.0
  0
LINE
  5
1E5
330
70
100
AcDbEntity
  8
Livello 1
370
     9
100
AcDbLine
 10
13.53351790831682
 20
-16.49063511748509
 30
0.0
 11
13.53351790831682
 21
-16.49328089720537
 31
0.0
  0
LINE
  5
1E6
330
70
100
AcDbEntity
  8
Livello 1
370
     9
100
AcDbLine
 10
13.36120685032511
 20
-16.49063511748509
 30
0.0
 11
13.33391060249223
 21
-16.49063511748509
 31
0.0
  0
SPLINE
  5
1E7
330
70
100
AcDbEntity
  8
Livello 1
370
     9
100
AcDbSpline
210
0.0
220
0.0
230
1.0
 70
    24
 71
     3
 72
    23
 73
    19
 74
     0
 42
0.000000001
 43
0.0000000001
 40
0.0
 40
0.0
 40
0.0
 40
0.0
 40
1.0
 40
1.0
 40
1.0
 40
2.0
 40
2.0
 40
2.0
 40
3.0
 40
3.0
 40
3.0
 40
4.0
 40
4.0
 40
4.0
 40
5.0
 40
5.0
 40
5.0
 40
6.0
 40
6.0
 40
6.0
 40
6.0
 10
13.53132861881491
 20
-16.49063511748509
 30
0.0
 10
13.53205527660703
 20
-16.49063511748509
 30
0.0
 10
13.53497251379017
 20
-16.49063511748509
 30
0.0
 10
13.53351790831682
 20
-16.49063511748509
 30
0.0
 10
13.53260492801393
 20
-16.49063511748509
 30
0.0
 10
13.53187827022175
 20
-16.49063511748509
 30
0.0
 10
13.53096657970653
 20
-16.49063511748509
 30
0.0
 10
13.52532903396697
 20
-16.49063511748509
 30
0.0
 10
13.51968346188958
 20
-16.49063511748509
 30
0.0
 10
13.51386088342697
 20
-16.49063511748509
 30
0.0
 10
13.50658498938007
 20
-16.49063511748509
 30
0.0
 10
13.49930909533317
 20
-16.49063511748509
 30
0.0
 10
13.49202517396478
 20
-16.49063511748509
 30
0.0
 10
13.47747209706691
 20
-16.49063511748509
 30
0.0
 10
13.46309731535839
 20
-16.49063511748509
 30
0.0
 10
13.44835920475375
 20
-16.49063511748509
 30
0.0
 10
13.41943263495143
 20
-16.49063511748509
 30
0.0
 10
13.39031974263827
 20
-16.49063511748509
 30
0.0
 10
13.36120685032511
 20
-16.49063511748509
 30
0.0
  0
SPLINE
  5
1E8
330
70
100
AcDbEntity
  8
Livello 1
370
     9
100
AcDbSpline
210
0.0
220
0.0
230
1.0
 70
     8
 71
     3
 72
     8
 73
     4
 74
     0
 42
0.000000001
 43
0.0000000001
 40
0.0
 40
0.0
 40
0.0
 40
0.0
 40
1.0
 40
1.0
 40
1.0
 40
1.0
 10
13.36684310627693
 20
-16.48799865389056
 30
0.0
 10
13.36229683701328
 20
-16.48827813766392
 30
0.0
 10
13.36065719891821
 20
-16.48900479547438
 30
0.0
 10
13.36120685032511
 20
-16.49063511748509
 30
0.0
  0
LINE
  5
1E9
330
70
100
AcDbEntity
  8
Livello 1
370
     9
100
AcDbLine
 10
14.70275687649219
 20
-16.49328089720537
 30
0.0
 11
14.70275687649219
 21
-16.49063511748509
 31
0.0
  0
LINE
  5
1EA
330
70
100
AcDbEntity
  8
Livello 1
370
     9
100
AcDbLine
 10
14.70275687649219
 20
-16.49063511748509
 30
0.0
 11
14.60340971373137
 21
-16.49063511748509
 31
0.0
  0
SPLINE
  5
1EB
330
70
100
AcDbEntity
  8
Livello 1
370
     9
100
AcDbSpline
210
0.0
220
0.0
230
1.0
 70
    24
 71
     3
 72
    11
 73
     7
 74
     0
 42
0.000000001
 43
0.0000000001
 40
0.0
 40
0.0
 40
0.0
 40
0.0
 40
1.0
 40
1.0
 40
1.0
 40
2.0
 40
2.0
 40
2.0
 40
2.0
 10
14.80192703286779
 20
-16.49063511748509
 30
0.0
 10
14.80301701955603
 20
-16.49063511748509
 30
0.0
 10
14.80356667096286
 20
-16.49063511748509
 30
0.0
 10
14.80356667096286
 20
-16.49063511748509
 30
0.0
 10
14.80356667096286
 20
-16.49063511748509
 30
0.0
 10
14.76171995591552
 20
-16.49063511748509
 30
0.0
 10
14.70275687649219
 20
-16.49063511748509
 30
0.0
  0
LINE
  5
1EC
330
70
100
AcDbEntity
  8
Livello 1
370
     9
100
AcDbLine
 10
14.70275687649219
 20
-16.48799865389056
 30
0.0
 11
14.70275687649219
 21
-16.49063511748509
 31
0.0
  0
LINE
  5
1ED
330
70
100
AcDbEntity
  8
Livello 1
370
     9
100
AcDbLine
 10
6.030394243359865
 20
-16.49063511748509
 30
0.0
 11
6.030394243359865
 21
-16.49328089720537
 31
0.0
  0
SPLINE
  5
1EE
330
70
100
AcDbEntity
  8
Livello 1
370
     9
100
AcDbSpline
210
0.0
220
0.0
230
1.0
 70
    24
 71
     3
 72
    20
 73
    16
 74
     0
 42
0.000000001
 43
0.0000000001
 40
0.0
 40
0.0
 40
0.0
 40
0.0
 40
1.0
 40
1.0
 40
1.0
 40
2.0
 40
2.0
 40
2.0
 40
3.0
 40
3.0
 40
3.0
 40
4.0
 40
4.0
 40
4.0
 40
5.0
 40
5.0
 40
5.0
 40
5.0
 10
6.129564399735405
 20
-16.49063511748509
 30
0.0
 10
6.129741406120682
 20
-16.49063511748509
 30
0.0
 10
6.130831392808888
 20
-16.49063511748509
 30
0.0
 10
6.13029105752755
 20
-16.49063511748509
 30
0.0
 10
6.12683477495213
 20
-16.49063511748509
 30
0.0
 10
6.123369176251175
 20
-16.49063511748509
 30
0.0
 10
6.120099216186598
 20
-16.49063511748509
 30
0.0
 10
6.115729953308187
 20
-16.49063511748509
 30
0.0
 10
6.111547012940651
 20
-16.49063511748509
 30
0.0
 10
6.107177750062274
 20
-16.49063511748509
 30
0.0
 10
6.098811869327173
 20
-16.49063511748509
 30
0.0
 10
6.090259666081259
 20
-16.49063511748509
 30
0.0
 10
6.081521140324535
 20
-16.49063511748509
 30
0.0
 10
6.06460305634352
 20
-16.49063511748509
 30
0.0
 10
6.047312327340883
 20
-16.49063511748509
 30
0.0
 10
6.030394243359865
 20
-16.49063511748509
 30
0.0
  0
LINE
  5
1EF
330
70
100
AcDbEntity
  8
Livello 1
370
     9
100
AcDbLine
 10
6.030394243359865
 20
-16.49063511748509
 30
0.0
 11
6.030394243359865
 21
-16.48799865389056
 31
0.0
  0
LINE
  5
1F0
330
70
100
AcDbEntity
  8
Livello 1
370
     9
100
AcDbLine
 10
6.030394243359865
 20
-16.49063511748509
 30
0.0
 11
5.931047080599049
 21
-16.49063511748509
 31
0.0
  0
LINE
  5
1F1
330
70
100
AcDbEntity
  8
Livello 1
370
     9
100
AcDbLine
 10
7.371590256756486
 20
-16.49063511748509
 30
0.0
 11
7.371590256756486
 21
-16.49328089720537
 31
0.0
  0
SPLINE
  5
1F2
330
70
100
AcDbEntity
  8
Livello 1
370
     9
100
AcDbSpline
210
0.0
220
0.0
230
1.0
 70
    24
 71
     3
 72
    20
 73
    16
 74
     0
 42
0.000000001
 43
0.0000000001
 40
0.0
 40
0.0
 40
0.0
 40
0.0
 40
1.0
 40
1.0
 40
1.0
 40
2.0
 40
2.0
 40
2.0
 40
3.0
 40
3.0
 40
3.0
 40
4.0
 40
4.0
 40
4.0
 40
5.0
 40
5.0
 40
5.0
 40
5.0
 10
7.399063510974577
 20
-16.49063511748509
 30
0.0
 10
7.399790168766723
 20
-16.49063511748509
 30
0.0
 10
7.400516826558837
 20
-16.49063511748509
 30
0.0
 10
7.401243484350985
 20
-16.49063511748509
 30
0.0
 10
7.402342787164752
 20
-16.49063511748509
 30
0.0
 10
7.399976491277534
 20
-16.49063511748509
 30
0.0
 10
7.399426839870635
 20
-16.49063511748509
 30
0.0
 10
7.398150530671652
 20
-16.49063511748509
 30
0.0
 10
7.396883537598171
 20
-16.49063511748509
 30
0.0
 10
7.395420905888346
 20
-16.49063511748509
 30
0.0
 10
7.392877603615882
 20
-16.49063511748509
 30
0.0
 10
7.390149113490302
 20
-16.49063511748509
 30
0.0
 10
7.38760467656011
 20
-16.49063511748509
 30
0.0
 10
7.382323567838763
 20
-16.49063511748509
 30
0.0
 10
7.37704950632307
 20
-16.49063511748509
 30
0.0
 10
7.371590256756486
 20
-16.49063511748509
 30
0.0
  0
SPLINE
  5
1F3
330
70
100
AcDbEntity
  8
Livello 1
370
     9
100
AcDbSpline
210
0.0
220
0.0
230
1.0
 70
     8
 71
     3
 72
     8
 73
     4
 74
     0
 42
0.000000001
 43
0.0000000001
 40
0.0
 40
0.0
 40
0.0
 40
0.0
 40
1.0
 40
1.0
 40
1.0
 40
1.0
 10
7.371590256756486
 20
-16.49063511748509
 30
0.0
 10
7.372316914548667
 20
-16.48900479547438
 30
0.0
 10
7.370864733134891
 20
-16.48827813766392
 30
0.0
 10
7.365944684679128
 20
-16.48799865389056
 30
0.0
  0
LINE
  5
1F4
330
70
100
AcDbEntity
  8
Livello 1
370
     9
100
AcDbLine
 10
7.371590256756486
 20
-16.49063511748509
 30
0.0
 11
7.201645494651958
 21
-16.49063511748509
 31
0.0
  0
LINE
  5
1F5
330
70
100
AcDbEntity
  8
Livello 1
370
     9
100
AcDbLine
 10
10.46738535439672
 20
-16.49063511748509
 30
0.0
 11
10.26577508158093
 21
-16.49063511748509
 31
0.0
  0
LINE
  5
1F6
330
70
100
AcDbEntity
  8
Livello 1
370
     9
100
AcDbLine
 10
10.36639855354076
 20
-16.49591736079983
 30
0.0
 11
10.36639855354076
 21
-16.49328089720537
 31
0.0
  0
LINE
  5
1F7
330
70
100
AcDbEntity
  8
Livello 1
370
     9
100
AcDbLine
 10
10.36639855354076
 20
-16.49591736079983
 30
0.0
 11
5.660292524023846
 21
-16.49591736079983
 31
0.0
  0
SPLINE
  5
1F8
330
70
100
AcDbEntity
  8
Livello 1
370
     9
100
AcDbSpline
210
0.0
220
0.0
230
1.0
 70
    24
 71
     3
 72
    26
 73
    22
 74
     0
 42
0.000000001
 43
0.0000000001
 40
0.0
 40
0.0
 40
0.0
 40
0.0
 40
1.0
 40
1.0
 40
1.0
 40
2.0
 40
2.0
 40
2.0
 40
3.0
 40
3.0
 40
3.0
 40
4.0
 40
4.0
 40
4.0
 40
5.0
 40
5.0
 40
5.0
 40
6.0
 40
6.0
 40
6.0
 40
7.0
 40
7.0
 40
7.0
 40
7.0
 10
15.07285859582821
 20
-16.49591736079983
 30
0.0
 10
15.0743119114125
 20
-16.49591736079983
 30
0.0
 10
15.07104195134786
 20
-16.49591736079983
 30
0.0
 10
15.07031529355575
 20
-16.49591736079983
 30
0.0
 10
15.06321640589412
 20
-16.49591736079983
 30
0.0
 10
15.05648217545404
 20
-16.49591736079983
 30
0.0
 10
15.04938195946688
 20
-16.49591736079983
 30
0.0
 10
15.01572279789012
 20
-16.49591736079983
 30
0.0
 10
14.98187731380253
 20
-16.49591736079983
 30
0.0
 10
14.94804247142669
 20
-16.49591736079983
 30
0.0
 10
14.79428780992483
 20
-16.49591736079983
 30
0.0
 10
14.64053447400918
 20
-16.49591736079983
 30
0.0
 10
14.48659481558267
 20
-16.49591736079983
 30
0.0
 10
14.29063011484435
 20
-16.49591736079983
 30
0.0
 10
14.0943020852099
 20
-16.49591736079983
 30
0.0
 10
13.89833738447157
 20
-16.49591736079983
 30
0.0
 10
13.50603533797323
 20
-16.49591736079983
 30
0.0
 10
13.11355628508962
 20
-16.49591736079983
 30
0.0
 10
12.72144987722762
 20
-16.49591736079983
 30
0.0
 10
11.93630544894967
 20
-16.49591736079983
 30
0.0
 10
11.15153489537159
 20
-16.49591736079983
 30
0.0
 10
10.36639855354076
 20
-16.49591736079983
 30
0.0
  0
SPLINE
  5
1F9
330
70
100
AcDbEntity
  8
Livello 1
370
     9
100
AcDbSpline
210
0.0
220
0.0
230
1.0
 70
    24
 71
     3
 72
    26
 73
    22
 74
     0
 42
0.000000001
 43
0.0000000001
 40
0.0
 40
0.0
 40
0.0
 40
0.0
 40
1.0
 40
1.0
 40
1.0
 40
2.0
 40
2.0
 40
2.0
 40
3.0
 40
3.0
 40
3.0
 40
4.0
 40
4.0
 40
4.0
 40
5.0
 40
5.0
 40
5.0
 40
6.0
 40
6.0
 40
6.0
 40
7.0
 40
7.0
 40
7.0
 40
7.0
 10
5.668481398373701
 20
-16.66295549595559
 30
0.0
 10
5.666665845012217
 20
-16.66295549595559
 30
0.0
 10
5.669944030083527
 20
-16.66295549595559
 30
0.0
 10
5.670671779095639
 20
-16.66295549595559
 30
0.0
 10
5.677760259411763
 20
-16.66295549595559
 30
0.0
 10
5.684682140688138
 20
-16.66295549595559
 30
0.0
 10
5.691594705838976
 20
-16.66295549595559
 30
0.0
 10
5.725253867415762
 20
-16.66295549595559
 30
0.0
 10
5.758913028992549
 20
-16.66295549595559
 30
0.0
 10
5.792581506694866
 20
-16.66295549595559
 30
0.0
 10
5.946335940794496
 20
-16.66295549595559
 30
0.0
 10
6.099715533504565
 20
-16.66295549595559
 30
0.0
 10
6.253468869420224
 20
-16.66295549595559
 30
0.0
 10
6.449256563773337
 20
-16.66295549595559
 30
0.0
 10
6.645045373961283
 20
-16.66295549595559
 30
0.0
 10
6.84082263635403
 20
-16.66295549595559
 30
0.0
 10
7.232575031445438
 20
-16.66295549595559
 30
0.0
 10
7.624141104026098
 20
-16.66295549595559
 30
0.0
 10
8.015707176606758
 20
-16.66295549595559
 30
0.0
 10
8.79921313704334
 20
-16.66295549595559
 30
0.0
 10
9.582893763357855
 20
-16.66295549595559
 30
0.0
 10
10.36639855354076
 20
-16.66295549595559
 30
0.0
  0
LINE
  5
1FA
330
70
100
AcDbEntity
  8
Livello 1
370
     9
100
AcDbLine
 10
10.36639855354076
 20
-16.66295549595559
 30
0.0
 11
15.06466972147835
 21
-16.66295549595559
 31
0.0
  0
SPLINE
  5
1FB
330
70
100
AcDbEntity
  8
Livello 1
370
     9
100
AcDbSpline
210
0.0
220
0.0
230
1.0
 70
     8
 71
     3
 72
     8
 73
     4
 74
     0
 42
0.000000001
 43
0.0000000001
 40
0.0
 40
0.0
 40
0.0
 40
0.0
 40
1.0
 40
1.0
 40
1.0
 40
1.0
 10
15.07377157613117
 20
-16.66177234798212
 30
0.0
 10
15.07377157613117
 20
-16.66259216705035
 30
0.0
 10
15.07158228662919
 20
-16.66295549595559
 30
0.0
 10
15.06575970816659
 20
-16.66295549595559
 30
0.0
  0
LINE
  5
1FC
330
70
100
AcDbEntity
  8
Livello 1
370
     9
100
AcDbLine
 10
15.07377157613117
 20
-16.49591736079983
 30
0.0
 11
15.07377157613117
 21
-16.66185619311407
 31
0.0
  0
SPLINE
  5
1FD
330
70
100
AcDbEntity
  8
Livello 1
370
     9
100
AcDbSpline
210
0.0
220
0.0
230
1.0
 70
    24
 71
     3
 72
    26
 73
    22
 74
     0
 42
0.000000001
 43
0.0000000001
 40
0.0
 40
0.0
 40
0.0
 40
0.0
 40
1.0
 40
1.0
 40
1.0
 40
2.0
 40
2.0
 40
2.0
 40
3.0
 40
3.0
 40
3.0
 40
4.0
 40
4.0
 40
4.0
 40
5.0
 40
5.0
 40
5.0
 40
6.0
 40
6.0
 40
6.0
 40
7.0
 40
7.0
 40
7.0
 40
7.0
 10
15.07285859582821
 20
-16.66177234798212
 30
0.0
 10
15.0743119114125
 20
-16.66177234798212
 30
0.0
 10
15.07104195134786
 20
-16.66177234798212
 30
0.0
 10
15.07031529355575
 20
-16.66177234798212
 30
0.0
 10
15.06321640589412
 20
-16.66177234798212
 30
0.0
 10
15.05648217545404
 20
-16.66177234798212
 30
0.0
 10
15.04938195946688
 20
-16.66177234798212
 30
0.0
 10
15.01572279789012
 20
-16.66177234798212
 30
0.0
 10
14.98187731380253
 20
-16.66177234798212
 30
0.0
 10
14.94804247142669
 20
-16.66177234798212
 30
0.0
 10
14.79428780992483
 20
-16.66177234798212
 30
0.0
 10
14.64053447400918
 20
-16.66177234798212
 30
0.0
 10
14.48659481558267
 20
-16.66177234798212
 30
0.0
 10
14.29063011484435
 20
-16.66177234798212
 30
0.0
 10
14.0943020852099
 20
-16.66177234798212
 30
0.0
 10
13.89833738447157
 20
-16.66177234798212
 30
0.0
 10
13.50603533797323
 20
-16.66177234798212
 30
0.0
 10
13.11355628508962
 20
-16.66177234798212
 30
0.0
 10
12.72144987722762
 20
-16.66177234798212
 30
0.0
 10
11.93630544894967
 20
-16.66177234798212
 30
0.0
 10
11.15153489537159
 20
-16.66177234798212
 30
0.0
 10
10.36639855354076
 20
-16.66177234798212
 30
0.0
  0
LINE
  5
1FE
330
70
100
AcDbEntity
  8
Livello 1
370
     9
100
AcDbLine
 10
10.36639855354076
 20
-16.66177234798212
 30
0.0
 11
5.660292524023846
 21
-16.66177234798212
 31
0.0
  0
LINE
  5
1FF
330
70
100
AcDbEntity
  8
Livello 1
370
     9
100
AcDbLine
 10
10.36639855354076
 20
-16.66295549595559
 30
0.0
 11
10.36639855354076
 21
-16.66177234798212
 31
0.0
  0
LINE
  5
200
330
70
100
AcDbEntity
  8
Livello 1
370
     9
100
AcDbLine
 10
13.36120685032511
 20
-16.49328089720537
 30
0.0
 11
13.36120685032511
 21
-16.49063511748509
 31
0.0
  0
LINE
  5
201
330
70
100
AcDbEntity
  8
Livello 1
370
     9
100
AcDbLine
 10
13.18689282534214
 20
-15.96024012870525
 30
0.0
 11
13.19216575239791
 21
-16.35899826027651
 31
0.0
  0
LINE
  5
202
330
70
100
AcDbEntity
  8
Livello 1
370
     9
100
AcDbLine
 10
7.543351663341398
 20
-16.35899826027651
 30
0.0
 11
7.548810912907949
 21
-15.96024012870525
 31
0.0
  0
SPLINE
  5
203
330
70
100
AcDbEntity
  8
Livello 1
370
     9
100
AcDbSpline
210
0.0
220
0.0
230
1.0
 70
    24
 71
     3
 72
    23
 73
    19
 74
     0
 42
0.000000001
 43
0.0000000001
 40
0.0
 40
0.0
 40
0.0
 40
0.0
 40
1.0
 40
1.0
 40
1.0
 40
2.0
 40
2.0
 40
2.0
 40
3.0
 40
3.0
 40
3.0
 40
4.0
 40
4.0
 40
4.0
 40
5.0
 40
5.0
 40
5.0
 40
6.0
 40
6.0
 40
6.0
 40
6.0
 10
13.17251804363362
 20
-15.95050477726988
 30
0.0
 10
13.18088392436875
 20
-15.95050477726988
 30
0.0
 10
13.16414284677292
 20
-15.95050477726988
 30
0.0
 10
13.15995990640544
 20
-15.95050477726988
 30
0.0
 10
13.14394548660179
 20
-15.95050477726988
 30
0.0
 10
13.12830371181975
 20
-15.95050477726988
 30
0.0
 10
13.11210296950532
 20
-15.95050477726988
 30
0.0
 10
13.04387166604879
 20
-15.95050477726988
 30
0.0
 10
12.97564036259227
 20
-15.95050477726988
 30
0.0
 10
12.90722273662496
 20
-15.95050477726988
 30
0.0
 10
12.81879407299731
 20
-15.95050477726988
 30
0.0
 10
12.73000208047353
 20
-15.95050477726988
 30
0.0
 10
12.64156410072031
 20
-15.95050477726988
 30
0.0
 10
12.46415712205804
 20
-15.95050477726988
 30
0.0
 10
12.28712278841739
 20
-15.95050477726988
 30
0.0
 10
12.1098928161404
 20
-15.95050477726988
 30
0.0
 10
11.75544218771198
 20
-15.95050477726988
 30
0.0
 10
11.40081455289821
 20
-15.95050477726988
 30
0.0
 10
11.04636392446979
 20
-15.95050477726988
 30
0.0
  0
LINE
  5
204
330
70
100
AcDbEntity
  8
Livello 1
370
     9
100
AcDbLine
 10
11.04636392446979
 20
-15.95050477726988
 30
0.0
 11
7.563008688231222
 21
-15.95050477726988
 31
0.0
  0
LINE
  5
205
330
70
100
AcDbEntity
  8
Livello 1
370
     9
100
AcDbLine
 10
11.01033846700579
 20
-16.35899826027651
 30
0.0
 11
11.00268992793727
 21
-16.35899826027651
 31
0.0
  0
LINE
  5
206
330
70
100
AcDbEntity
  8
Livello 1
370
     9
100
AcDbLine
 10
10.89898281842364
 20
-16.35899826027651
 30
0.0
 11
10.88860465457187
 21
-16.35899826027651
 31
0.0
  0
LINE
  5
207
330
70
100
AcDbEntity
  8
Livello 1
370
     9
100
AcDbLine
 10
10.86349769624097
 20
-16.35899826027651
 30
0.0
 11
10.84494119609804
 21
-16.35899826027651
 31
0.0
  0
LINE
  5
208
330
70
100
AcDbEntity
  8
Livello 1
370
     9
100
AcDbLine
 10
10.64441968803737
 20
-16.35899826027651
 30
0.0
 11
10.60020657197406
 21
-16.35899826027651
 31
0.0
  0
SPLINE
  5
209
330
70
100
AcDbEntity
  8
Livello 1
370
     9
100
AcDbSpline
210
0.0
220
0.0
230
1.0
 70
     8
 71
     3
 72
     8
 73
     4
 74
     0
 42
0.000000001
 43
0.0000000001
 40
0.0
 40
0.0
 40
0.0
 40
0.0
 40
1.0
 40
1.0
 40
1.0
 40
1.0
 10
13.17288137252967
 20
-15.95050477726988
 30
0.0
 10
13.17779225155526
 20
-15.95205125414864
 30
0.0
 10
13.18179818563871
 20
-15.95405422119034
 30
0.0
 10
13.18525318724706
 20
-15.95687700730033
 30
0.0
  0
SPLINE
  5
20A
330
70
100
AcDbEntity
  8
Livello 1
370
     9
100
AcDbSpline
210
0.0
220
0.0
230
1.0
 70
     8
 71
     3
 72
     8
 73
     4
 74
     0
 42
0.000000001
 43
0.0000000001
 40
0.0
 40
0.0
 40
0.0
 40
0.0
 40
1.0
 40
1.0
 40
1.0
 40
1.0
 10
7.548447584011891
 20
-15.96024012870525
 30
0.0
 10
7.551363531305977
 20
-15.9552373691638
 30
0.0
 10
7.555360149162733
 20
-15.95241458305388
 30
0.0
 10
7.562822365720443
 20
-15.95050477726988
 30
0.0
  0
LINE
  5
20B
330
70
100
AcDbEntity
  8
Livello 1
370
     9
100
AcDbLine
 10
13.13339031636475
 20
-15.93931611021332
 30
0.0
 11
13.13357663887553
 21
-15.95050477726988
 31
0.0
  0
LINE
  5
20C
330
70
100
AcDbEntity
  8
Livello 1
370
     9
100
AcDbLine
 10
7.602127099374588
 20
-15.95050477726988
 30
0.0
 11
7.602304105759802
 21
-15.93931611021332
 31
0.0
  0
LINE
  5
20D
330
70
100
AcDbEntity
  8
Livello 1
370
     9
100
AcDbLine
 10
11.04982020704521
 20
-15.96024012870525
 30
0.0
 11
7.548810912907949
 21
-15.96024012870525
 31
0.0
  0
SPLINE
  5
20E
330
70
100
AcDbEntity
  8
Livello 1
370
     9
100
AcDbSpline
210
0.0
220
0.0
230
1.0
 70
     8
 71
     3
 72
     8
 73
     4
 74
     0
 42
0.000000001
 43
0.0000000001
 40
0.0
 40
0.0
 40
0.0
 40
0.0
 40
1.0
 40
1.0
 40
1.0
 40
1.0
 10
11.04636392446979
 20
-15.95050477726988
 30
0.0
 10
11.04982020704521
 20
-15.95350456976958
 30
0.0
 10
11.05091019373338
 20
-15.95632735587956
 30
0.0
 10
11.04982020704521
 20
-15.96024012870525
 30
0.0
  0
SPLINE
  5
20F
330
70
100
AcDbEntity
  8
Livello 1
370
     9
100
AcDbSpline
210
0.0
220
0.0
230
1.0
 70
    24
 71
     3
 72
    23
 73
    19
 74
     0
 42
0.000000001
 43
0.0000000001
 40
0.0
 40
0.0
 40
0.0
 40
0.0
 40
1.0
 40
1.0
 40
1.0
 40
2.0
 40
2.0
 40
2.0
 40
3.0
 40
3.0
 40
3.0
 40
4.0
 40
4.0
 40
4.0
 40
5.0
 40
5.0
 40
5.0
 40
6.0
 40
6.0
 40
6.0
 40
6.0
 10
13.18689282534214
 20
-15.96024012870525
 30
0.0
 10
13.19525870607727
 20
-15.96024012870525
 30
0.0
 10
13.1785176284815
 20
-15.96024012870525
 30
0.0
 10
13.17433468811396
 20
-15.96024012870525
 30
0.0
 10
13.15832154868425
 20
-15.96024012870525
 30
0.0
 10
13.14230584850672
 20
-15.96024012870525
 30
0.0
 10
13.12647775121391
 20
-15.96024012870525
 30
0.0
 10
13.05769679635048
 20
-15.96024012870525
 30
0.0
 10
12.98892515761262
 20
-15.96024012870525
 30
0.0
 10
12.92032120913453
 20
-15.96024012870525
 30
0.0
 10
12.83135221022548
 20
-15.96024012870525
 30
0.0
 10
12.74237389519092
 20
-15.96024012870525
 30
0.0
 10
12.65320925764559
 20
-15.96024012870525
 30
0.0
 10
12.47507688430498
 20
-15.96024012870525
 30
0.0
 10
12.29676623696079
 20
-15.96024012870525
 30
0.0
 10
12.11863134189715
 20
-15.96024012870525
 30
0.0
 10
11.76235475286282
 20
-15.96024012870525
 30
0.0
 10
11.40608747995398
 20
-15.96024012870525
 30
0.0
 10
11.04982020704521
 20
-15.96024012870525
 30
0.0
  0
LINE
  5
217
330
70
100
AcDbEntity
  8
0
100
AcDbLine
 10
5.668481398373701
 20
-16.66295549595559
 30
0.0
 11
5.660292524023846
 21
-16.49591736079983
 31
0.0
  0
LINE
  5
21A
330
70
100
AcDbEntity
  8
0
100
AcDbLine
 10
5.660292524023846
 20
-17.45954886648099
 30
0.0
 11
15.06466972147835
 21
-17.45954886648099
 31
0.0
  0
LINE
  5
21B
330
70
100
AcDbEntity
  8
0
100
AcDbLine
 10
15.33036609956121
 20
-16.66295549595559
 30
0.0
 11
15.33036609956121
 21
-9.780436177229946
 31
0.0
  0
LINE
  5
21C
330
70
100
AcDbEntity
  8
0
100
AcDbLine
 10
5.471677800266911
 20
-16.49591736079983
 30
0.0
 11
5.471677800266911
 21
-16.66295549595559
 31
0.0
  0
MTEXT
  5
21E
330
70
100
AcDbEntity
  8
0
100
AcDbMText
 10
10.23412749391345
 20
-17.80722768562225
 30
0.0
 40
0.2
 41
1.881447660735744
 46
0.0
 71
     1
 72
     5
  1
600
 73
     1
 44
1.0
1001
ACAD
1000
ACAD_MTEXT_COLUMN_INFO_BEGIN
1070
    75
1070
     2
1070
    79
1070
     0
1070
    76
1070
     1
1070
    78
1070
     0
1070
    48
1040
1.881447660735744
1070
    49
1040
1.0
1070
    50
1070
     1
1040
0.0
1000
ACAD_MTEXT_COLUMN_INFO_END
  0
MTEXT
  5
227
330
70
100
AcDbEntity
  8
0
100
AcDbMText
 10
15.61989875669996
 20
-13.33658011033626
 30
0.0
 40
0.2
 41
1.881447660735744
 46
0.0
 71
     1
 72
     5
  1
1.313
 73
     1
 44
1.0
1001
ACAD
1000
ACAD_MTEXT_COLUMN_INFO_BEGIN
1070
    75
1070
     2
1070
    79
1070
     0
1070
    76
1070
     1
1070
    78
1070
     0
1070
    48
1040
1.881447660735744
1070
    49
1040
1.0
1070
    50
1070
     1
1040
0.0
1000
ACAD_MTEXT_COLUMN_INFO_END
  0
MTEXT
  5
22F
330
70
100
AcDbEntity
  8
0
100
AcDbMText
 10
5.132559485645481
 20
-16.46463932467025
 30
0.0
 40
0.2
 41
1.881447660735744
 46
0.0
 71
     1
 72
     5
  1
45
 73
     1
 44
1.0
1001
ACAD
1000
ACAD_MTEXT_COLUMN_INFO_BEGIN
1070
    75
1070
     2
1070
    79
1070
     0
1070
    76
1070
     1
1070
    78
1070
     0
1070
    48
1040
1.881447660735744
1070
    49
1040
1.0
1070
    50
1070
     1
1040
0.0
1000
ACAD_MTEXT_COLUMN_INFO_END
  0
ENDSEC
  0
SECTION
  2
OBJECTS
  0
DICTIONARY
  5
C
330
0
100
AcDbDictionary
281
     1
  3
ACAD_CIP_PREVIOUS_PRODUCT_INFO
350
191
  3
ACAD_COLOR
350
63
  3
ACAD_DETAILVIEWSTYLE
350
6A
  3
ACAD_GROUP
350
D
  3
ACAD_LAYOUT
350
62
  3
ACAD_MATERIAL
350
10
  3
ACAD_MLEADERSTYLE
350
66
  3
ACAD_MLINESTYLE
350
5F
  3
ACAD_PLOTSETTINGS
350
61
  3
ACAD_PLOTSTYLENAME
350
E
  3
ACAD_SCALELIST
350
42
  3
ACAD_SECTIONVIEWSTYLE
350
68
  3
ACAD_TABLESTYLE
350
64
  3
ACAD_VISUALSTYLE
350
29
  3
ACDB_RECOMPOSE_DATA
350
249
  3
AcDbVariableDictionary
350
187
  0
DICTIONARY
  5
192
330
70
100
AcDbDictionary
280
     1
281
     1
  3
ACAD_SORTENTS
360
193
  0
XRECORD
  5
191
102
{ACAD_REACTORS
330
C
102
}
330
C
100
AcDbXrecord
280
     1
300
ACD
300
2022
300

  0
DICTIONARY
  5
63
102
{ACAD_REACTORS
330
C
102
}
330
C
100
AcDbDictionary
281
     1
  0
DICTIONARY
  5
6A
102
{ACAD_REACTORS
330
C
102
}
330
C
100
AcDbDictionary
281
     1
  3
Imperial24
350
6B
  0
DICTIONARY
  5
D
102
{ACAD_REACTORS
330
C
102
}
330
C
100
AcDbDictionary
281
     1
  0
DICTIONARY
  5
62
102
{ACAD_REACTORS
330
C
102
}
330
C
100
AcDbDictionary
281
     1
  3
Layout1
350
6F
  3
Layout2
350
77
  3
Model
350
73
  0
DICTIONARY
  5
10
102
{ACAD_REACTORS
330
C
102
}
330
C
100
AcDbDictionary
281
     1
  3
ByBlock
350
19
  3
ByLayer
350
11
  3
Global
350
21
  0
DICTIONARY
  5
66
102
{ACAD_REACTORS
330
C
102
}
330
C
100
AcDbDictionary
281
     1
  3
Standard
350
67
  0
DICTIONARY
  5
5F
102
{ACAD_REACTORS
330
C
102
}
330
C
100
AcDbDictionary
281
     1
  3
Standard
350
60
  0
DICTIONARY
  5
61
102
{ACAD_REACTORS
330
C
102
}
330
C
100
AcDbDictionary
281
     1
  0
ACDBDICTIONARYWDFLT
  5
E
102
{ACAD_REACTORS
330
C
102
}
330
C
100
AcDbDictionary
281
     1
  3
Normal
350
F
100
AcDbDictionaryWithDefault
340
F
  0
DICTIONARY
  5
42
102
{ACAD_REACTORS
330
C
102
}
330
C
100
AcDbDictionary
281
     1
  3
A0
350
43
  3
A1
350
44
  3
A2
350
45
  3
A3
350
46
  3
A4
350
47
  3
A5
350
48
  3
A6
350
49
  3
A7
350
4A
  3
A8
350
4B
  3
A9
350
4C
  3
B0
350
4D
  3
B1
350
4E
  3
B2
350
4F
  3
B3
350
50
  3
B4
350
51
  3
B5
350
52
  3
B6
350
53
  0
DICTIONARY
  5
68
102
{ACAD_REACTORS
330
C
102
}
330
C
100
AcDbDictionary
281
     1
  3
Imperial24
350
69
  0
DICTIONARY
  5
64
102
{ACAD_REACTORS
330
C
102
}
330
C
100
AcDbDictionary
281
     1
  3
Standard
350
65
  0
DICTIONARY
  5
29
102
{ACAD_REACTORS
330
C
102
}
330
C
100
AcDbDictionary
281
     1
  3
2dWireframe
350
2F
  3
Basic
350
2E
  3
Brighten
350
35
  3
ColorChange
350
39
  3
Conceptual
350
32
  3
Dim
350
34
  3
EdgeColorOff
350
41
  3
Facepattern
350
38
  3
Flat
350
2A
  3
FlatWithEdges
350
2B
  3
Gouraud
350
2C
  3
GouraudWithEdges
350
2D
  3
Hidden
350
31
  3
JitterOff
350
3F
  3
Linepattern
350
37
  3
OverhangOff
350
40
  3
Realistic
350
33
  3
Shaded
350
3E
  3
Shaded with edges
350
3D
  3
Shades of Gray
350
3A
  3
Sketchy
350
3B
  3
Thicken
350
36
  3
Wireframe
350
30
  3
X-Ray
350
3C
  0
XRECORD
  5
249
102
{ACAD_REACTORS
330
C
102
}
330
C
100
AcDbXrecord
280
     1
 90
        1
330
65
330
21E
330
227
330
22F
  0
DICTIONARY
  5
187
102
{ACAD_REACTORS
330
C
102
}
330
C
100
AcDbDictionary
281
     1
  3
CANNOSCALE
350
18C
  3
CMLEADERSTYLE
350
189
  3
CTABLESTYLE
350
188
  3
CVIEWDETAILSTYLE
350
18A
  3
CVIEWSECTIONSTYLE
350
18B
  0
SORTENTSTABLE
  5
193
102
{ACAD_REACTORS
330
192
102
}
330
192
100
AcDbSortentsTable
330
70
331
7F
  5
194
331
80
  5
195
331
84
  5
196
331
85
  5
197
331
194
  5
7F
331
195
  5
80
331
196
  5
84
331
197
  5
85
  0
ACDBDETAILVIEWSTYLE
  5
6B
102
{ACAD_XDICTIONARY
360
24C
102
}
102
{ACAD_REACTORS
330
6A
102
}
330
6A
100
AcDbModelDocViewStyle
 70
     0
  3
Imperial24
290
     0
100
AcDbDetailViewStyle
 70
     0
 71
     0
 90
        3
 71
     1
340
55
 62
   256
 40
0.24
340
0
 62
   256
 40
0.24
300

 40
0.36
280
     3
 71
     2
340
5D
 90
       25
 62
   256
 71
     3
340
55
 62
   256
 40
0.24
 90
        1
 40
0.75
 90
        1
300
%<\AcVar ViewType \f "%tc1">% %<\AcVar ViewDetailId>%\PSCALE %<\AcVar ViewScale \f "%sn">%
 71
     4
340
5D
 90
       25
 62
   256
340
5D
 90
       25
 62
   256
280
     0
  0
LAYOUT
  5
6F
102
{ACAD_REACTORS
330
62
102
}
330
62
100
AcDbPlotSettings
  1

  2

  4

  6

 40
0.0
 41
0.0
 42
0.0
 43
0.0
 44
0.0
 45
0.0
 46
0.0
 47
0.0
 48
0.0
 49
0.0
140
0.0
141
0.0
142
1.0
143
1.0
 70
   688
 72
     0
 73
     0
 74
     5
  7

 75
    16
147
1.0
 76
     0
 77
     2
 78
   300
148
0.0
149
0.0
100
AcDbLayout
  1
Layout1
 70
     1
 71
     1
 10
0.0
 20
0.0
 11
12.0
 21
9.0
 12
0.0
 22
0.0
 32
0.0
 14
1.000000000000000E+20
 24
1.000000000000000E+20
 34
1.000000000000000E+20
 15
-1.000000000000000E+20
 25
-1.000000000000000E+20
 35
-1.000000000000000E+20
146
0.0
 13
0.0
 23
0.0
 33
0.0
 16
1.0
 26
0.0
 36
0.0
 17
0.0
 27
1.0
 37
0.0
 76
     0
330
6C
  0
LAYOUT
  5
77
102
{ACAD_REACTORS
330
62
102
}
330
62
100
AcDbPlotSettings
  1

  2

  4

  6

 40
0.0
 41
0.0
 42
0.0
 43
0.0
 44
0.0
 45
0.0
 46
0.0
 47
0.0
 48
0.0
 49
0.0
140
0.0
141
0.0
142
1.0
143
1.0
 70
   688
 72
     0
 73
     0
 74
     5
  7

 75
    16
147
1.0
 76
     0
 77
     2
 78
   300
148
0.0
149
0.0
100
AcDbLayout
  1
Layout2
 70
     1
 71
     2
 10
0.0
 20
0.0
 11
12.0
 21
9.0
 12
0.0
 22
0.0
 32
0.0
 14
0.0
 24
0.0
 34
0.0
 15
0.0
 25
0.0
 35
0.0
146
0.0
 13
0.0
 23
0.0
 33
0.0
 16
1.0
 26
0.0
 36
0.0
 17
0.0
 27
1.0
 37
0.0
 76
     0
330
74
  0
LAYOUT
  5
73
102
{ACAD_REACTORS
330
62
102
}
330
62
100
AcDbPlotSettings
  1

  2

  4

  6

 40
0.0
 41
0.0
 42
0.0
 43
0.0
 44
0.0
 45
0.0
 46
0.0
 47
0.0
 48
0.0
 49
0.0
140
0.0
141
0.0
142
1.0
143
1.0
 70
  1712
 72
     0
 73
     0
 74
     0
  7

 75
     0
147
1.0
 76
     0
 77
     2
 78
   300
148
0.0
149
0.0
100
AcDbLayout
  1
Model
 70
     1
 71
     0
 10
0.0
 20
0.0
 11
12.0
 21
9.0
 12
0.0
 22
0.0
 32
0.0
 14
0.0
 24
0.0
 34
0.0
 15
0.0
 25
0.0
 35
0.0
146
0.0
 13
0.0
 23
0.0
 33
0.0
 16
1.0
 26
0.0
 36
0.0
 17
0.0
 27
1.0
 37
0.0
 76
     0
330
70
331
57
  0
MATERIAL
  5
19
102
{ACAD_XDICTIONARY
360
1A
102
}
102
{ACAD_REACTORS
330
10
102
}
330
10
100
AcDbMaterial
  1
ByBlock
 72
     0
 43
0.0208333333333333
 43
0.0
 43
0.0
 43
0.0
 43
0.0
 43
0.0208333333333333
 43
0.0
 43
0.0
 43
0.0
 43
0.0
 43
1.0
 43
0.0
 43
0.0
 43
0.0
 43
0.0
 43
1.0
 77
     0
 47
0.0208333333333333
 47
0.0
 47
0.0
 47
0.0
 47
0.0
 47
0.0208333333333333
 47
0.0
 47
0.0
 47
0.0
 47
0.0
 47
1.0
 47
0.0
 47
0.0
 47
0.0
 47
0.0
 47
1.0
171
     0
 49
0.0208333333333333
 49
0.0
 49
0.0
 49
0.0
 49
0.0
 49
0.0208333333333333
 49
0.0
 49
0.0
 49
0.0
 49
0.0
 49
1.0
 49
0.0
 49
0.0
 49
0.0
 49
0.0
 49
1.0
175
     0
142
0.0208333333333333
142
0.0
142
0.0
142
0.0
142
0.0
142
0.0208333333333333
142
0.0
142
0.0
142
0.0
142
0.0
142
1.0
142
0.0
142
0.0
142
0.0
142
0.0
142
1.0
179
     0
144
0.0208333333333333
144
0.0
144
0.0
144
0.0
144
0.0
144
0.0208333333333333
144
0.0
144
0.0
144
0.0
144
0.0
144
1.0
144
0.0
144
0.0
144
0.0
144
0.0
144
1.0
147
0.0208333333333333
147
0.0
147
0.0
147
0.0
147
0.0
147
0.0208333333333333
147
0.0
147
0.0
147
0.0
147
0.0
147
1.0
147
0.0
147
0.0
147
0.0
147
0.0
147
1.0
  0
MATERIAL
  5
11
102
{ACAD_XDICTIONARY
360
12
102
}
102
{ACAD_REACTORS
330
10
102
}
330
10
100
AcDbMaterial
  1
ByLayer
 72
     0
 43
0.0208333333333333
 43
0.0
 43
0.0
 43
0.0
 43
0.0
 43
0.0208333333333333
 43
0.0
 43
0.0
 43
0.0
 43
0.0
 43
1.0
 43
0.0
 43
0.0
 43
0.0
 43
0.0
 43
1.0
 77
     0
 47
0.0208333333333333
 47
0.0
 47
0.0
 47
0.0
 47
0.0
 47
0.0208333333333333
 47
0.0
 47
0.0
 47
0.0
 47
0.0
 47
1.0
 47
0.0
 47
0.0
 47
0.0
 47
0.0
 47
1.0
171
     0
 49
0.0208333333333333
 49
0.0
 49
0.0
 49
0.0
 49
0.0
 49
0.0208333333333333
 49
0.0
 49
0.0
 49
0.0
 49
0.0
 49
1.0
 49
0.0
 49
0.0
 49
0.0
 49
0.0
 49
1.0
175
     0
142
0.0208333333333333
142
0.0
142
0.0
142
0.0
142
0.0
142
0.0208333333333333
142
0.0
142
0.0
142
0.0
142
0.0
142
1.0
142
0.0
142
0.0
142
0.0
142
0.0
142
1.0
179
     0
144
0.0208333333333333
144
0.0
144
0.0
144
0.0
144
0.0
144
0.0208333333333333
144
0.0
144
0.0
144
0.0
144
0.0
144
1.0
144
0.0
144
0.0
144
0.0
144
0.0
144
1.0
147
0.0208333333333333
147
0.0
147
0.0
147
0.0
147
0.0
147
0.0208333333333333
147
0.0
147
0.0
147
0.0
147
0.0
147
1.0
147
0.0
147
0.0
147
0.0
147
0.0
147
1.0
  0
MATERIAL
  5
21
102
{ACAD_XDICTIONARY
360
22
102
}
102
{ACAD_REACTORS
330
10
102
}
330
10
100
AcDbMaterial
  1
Global
 72
     0
 43
0.0208333333333333
 43
0.0
 43
0.0
 43
0.0
 43
0.0
 43
0.0208333333333333
 43
0.0
 43
0.0
 43
0.0
 43
0.0
 43
1.0
 43
0.0
 43
0.0
 43
0.0
 43
0.0
 43
1.0
 77
     0
 47
0.0208333333333333
 47
0.0
 47
0.0
 47
0.0
 47
0.0
 47
0.0208333333333333
 47
0.0
 47
0.0
 47
0.0
 47
0.0
 47
1.0
 47
0.0
 47
0.0
 47
0.0
 47
0.0
 47
1.0
171
     0
 49
0.0208333333333333
 49
0.0
 49
0.0
 49
0.0
 49
0.0
 49
0.0208333333333333
 49
0.0
 49
0.0
 49
0.0
 49
0.0
 49
1.0
 49
0.0
 49
0.0
 49
0.0
 49
0.0
 49
1.0
175
     0
142
0.0208333333333333
142
0.0
142
0.0
142
0.0
142
0.0
142
0.0208333333333333
142
0.0
142
0.0
142
0.0
142
0.0
142
1.0
142
0.0
142
0.0
142
0.0
142
0.0
142
1.0
179
     0
144
0.0208333333333333
144
0.0
144
0.0
144
0.0
144
0.0
144
0.0208333333333333
144
0.0
144
0.0
144
0.0
144
0.0
144
1.0
144
0.0
144
0.0
144
0.0
144
0.0
144
1.0
147
0.0208333333333333
147
0.0
147
0.0
147
0.0
147
0.0
147
0.0208333333333333
147
0.0
147
0.0
147
0.0
147
0.0
147
1.0
147
0.0
147
0.0
147
0.0
147
0.0
147
1.0
  0
MLEADERSTYLE
  5
67
102
{ACAD_REACTORS
330
66
102
}
330
66
100
AcDbMLeaderStyle
179
     2
170
     2
171
     1
172
     0
 90
        2
 40
0.0
 41
0.0
173
     1
 91
-1056964608
340
5B
 92
       -2
290
     1
 42
0.09
291
     1
 43
0.36
  3
Standard
 44
0.18
300

342
55
174
     1
178
     6
175
     1
176
     0
 93
-1056964608
 45
0.18
292
     0
297
     0
 46
0.18
 94
-1056964608
 47
1.0
 49
1.0
140
1.0
293
     1
141
0.0
294
     1
177
     0
142
1.0
295
     0
296
     0
143
0.125
271
     0
272
     9
273
     9
298
     1
  0
MLINESTYLE
  5
60
102
{ACAD_REACTORS
330
5F
102
}
330
5F
100
AcDbMlineStyle
  2
STANDARD
 70
     0
  3

 62
   256
 51
90.0
 52
90.0
 71
     2
 49
0.5
 62
   256
  6
BYLAYER
 49
-0.5
 62
   256
  6
BYLAYER
  0
ACDBPLACEHOLDER
  5
F
102
{ACAD_REACTORS
330
E
102
}
330
E
  0
SCALE
  5
43
102
{ACAD_REACTORS
330
42
102
}
330
42
100
AcDbScale
 70
     0
300
1:1
140
1.0
141
1.0
290
     1
  0
SCALE
  5
44
102
{ACAD_REACTORS
330
42
102
}
330
42
100
AcDbScale
 70
     0
300
1/128" = 1'-0"
140
0.0078125
141
12.0
290
     0
  0
SCALE
  5
45
102
{ACAD_REACTORS
330
42
102
}
330
42
100
AcDbScale
 70
     0
300
1/64" = 1'-0"
140
0.015625
141
12.0
290
     0
  0
SCALE
  5
46
102
{ACAD_REACTORS
330
42
102
}
330
42
100
AcDbScale
 70
     0
300
1/32" = 1'-0"
140
0.03125
141
12.0
290
     0
  0
SCALE
  5
47
102
{ACAD_REACTORS
330
42
102
}
330
42
100
AcDbScale
 70
     0
300
1/16" = 1'-0"
140
0.0625
141
12.0
290
     0
  0
SCALE
  5
48
102
{ACAD_REACTORS
330
42
102
}
330
42
100
AcDbScale
 70
     0
300
3/32" = 1'-0"
140
0.09375
141
12.0
290
     0
  0
SCALE
  5
49
102
{ACAD_REACTORS
330
42
102
}
330
42
100
AcDbScale
 70
     0
300
1/8" = 1'-0"
140
0.125
141
12.0
290
     0
  0
SCALE
  5
4A
102
{ACAD_REACTORS
330
42
102
}
330
42
100
AcDbScale
 70
     0
300
3/16" = 1'-0"
140
0.1875
141
12.0
290
     0
  0
SCALE
  5
4B
102
{ACAD_REACTORS
330
42
102
}
330
42
100
AcDbScale
 70
     0
300
1/4" = 1'-0"
140
0.25
141
12.0
290
     0
  0
SCALE
  5
4C
102
{ACAD_REACTORS
330
42
102
}
330
42
100
AcDbScale
 70
     0
300
3/8" = 1'-0"
140
0.375
141
12.0
290
     0
  0
SCALE
  5
4D
102
{ACAD_REACTORS
330
42
102
}
330
42
100
AcDbScale
 70
     0
300
1/2" = 1'-0"
140
0.5
141
12.0
290
     0
  0
SCALE
  5
4E
102
{ACAD_REACTORS
330
42
102
}
330
42
100
AcDbScale
 70
     0
300
3/4" = 1'-0"
140
0.75
141
12.0
290
     0
  0
SCALE
  5
4F
102
{ACAD_REACTORS
330
42
102
}
330
42
100
AcDbScale
 70
     0
300
1" = 1'-0"
140
1.0
141
12.0
290
     0
  0
SCALE
  5
50
102
{ACAD_REACTORS
330
42
102
}
330
42
100
AcDbScale
 70
     0
300
1-1/2" = 1'-0"
140
1.5
141
12.0
290
     0
  0
SCALE
  5
51
102
{ACAD_REACTORS
330
42
102
}
330
42
100
AcDbScale
 70
     0
300
3" = 1'-0"
140
3.0
141
12.0
290
     0
  0
SCALE
  5
52
102
{ACAD_REACTORS
330
42
102
}
330
42
100
AcDbScale
 70
     0
300
6" = 1'-0"
140
6.0
141
12.0
290
     0
  0
SCALE
  5
53
102
{ACAD_REACTORS
330
42
102
}
330
42
100
AcDbScale
 70
     0
300
1'-0" = 1'-0"
140
12.0
141
12.0
290
     0
  0
ACDBSECTIONVIEWSTYLE
  5
69
102
{ACAD_XDICTIONARY
360
24A
102
}
102
{ACAD_REACTORS
330
68
102
}
330
68
100
AcDbModelDocViewStyle
 70
     0
  3
Imperial24
290
     0
100
AcDbSectionViewStyle
 70
     0
 71
     0
 90
       78
 71
     1
340
55
 62
   256
 40
0.24
340
0
340
0
 62
   256
 40
0.24
300
I, O, Q, S, X, Z
 40
0.48
 90
        3
 40
0.18
 90
        1
 71
     2
340
5D
 90
       25
 62
   256
340
5D
 90
       50
 62
   256
 40
0.24
 40
0.0
 40
0.24
 71
     3
340
55
 62
   256
 40
0.24
 90
        1
 40
0.75
 90
        1
300
%<\AcVar ViewType \f "%tc1">% %<\AcVar ViewSectionStartId>%-%<\AcVar ViewSectionEndId>%\PSCALE %<\AcVar ViewScale \f "%sn">%
 71
     4
 62
   256
 62
   257
300
ANSI31
 40
1.0
 90
        0
290
     0
290
     0
 90
        6
 40
0.0
 40
1.570796326794896
 40
0.2617993877991494
 40
1.308996938995747
 40
-0.2617993877991494
 40
1.832595714594045
  0
TABLESTYLE
  5
65
102
{ACAD_XDICTIONARY
360
230
102
}
102
{ACAD_REACTORS
330
64
102
}
330
64
100
AcDbTableStyle
280
     0
  3
Standard
 70
     0
 71
     0
 40
0.06
 41
0.06
280
     0
281
     0
  7
Standard
140
0.18
170
     2
 62
     0
 63
     7
283
     0
 90
      512
 91
        0
  1

274
    -2
284
     1
 64
     0
275
    -2
285
     1
 65
     0
276
    -2
286
     1
 66
     0
277
    -2
287
     1
 67
     0
278
    -2
288
     1
 68
     0
279
    -2
289
     1
 69
     0
  7
Standard
140
0.25
170
     5
 62
     0
 63
     7
283
     0
 90
      512
 91
        0
  1

274
    -2
284
     1
 64
     0
275
    -2
285
     1
 65
     0
276
    -2
286
     1
 66
     0
277
    -2
287
     1
 67
     0
278
    -2
288
     1
 68
     0
279
    -2
289
     1
 69
     0
  7
Standard
140
0.18
170
     5
 62
     0
 63
     7
283
     0
 90
      512
 91
        0
  1

274
    -2
284
     1
 64
     0
275
    -2
285
     1
 65
     0
276
    -2
286
     1
 66
     0
277
    -2
287
     1
 67
     0
278
    -2
288
     1
 68
     0
279
    -2
289
     1
 69
     0
  0
VISUALSTYLE
  5
2F
102
{ACAD_REACTORS
330
29
102
}
330
29
100
AcDbVisualStyle
  2
2dWireframe
 70
     4
177
     3
291
     0
 70
    58
 90
        0
176
     1
 90
        2
176
     1
 90
        0
176
     1
 90
        0
176
     1
 40
0.6
176
     1
 40
30.0
176
     1
 62
     7
420
 16777215
176
     1
 90
        1
176
     1
 90
        4
176
     1
 62
     7
176
     1
 62
   257
176
     1
 90
        1
176
     1
 90
        1
176
     1
 40
1.0
176
     1
 90
        0
176
     1
 62
   257
176
     1
 40
1.0
176
     1
 90
        1
176
     1
 90
        6
176
     1
 90
        2
176
     1
 62
     7
176
     1
 90
        5
176
     1
 90
        0
176
     1
 90
        0
176
     1
290
     0
176
     1
 90
        1
176
     1
 40
0.0
176
     1
 90
        0
176
     1
290
     1
176
     1
290
     1
176
     1
290
     0
176
     1
290
     0
176
     1
290
     0
176
     1
290
     0
176
     1
290
     0
176
     1
290
     0
176
     1
290
     0
176
     1
 90
       50
176
     1
 40
0.0
176
     1
 40
1.0
176
     1
 90
        0
176
     1
 62
    18
176
     1
 90
       50
176
     1
 90
        3
176
     1
 62
     5
420
      255
176
     1
290
     0
176
     1
 90
       50
176
     1
 90
       50
176
     1
 90
       50
176
     1
290
     0
176
     1
 90
       50
176
     1
 62
   256
176
     0
 40
1.0
176
     0
 90
        2
176
     1
  1
strokes_ogs.tif
176
     1
290
     0
176
     1
 40
1.0
176
     1
 40
1.0
176
     1
1001
ACAD
1000
AcDbSavedByObjectVersion
1070
     0
  0
VISUALSTYLE
  5
2E
102
{ACAD_REACTORS
330
29
102
}
330
29
100
AcDbVisualStyle
  2
Basic
 70
     7
177
     3
291
     1
 70
    58
 90
        1
176
     1
 90
        0
176
     1
 90
        1
176
     1
 90
        0
176
     1
 40
0.6
176
     1
 40
30.0
176
     1
 62
     7
420
 16777215
176
     1
 90
        0
176
     1
 90
        4
176
     1
 62
     7
176
     1
 62
   257
176
     1
 90
        1
176
     1
 90
        1
176
     1
 40
1.0
176
     1
 90
        8
176
     1
 62
     7
176
     1
 40
1.0
176
     1
 90
        1
176
     1
 90
        6
176
     1
 90
        2
176
     1
 62
     7
176
     1
 90
        5
176
     1
 90
        0
176
     1
 90
        0
176
     1
290
     0
176
     1
 90
        1
176
     1
 40
0.0
176
     1
 90
        0
176
     1
290
     0
176
     1
290
     1
176
     1
290
     1
176
     1
290
     0
176
     1
290
     0
176
     1
290
     0
176
     1
290
     0
176
     1
290
     0
176
     1
290
     0
176
     1
 90
       50
176
     1
 40
0.0
176
     1
 40
1.0
176
     1
 90
        0
176
     1
 62
    18
176
     1
 90
       50
176
     1
 90
        3
176
     1
 62
     5
420
      255
176
     1
290
     0
176
     1
 90
       50
176
     1
 90
       50
176
     1
 90
       50
176
     1
290
     0
176
     1
 90
       50
176
     1
 62
   256
176
     0
 40
1.0
176
     0
 90
        2
176
     1
  1
strokes_ogs.tif
176
     1
290
     0
176
     1
 40
1.0
176
     1
 40
1.0
176
     1
1001
ACAD
1000
AcDbSavedByObjectVersion
1070
     0
  0
VISUALSTYLE
  5
35
102
{ACAD_REACTORS
330
29
102
}
330
29
100
AcDbVisualStyle
  2
Brighten
 70
    12
177
     3
291
     1
 70
    58
 90
        2
176
     1
 90
        2
176
     1
 90
        0
176
     1
 90
        0
176
     1
 40
0.6
176
     1
 40
30.0
176
     1
 62
     7
420
 16777215
176
     1
 90
        1
176
     1
 90
        4
176
     1
 62
     7
176
     1
 62
   257
176
     1
 90
        1
176
     1
 90
        1
176
     1
 40
1.0
176
     1
 90
        8
176
     1
 62
     7
176
     1
 40
1.0
176
     1
 90
        1
176
     1
 90
        6
176
     1
 90
        2
176
     1
 62
     7
176
     1
 90
        5
176
     1
 90
        0
176
     1
 90
        0
176
     1
290
     0
176
     1
 90
        1
176
     1
 40
50.0
176
     1
 90
        0
176
     1
290
     0
176
     1
290
     1
176
     1
290
     1
176
     1
290
     0
176
     1
290
     0
176
     1
290
     0
176
     1
290
     0
176
     1
290
     0
176
     1
290
     0
176
     1
 90
       50
176
     1
 40
0.0
176
     1
 40
1.0
176
     1
 90
        0
176
     1
 62
    18
176
     1
 90
       50
176
     1
 90
        3
176
     1
 62
     5
420
      255
176
     1
290
     0
176
     1
 90
       50
176
     1
 90
       50
176
     1
 90
       50
176
     1
290
     0
176
     1
 90
       50
176
     1
 62
   256
176
     0
 40
1.0
176
     0
 90
        2
176
     1
  1
strokes_ogs.tif
176
     1
290
     0
176
     1
 40
1.0
176
     1
 40
1.0
176
     1
1001
ACAD
1000
AcDbSavedByObjectVersion
1070
     0
  0
VISUALSTYLE
  5
39
102
{ACAD_REACTORS
330
29
102
}
330
29
100
AcDbVisualStyle
  2
ColorChange
 70
    16
177
     3
291
     1
 70
    58
 90
        2
176
     1
 90
        2
176
     1
 90
        3
176
     1
 90
        0
176
     1
 40
0.6
176
     1
 40
30.0
176
     1
 62
     8
420
  8421504
176
     1
 90
        1
176
     1
 90
        4
176
     1
 62
     7
176
     1
 62
   257
176
     1
 90
        1
176
     1
 90
        1
176
     1
 40
1.0
176
     1
 90
        8
176
     1
 62
     8
420
  8421504
176
     1
 40
1.0
176
     1
 90
        1
176
     1
 90
        6
176
     1
 90
        2
176
     1
 62
     7
176
     1
 90
        5
176
     1
 90
        0
176
     1
 90
        0
176
     1
290
     0
176
     1
 90
        1
176
     1
 40
0.0
176
     1
 90
        0
176
     1
290
     0
176
     1
290
     1
176
     1
290
     1
176
     1
290
     0
176
     1
290
     0
176
     1
290
     0
176
     1
290
     0
176
     1
290
     0
176
     1
290
     0
176
     1
 90
       50
176
     1
 40
0.0
176
     1
 40
1.0
176
     1
 90
        0
176
     1
 62
    18
176
     1
 90
       50
176
     1
 90
        3
176
     1
 62
     5
420
      255
176
     1
290
     0
176
     1
 90
       50
176
     1
 90
       50
176
     1
 90
       50
176
     1
290
     0
176
     1
 90
       50
176
     1
 62
   256
176
     0
 40
1.0
176
     0
 90
        2
176
     1
  1
strokes_ogs.tif
176
     1
290
     0
176
     1
 40
1.0
176
     1
 40
1.0
176
     1
1001
ACAD
1000
AcDbSavedByObjectVersion
1070
     0
  0
VISUALSTYLE
  5
32
102
{ACAD_REACTORS
330
29
102
}
330
29
100
AcDbVisualStyle
  2
Conceptual
 70
     9
177
     3
291
     0
 70
    58
 90
        3
176
     1
 90
        2
176
     1
 90
        0
176
     1
 90
        0
176
     1
 40
0.6
176
     1
 40
30.0
176
     1
 62
     7
420
 16777215
176
     1
 90
        2
176
     1
 90
        2
176
     1
 62
     7
176
     1
 62
   257
176
     1
 90
        1
176
     1
 90
        1
176
     1
 40
179.0
176
     1
 90
        8
176
     1
 62
     7
176
     1
 40
1.0
176
     1
 90
        1
176
     1
 90
        6
176
     1
 90
        2
176
     1
 62
     7
176
     1
 90
        3
176
     1
 90
        0
176
     1
 90
        0
176
     1
290
     0
176
     1
 90
        1
176
     1
 40
0.0
176
     1
 90
        0
176
     1
290
     0
176
     1
290
     1
176
     1
290
     1
176
     1
290
     0
176
     1
290
     0
176
     1
290
     0
176
     1
290
     0
176
     1
290
     0
176
     1
290
     0
176
     1
 90
       50
176
     1
 40
0.0
176
     1
 40
1.0
176
     1
 90
        0
176
     1
 62
    18
176
     1
 90
       50
176
     1
 90
        3
176
     1
 62
     5
420
      255
176
     1
290
     0
176
     1
 90
       50
176
     1
 90
       50
176
     1
 90
       50
176
     1
290
     0
176
     1
 90
       50
176
     1
 62
   256
176
     0
 40
1.0
176
     0
 90
        2
176
     1
  1
strokes_ogs.tif
176
     1
290
     0
176
     1
 40
1.0
176
     1
 40
1.0
176
     1
1001
ACAD
1000
AcDbSavedByObjectVersion
1070
     0
  0
VISUALSTYLE
  5
34
102
{ACAD_REACTORS
330
29
102
}
330
29
100
AcDbVisualStyle
  2
Dim
 70
    11
177
     3
291
     1
 70
    58
 90
        2
176
     1
 90
        2
176
     1
 90
        0
176
     1
 90
        0
176
     1
 40
0.6
176
     1
 40
30.0
176
     1
 62
     7
420
 16777215
176
     1
 90
        1
176
     1
 90
        4
176
     1
 62
     7
176
     1
 62
   257
176
     1
 90
        1
176
     1
 90
        1
176
     1
 40
1.0
176
     1
 90
        8
176
     1
 62
     7
176
     1
 40
1.0
176
     1
 90
        1
176
     1
 90
        6
176
     1
 90
        2
176
     1
 62
     7
176
     1
 90
        5
176
     1
 90
        0
176
     1
 90
        0
176
     1
290
     0
176
     1
 90
        1
176
     1
 40
-50.0
176
     1
 90
        0
176
     1
290
     0
176
     1
290
     1
176
     1
290
     1
176
     1
290
     0
176
     1
290
     0
176
     1
290
     0
176
     1
290
     0
176
     1
290
     0
176
     1
290
     0
176
     1
 90
       50
176
     1
 40
0.0
176
     1
 40
1.0
176
     1
 90
        0
176
     1
 62
    18
176
     1
 90
       50
176
     1
 90
        3
176
     1
 62
     5
420
      255
176
     1
290
     0
176
     1
 90
       50
176
     1
 90
       50
176
     1
 90
       50
176
     1
290
     0
176
     1
 90
       50
176
     1
 62
   256
176
     0
 40
1.0
176
     0
 90
        2
176
     1
  1
strokes_ogs.tif
176
     1
290
     0
176
     1
 40
1.0
176
     1
 40
1.0
176
     1
1001
ACAD
1000
AcDbSavedByObjectVersion
1070
     0
  0
VISUALSTYLE
  5
41
102
{ACAD_REACTORS
330
29
102
}
330
29
100
AcDbVisualStyle
  2
EdgeColorOff
 70
    22
177
     3
291
     1
 70
    58
 90
        2
176
     0
 90
        2
176
     0
 90
        0
176
     0
 90
        0
176
     0
 40
0.6
176
     0
 40
30.0
176
     0
 62
     7
420
 16777215
176
     0
 90
        1
176
     0
 90
        4
176
     0
 62
     7
176
     0
 62
   257
176
     0
 90
        1
176
     0
 90
        1
176
     0
 40
1.0
176
     0
 90
        8
176
     2
 62
     7
176
     0
 40
1.0
176
     0
 90
        1
176
     0
 90
        6
176
     0
 90
        2
176
     0
 62
     7
176
     0
 90
        5
176
     0
 90
        0
176
     0
 90
        0
176
     0
290
     0
176
     0
 90
        1
176
     0
 40
0.0
176
     0
 90
        0
176
     0
290
     0
176
     0
290
     1
176
     0
290
     1
176
     0
290
     0
176
     0
290
     0
176
     0
290
     0
176
     0
290
     0
176
     0
290
     0
176
     0
290
     0
176
     0
 90
       50
176
     0
 40
0.0
176
     0
 40
1.0
176
     0
 90
        0
176
     0
 62
    18
176
     0
 90
       50
176
     0
 90
        3
176
     0
 62
     5
420
      255
176
     0
290
     0
176
     0
 90
       50
176
     0
 90
       50
176
     0
 90
       50
176
     0
290
     0
176
     0
 90
       50
176
     0
 62
   256
176
     0
 40
1.0
176
     0
 90
        2
176
     0
  1
strokes_ogs.tif
176
     0
290
     0
176
     0
 40
1.0
176
     0
 40
1.0
176
     0
1001
ACAD
1000
AcDbSavedByObjectVersion
1070
     0
  0
VISUALSTYLE
  5
38
102
{ACAD_REACTORS
330
29
102
}
330
29
100
AcDbVisualStyle
  2
Facepattern
 70
    15
177
     3
291
     1
 70
    58
 90
        2
176
     1
 90
        2
176
     1
 90
        0
176
     1
 90
        0
176
     1
 40
0.6
176
     1
 40
30.0
176
     1
 62
     7
420
 16777215
176
     1
 90
        1
176
     1
 90
        4
176
     1
 62
     7
176
     1
 62
   257
176
     1
 90
        1
176
     1
 90
        1
176
     1
 40
1.0
176
     1
 90
        8
176
     1
 62
     7
176
     1
 40
1.0
176
     1
 90
        1
176
     1
 90
        6
176
     1
 90
        2
176
     1
 62
     7
176
     1
 90
        5
176
     1
 90
        0
176
     1
 90
        0
176
     1
290
     0
176
     1
 90
        1
176
     1
 40
0.0
176
     1
 90
        0
176
     1
290
     0
176
     1
290
     1
176
     1
290
     1
176
     1
290
     0
176
     1
290
     0
176
     1
290
     0
176
     1
290
     0
176
     1
290
     0
176
     1
290
     0
176
     1
 90
       50
176
     1
 40
0.0
176
     1
 40
1.0
176
     1
 90
        0
176
     1
 62
    18
176
     1
 90
       50
176
     1
 90
        3
176
     1
 62
     5
420
      255
176
     1
290
     0
176
     1
 90
       50
176
     1
 90
       50
176
     1
 90
       50
176
     1
290
     0
176
     1
 90
       50
176
     1
 62
   256
176
     0
 40
1.0
176
     0
 90
        2
176
     1
  1
strokes_ogs.tif
176
     1
290
     0
176
     1
 40
1.0
176
     1
 40
1.0
176
     1
1001
ACAD
1000
AcDbSavedByObjectVersion
1070
     0
  0
VISUALSTYLE
  5
2A
102
{ACAD_REACTORS
330
29
102
}
330
29
100
AcDbVisualStyle
  2
Flat
 70
     0
177
     3
291
     1
 70
    58
 90
        2
176
     1
 90
        1
176
     1
 90
        1
176
     1
 90
        2
176
     1
 40
0.6
176
     1
 40
30.0
176
     1
 62
     7
420
 16777215
176
     1
 90
        0
176
     1
 90
        0
176
     1
 62
     7
176
     1
 62
   257
176
     1
 90
        1
176
     1
 90
        1
176
     1
 40
1.0
176
     1
 90
        8
176
     1
 62
     7
176
     1
 40
1.0
176
     1
 90
        1
176
     1
 90
        6
176
     1
 90
        2
176
     1
 62
     7
176
     1
 90
        5
176
     1
 90
        0
176
     1
 90
        0
176
     1
290
     0
176
     1
 90
       13
176
     1
 40
0.0
176
     1
 90
        0
176
     1
290
     0
176
     1
290
     1
176
     1
290
     1
176
     1
290
     0
176
     1
290
     0
176
     1
290
     0
176
     1
290
     0
176
     1
290
     0
176
     1
290
     0
176
     1
 90
       50
176
     1
 40
0.0
176
     1
 40
1.0
176
     1
 90
        0
176
     1
 62
    18
176
     1
 90
       50
176
     1
 90
        3
176
     1
 62
     5
420
      255
176
     1
290
     0
176
     1
 90
       50
176
     1
 90
       50
176
     1
 90
       50
176
     1
290
     0
176
     1
 90
       50
176
     1
 62
   256
176
     0
 40
1.0
176
     0
 90
        2
176
     1
  1
strokes_ogs.tif
176
     1
290
     0
176
     1
 40
1.0
176
     1
 40
1.0
176
     1
1001
ACAD
1000
AcDbSavedByObjectVersion
1070
     0
  0
VISUALSTYLE
  5
2B
102
{ACAD_REACTORS
330
29
102
}
330
29
100
AcDbVisualStyle
  2
FlatWithEdges
 70
     1
177
     3
291
     1
 70
    58
 90
        2
176
     1
 90
        1
176
     1
 90
        1
176
     1
 90
        2
176
     1
 40
0.6
176
     1
 40
30.0
176
     1
 62
     7
420
 16777215
176
     1
 90
        1
176
     1
 90
        0
176
     1
 62
     7
176
     1
 62
   257
176
     1
 90
        1
176
     1
 90
        1
176
     1
 40
1.0
176
     1
 90
        0
176
     1
 62
   257
176
     1
 40
1.0
176
     1
 90
        1
176
     1
 90
        6
176
     1
 90
        2
176
     1
 62
     7
176
     1
 90
        5
176
     1
 90
        0
176
     1
 90
        0
176
     1
290
     0
176
     1
 90
       13
176
     1
 40
0.0
176
     1
 90
        0
176
     1
290
     0
176
     1
290
     1
176
     1
290
     1
176
     1
290
     0
176
     1
290
     0
176
     1
290
     0
176
     1
290
     0
176
     1
290
     0
176
     1
290
     0
176
     1
 90
       50
176
     1
 40
0.0
176
     1
 40
1.0
176
     1
 90
        0
176
     1
 62
    18
176
     1
 90
       50
176
     1
 90
        3
176
     1
 62
     5
420
      255
176
     1
290
     0
176
     1
 90
       50
176
     1
 90
       50
176
     1
 90
       50
176
     1
290
     0
176
     1
 90
       50
176
     1
 62
   256
176
     0
 40
1.0
176
     0
 90
        2
176
     1
  1
strokes_ogs.tif
176
     1
290
     0
176
     1
 40
1.0
176
     1
 40
1.0
176
     1
1001
ACAD
1000
AcDbSavedByObjectVersion
1070
     0
  0
VISUALSTYLE
  5
2C
102
{ACAD_REACTORS
330
29
102
}
330
29
100
AcDbVisualStyle
  2
Gouraud
 70
     2
177
     3
291
     1
 70
    58
 90
        2
176
     1
 90
        2
176
     1
 90
        1
176
     1
 90
        2
176
     1
 40
0.6
176
     1
 40
30.0
176
     1
 62
     7
420
 16777215
176
     1
 90
        0
176
     1
 90
        0
176
     1
 62
     7
176
     1
 62
   257
176
     1
 90
        1
176
     1
 90
        1
176
     1
 40
1.0
176
     1
 90
        0
176
     1
 62
     7
176
     1
 40
1.0
176
     1
 90
        1
176
     1
 90
        6
176
     1
 90
        2
176
     1
 62
     7
176
     1
 90
        5
176
     1
 90
        0
176
     1
 90
        0
176
     1
290
     0
176
     1
 90
       13
176
     1
 40
0.0
176
     1
 90
        0
176
     1
290
     0
176
     1
290
     1
176
     1
290
     1
176
     1
290
     0
176
     1
290
     0
176
     1
290
     0
176
     1
290
     0
176
     1
290
     0
176
     1
290
     0
176
     1
 90
       50
176
     1
 40
0.0
176
     1
 40
1.0
176
     1
 90
        0
176
     1
 62
    18
176
     1
 90
       50
176
     1
 90
        3
176
     1
 62
     5
420
      255
176
     1
290
     0
176
     1
 90
       50
176
     1
 90
       50
176
     1
 90
       50
176
     1
290
     0
176
     1
 90
       50
176
     1
 62
   256
176
     0
 40
1.0
176
     0
 90
        2
176
     1
  1
strokes_ogs.tif
176
     1
290
     0
176
     1
 40
1.0
176
     1
 40
1.0
176
     1
1001
ACAD
1000
AcDbSavedByObjectVersion
1070
     0
  0
VISUALSTYLE
  5
2D
102
{ACAD_REACTORS
330
29
102
}
330
29
100
AcDbVisualStyle
  2
GouraudWithEdges
 70
     3
177
     3
291
     1
 70
    58
 90
        2
176
     1
 90
        2
176
     1
 90
        1
176
     1
 90
        2
176
     1
 40
0.6
176
     1
 40
30.0
176
     1
 62
     7
420
 16777215
176
     1
 90
        1
176
     1
 90
        0
176
     1
 62
     7
176
     1
 62
   257
176
     1
 90
        1
176
     1
 90
        1
176
     1
 40
1.0
176
     1
 90
        0
176
     1
 62
   257
176
     1
 40
1.0
176
     1
 90
        1
176
     1
 90
        6
176
     1
 90
        2
176
     1
 62
     7
176
     1
 90
        5
176
     1
 90
        0
176
     1
 90
        0
176
     1
290
     0
176
     1
 90
       13
176
     1
 40
0.0
176
     1
 90
        0
176
     1
290
     0
176
     1
290
     1
176
     1
290
     1
176
     1
290
     0
176
     1
290
     0
176
     1
290
     0
176
     1
290
     0
176
     1
290
     0
176
     1
290
     0
176
     1
 90
       50
176
     1
 40
0.0
176
     1
 40
1.0
176
     1
 90
        0
176
     1
 62
    18
176
     1
 90
       50
176
     1
 90
        3
176
     1
 62
     5
420
      255
176
     1
290
     0
176
     1
 90
       50
176
     1
 90
       50
176
     1
 90
       50
176
     1
290
     0
176
     1
 90
       50
176
     1
 62
   256
176
     0
 40
1.0
176
     0
 90
        2
176
     1
  1
strokes_ogs.tif
176
     1
290
     0
176
     1
 40
1.0
176
     1
 40
1.0
176
     1
1001
ACAD
1000
AcDbSavedByObjectVersion
1070
     0
  0
VISUALSTYLE
  5
31
102
{ACAD_REACTORS
330
29
102
}
330
29
100
AcDbVisualStyle
  2
Hidden
 70
     6
177
     3
291
     0
 70
    58
 90
        1
176
     1
 90
        2
176
     1
 90
        2
176
     1
 90
        0
176
     1
 40
0.6
176
     1
 40
30.0
176
     1
 62
     7
420
 16777215
176
     1
 90
        2
176
     1
 90
        2
176
     1
 62
     7
176
     1
 62
   257
176
     1
 90
        2
176
     1
 90
        1
176
     1
 40
40.0
176
     1
 90
        0
176
     1
 62
   257
176
     1
 40
1.0
176
     1
 90
        1
176
     1
 90
        6
176
     1
 90
        2
176
     1
 62
     7
176
     1
 90
        3
176
     1
 90
        0
176
     1
 90
        0
176
     1
290
     0
176
     1
 90
        1
176
     1
 40
0.0
176
     1
 90
        0
176
     1
290
     0
176
     1
290
     1
176
     1
290
     1
176
     1
290
     0
176
     1
290
     0
176
     1
290
     0
176
     1
290
     0
176
     1
290
     0
176
     1
290
     0
176
     1
 90
       50
176
     1
 40
0.0
176
     1
 40
1.0
176
     1
 90
        0
176
     1
 62
    18
176
     1
 90
       50
176
     1
 90
        3
176
     1
 62
     5
420
      255
176
     1
290
     0
176
     1
 90
       50
176
     1
 90
       50
176
     1
 90
       50
176
     1
290
     0
176
     1
 90
       50
176
     1
 62
   256
176
     0
 40
1.0
176
     0
 90
        2
176
     1
  1
strokes_ogs.tif
176
     1
290
     0
176
     1
 40
1.0
176
     1
 40
1.0
176
     1
1001
ACAD
1000
AcDbSavedByObjectVersion
1070
     0
  0
VISUALSTYLE
  5
3F
102
{ACAD_REACTORS
330
29
102
}
330
29
100
AcDbVisualStyle
  2
JitterOff
 70
    20
177
     3
291
     1
 70
    58
 90
        2
176
     0
 90
        2
176
     0
 90
        0
176
     0
 90
        0
176
     0
 40
0.6
176
     0
 40
30.0
176
     0
 62
     7
420
 16777215
176
     0
 90
        1
176
     0
 90
        4
176
     0
 62
     7
176
     0
 62
   257
176
     0
 90
        1
176
     0
 90
        1
176
     0
 40
1.0
176
     0
 90
       10
176
     2
 62
     7
176
     0
 40
1.0
176
     0
 90
        1
176
     0
 90
        6
176
     0
 90
        2
176
     0
 62
     7
176
     0
 90
        5
176
     0
 90
        0
176
     0
 90
        0
176
     0
290
     0
176
     0
 90
        1
176
     0
 40
0.0
176
     0
 90
        0
176
     0
290
     0
176
     0
290
     1
176
     0
290
     1
176
     0
290
     0
176
     0
290
     0
176
     0
290
     0
176
     0
290
     0
176
     0
290
     0
176
     0
290
     0
176
     0
 90
       50
176
     0
 40
0.0
176
     0
 40
1.0
176
     0
 90
        0
176
     0
 62
    18
176
     0
 90
       50
176
     0
 90
        3
176
     0
 62
     5
420
      255
176
     0
290
     0
176
     0
 90
       50
176
     0
 90
       50
176
     0
 90
       50
176
     0
290
     0
176
     0
 90
       50
176
     0
 62
   256
176
     0
 40
1.0
176
     0
 90
        2
176
     0
  1
strokes_ogs.tif
176
     0
290
     0
176
     0
 40
1.0
176
     0
 40
1.0
176
     0
1001
ACAD
1000
AcDbSavedByObjectVersion
1070
     0
  0
VISUALSTYLE
  5
37
102
{ACAD_REACTORS
330
29
102
}
330
29
100
AcDbVisualStyle
  2
Linepattern
 70
    14
177
     3
291
     1
 70
    58
 90
        2
176
     1
 90
        2
176
     1
 90
        0
176
     1
 90
        0
176
     1
 40
0.6
176
     1
 40
30.0
176
     1
 62
     7
420
 16777215
176
     1
 90
        1
176
     1
 90
        4
176
     1
 62
     7
176
     1
 62
   257
176
     1
 90
        7
176
     1
 90
        7
176
     1
 40
1.0
176
     1
 90
        8
176
     1
 62
     7
176
     1
 40
1.0
176
     1
 90
        1
176
     1
 90
        6
176
     1
 90
        2
176
     1
 62
     7
176
     1
 90
        5
176
     1
 90
        0
176
     1
 90
        0
176
     1
290
     0
176
     1
 90
        1
176
     1
 40
0.0
176
     1
 90
        0
176
     1
290
     0
176
     1
290
     1
176
     1
290
     1
176
     1
290
     0
176
     1
290
     0
176
     1
290
     0
176
     1
290
     0
176
     1
290
     0
176
     1
290
     0
176
     1
 90
       50
176
     1
 40
0.0
176
     1
 40
1.0
176
     1
 90
        0
176
     1
 62
    18
176
     1
 90
       50
176
     1
 90
        3
176
     1
 62
     5
420
      255
176
     1
290
     0
176
     1
 90
       50
176
     1
 90
       50
176
     1
 90
       50
176
     1
290
     0
176
     1
 90
       50
176
     1
 62
   256
176
     0
 40
1.0
176
     0
 90
        2
176
     1
  1
strokes_ogs.tif
176
     1
290
     0
176
     1
 40
1.0
176
     1
 40
1.0
176
     1
1001
ACAD
1000
AcDbSavedByObjectVersion
1070
     0
  0
VISUALSTYLE
  5
40
102
{ACAD_REACTORS
330
29
102
}
330
29
100
AcDbVisualStyle
  2
OverhangOff
 70
    21
177
     3
291
     1
 70
    58
 90
        2
176
     0
 90
        2
176
     0
 90
        0
176
     0
 90
        0
176
     0
 40
0.6
176
     0
 40
30.0
176
     0
 62
     7
420
 16777215
176
     0
 90
        1
176
     0
 90
        4
176
     0
 62
     7
176
     0
 62
   257
176
     0
 90
        1
176
     0
 90
        1
176
     0
 40
1.0
176
     0
 90
        9
176
     2
 62
     7
176
     0
 40
1.0
176
     0
 90
        1
176
     0
 90
        6
176
     0
 90
        2
176
     0
 62
     7
176
     0
 90
        5
176
     0
 90
        0
176
     0
 90
        0
176
     0
290
     0
176
     0
 90
        1
176
     0
 40
0.0
176
     0
 90
        0
176
     0
290
     0
176
     0
290
     1
176
     0
290
     1
176
     0
290
     0
176
     0
290
     0
176
     0
290
     0
176
     0
290
     0
176
     0
290
     0
176
     0
290
     0
176
     0
 90
       50
176
     0
 40
0.0
176
     0
 40
1.0
176
     0
 90
        0
176
     0
 62
    18
176
     0
 90
       50
176
     0
 90
        3
176
     0
 62
     5
420
      255
176
     0
290
     0
176
     0
 90
       50
176
     0
 90
       50
176
     0
 90
       50
176
     0
290
     0
176
     0
 90
       50
176
     0
 62
   256
176
     0
 40
1.0
176
     0
 90
        2
176
     0
  1
strokes_ogs.tif
176
     0
290
     0
176
     0
 40
1.0
176
     0
 40
1.0
176
     0
1001
ACAD
1000
AcDbSavedByObjectVersion
1070
     0
  0
VISUALSTYLE
  5
33
102
{ACAD_REACTORS
330
29
102
}
330
29
100
AcDbVisualStyle
  2
Realistic
 70
     8
177
     3
291
     0
 70
    58
 90
        2
176
     1
 90
        3
176
     1
 90
        0
176
     1
 90
        2
176
     1
 40
0.6
176
     1
 40
30.0
176
     1
 62
     7
420
 16777215
176
     1
 90
        0
176
     1
 90
        0
176
     1
 62
     7
176
     1
 62
   257
176
     1
 90
        1
176
     1
 90
        1
176
     1
 40
1.0
176
     1
 90
        8
176
     1
 62
   257
176
     1
 40
1.0
176
     1
 90
        1
176
     1
 90
        6
176
     1
 90
        2
176
     1
 62
     7
176
     1
 90
        3
176
     1
 90
        0
176
     1
 90
        0
176
     1
290
     0
176
     1
 90
       13
176
     1
 40
0.0
176
     1
 90
        0
176
     1
290
     0
176
     1
290
     1
176
     1
290
     1
176
     1
290
     0
176
     1
290
     0
176
     1
290
     0
176
     1
290
     0
176
     1
290
     0
176
     1
290
     0
176
     1
 90
       50
176
     1
 40
0.0
176
     1
 40
1.0
176
     1
 90
        0
176
     1
 62
    18
176
     1
 90
       50
176
     1
 90
        3
176
     1
 62
     5
420
      255
176
     1
290
     0
176
     1
 90
       50
176
     1
 90
       50
176
     1
 90
       50
176
     1
290
     0
176
     1
 90
       50
176
     1
 62
   256
176
     0
 40
1.0
176
     0
 90
        2
176
     1
  1
strokes_ogs.tif
176
     1
290
     0
176
     1
 40
1.0
176
     1
 40
1.0
176
     1
1001
ACAD
1000
AcDbSavedByObjectVersion
1070
     0
  0
VISUALSTYLE
  5
3E
102
{ACAD_REACTORS
330
29
102
}
330
29
100
AcDbVisualStyle
  2
Shaded
 70
    27
177
     3
291
     0
 70
    58
 90
        2
176
     1
 90
        2
176
     1
 90
        1
176
     1
 90
        2
176
     1
 40
0.6
176
     1
 40
30.0
176
     1
 62
     7
420
 16777215
176
     1
 90
        0
176
     1
 90
        4
176
     1
 62
     7
176
     1
 62
   257
176
     1
 90
        1
176
     1
 90
        1
176
     1
 40
1.0
176
     1
 90
        8
176
     1
 62
   257
176
     1
 40
1.0
176
     1
 90
        1
176
     1
 90
        6
176
     1
 90
        2
176
     1
 62
     8
420
  7895160
176
     1
 90
        3
176
     1
 90
        0
176
     1
 90
        0
176
     1
290
     0
176
     1
 90
        5
176
     1
 40
0.0
176
     1
 90
        0
176
     1
290
     0
176
     1
290
     1
176
     1
290
     1
176
     1
290
     0
176
     1
290
     0
176
     1
290
     0
176
     1
290
     0
176
     1
290
     0
176
     1
290
     0
176
     1
 90
       50
176
     1
 40
0.0
176
     1
 40
1.0
176
     1
 90
        0
176
     1
 62
    18
176
     1
 90
       50
176
     1
 90
        3
176
     1
 62
     5
420
      255
176
     1
290
     0
176
     1
 90
       50
176
     1
 90
       50
176
     1
 90
       50
176
     1
290
     0
176
     1
 90
       50
176
     1
 62
   256
176
     0
 40
1.0
176
     0
 90
        2
176
     1
  1
strokes_ogs.tif
176
     1
290
     0
176
     1
 40
1.0
176
     1
 40
1.0
176
     1
1001
ACAD
1000
AcDbSavedByObjectVersion
1070
     0
  0
VISUALSTYLE
  5
3D
102
{ACAD_REACTORS
330
29
102
}
330
29
100
AcDbVisualStyle
  2
Shaded with edges
 70
    26
177
     3
291
     0
 70
    58
 90
        2
176
     1
 90
        2
176
     1
 90
        1
176
     1
 90
        2
176
     1
 40
0.6
176
     1
 40
30.0
176
     1
 62
     7
420
 16777215
176
     1
 90
        1
176
     1
 90
        2
176
     1
 62
     7
176
     1
 62
   257
176
     1
 90
        2
176
     1
 90
        1
176
     1
 40
1.0
176
     1
 90
        8
176
     1
 62
   257
176
     1
 40
1.0
176
     1
 90
        1
176
     1
 90
        6
176
     1
 90
        2
176
     1
 62
     7
176
     1
 90
        3
176
     1
 90
        0
176
     1
 90
        0
176
     1
290
     0
176
     1
 90
        5
176
     1
 40
0.0
176
     1
 90
        0
176
     1
290
     0
176
     1
290
     1
176
     1
290
     1
176
     1
290
     0
176
     1
290
     0
176
     1
290
     0
176
     1
290
     0
176
     1
290
     0
176
     1
290
     0
176
     1
 90
       50
176
     1
 40
0.0
176
     1
 40
1.0
176
     1
 90
        0
176
     1
 62
    18
176
     1
 90
       50
176
     1
 90
        3
176
     1
 62
     5
420
      255
176
     1
290
     0
176
     1
 90
       50
176
     1
 90
       50
176
     1
 90
       50
176
     1
290
     0
176
     1
 90
       50
176
     1
 62
   256
176
     0
 40
1.0
176
     0
 90
        2
176
     1
  1
strokes_ogs.tif
176
     1
290
     0
176
     1
 40
1.0
176
     1
 40
1.0
176
     1
1001
ACAD
1000
AcDbSavedByObjectVersion
1070
     0
  0
VISUALSTYLE
  5
3A
102
{ACAD_REACTORS
330
29
102
}
330
29
100
AcDbVisualStyle
  2
Shades of Gray
 70
    23
177
     3
291
     0
 70
    58
 90
        2
176
     1
 90
        2
176
     1
 90
        3
176
     1
 90
        0
176
     1
 40
0.6
176
     1
 40
30.0
176
     1
 62
     7
420
 16777215
176
     1
 90
        2
176
     1
 90
        2
176
     1
 62
     7
176
     1
 62
     7
176
     1
 90
        1
176
     1
 90
        1
176
     1
 40
40.0
176
     1
 90
        8
176
     1
 62
     7
176
     1
 40
1.0
176
     1
 90
        1
176
     1
 90
        6
176
     1
 90
        2
176
     1
 62
     7
176
     1
 90
        3
176
     1
 90
        0
176
     1
 90
        0
176
     1
290
     0
176
     1
 90
        1
176
     1
 40
0.0
176
     1
 90
        0
176
     1
290
     0
176
     1
290
     1
176
     1
290
     1
176
     1
290
     0
176
     1
290
     0
176
     1
290
     0
176
     1
290
     0
176
     1
290
     0
176
     1
290
     0
176
     1
 90
       50
176
     1
 40
0.0
176
     1
 40
1.0
176
     1
 90
        0
176
     1
 62
    18
176
     1
 90
       50
176
     1
 90
        3
176
     1
 62
     5
420
      255
176
     1
290
     0
176
     1
 90
       50
176
     1
 90
       50
176
     1
 90
       50
176
     1
290
     0
176
     1
 90
       50
176
     1
 62
   256
176
     0
 40
1.0
176
     0
 90
        2
176
     1
  1
strokes_ogs.tif
176
     1
290
     0
176
     1
 40
1.0
176
     1
 40
1.0
176
     1
1001
ACAD
1000
AcDbSavedByObjectVersion
1070
     0
  0
VISUALSTYLE
  5
3B
102
{ACAD_REACTORS
330
29
102
}
330
29
100
AcDbVisualStyle
  2
Sketchy
 70
    24
177
     3
291
     0
 70
    58
 90
        1
176
     1
 90
        2
176
     1
 90
        2
176
     1
 90
        0
176
     1
 40
0.6
176
     1
 40
30.0
176
     1
 62
     7
420
 16777215
176
     1
 90
        2
176
     1
 90
        2
176
     1
 62
     7
176
     1
 62
     7
176
     1
 90
        1
176
     1
 90
        1
176
     1
 40
40.0
176
     1
 90
       11
176
     1
 62
     7
176
     1
 40
1.0
176
     1
 90
        1
176
     1
 90
        6
176
     1
 90
        2
176
     1
 62
     7
176
     1
 90
        6
176
     1
 90
        0
176
     1
 90
        0
176
     1
290
     0
176
     1
 90
        1
176
     1
 40
0.0
176
     1
 90
        0
176
     1
290
     0
176
     1
290
     1
176
     1
290
     1
176
     1
290
     0
176
     1
290
     0
176
     1
290
     0
176
     1
290
     0
176
     1
290
     0
176
     1
290
     0
176
     1
 90
       50
176
     1
 40
0.0
176
     1
 40
1.0
176
     1
 90
        0
176
     1
 62
    18
176
     1
 90
       50
176
     1
 90
        3
176
     1
 62
     5
420
      255
176
     1
290
     0
176
     1
 90
       50
176
     1
 90
       50
176
     1
 90
       50
176
     1
290
     0
176
     1
 90
       50
176
     1
 62
   256
176
     0
 40
1.0
176
     0
 90
        2
176
     1
  1
strokes_ogs.tif
176
     1
290
     0
176
     1
 40
1.0
176
     1
 40
1.0
176
     1
1001
ACAD
1000
AcDbSavedByObjectVersion
1070
     0
  0
VISUALSTYLE
  5
36
102
{ACAD_REACTORS
330
29
102
}
330
29
100
AcDbVisualStyle
  2
Thicken
 70
    13
177
     3
291
     1
 70
    58
 90
        2
176
     1
 90
        2
176
     1
 90
        0
176
     1
 90
        0
176
     1
 40
0.6
176
     1
 40
30.0
176
     1
 62
     7
420
 16777215
176
     1
 90
        1
176
     1
 90
        4
176
     1
 62
     7
176
     1
 62
   257
176
     1
 90
        1
176
     1
 90
        1
176
     1
 40
1.0
176
     1
 90
       12
176
     1
 62
     7
176
     1
 40
1.0
176
     1
 90
        1
176
     1
 90
        6
176
     1
 90
        2
176
     1
 62
     7
176
     1
 90
        5
176
     1
 90
        0
176
     1
 90
        0
176
     1
290
     0
176
     1
 90
        1
176
     1
 40
0.0
176
     1
 90
        0
176
     1
290
     0
176
     1
290
     1
176
     1
290
     1
176
     1
290
     0
176
     1
290
     0
176
     1
290
     0
176
     1
290
     0
176
     1
290
     0
176
     1
290
     0
176
     1
 90
       50
176
     1
 40
0.0
176
     1
 40
1.0
176
     1
 90
        0
176
     1
 62
    18
176
     1
 90
       50
176
     1
 90
        3
176
     1
 62
     5
420
      255
176
     1
290
     0
176
     1
 90
       50
176
     1
 90
       50
176
     1
 90
       50
176
     1
290
     0
176
     1
 90
       50
176
     1
 62
   256
176
     0
 40
1.0
176
     0
 90
        2
176
     1
  1
strokes_ogs.tif
176
     1
290
     0
176
     1
 40
1.0
176
     1
 40
1.0
176
     1
1001
ACAD
1000
AcDbSavedByObjectVersion
1070
     0
  0
VISUALSTYLE
  5
30
102
{ACAD_REACTORS
330
29
102
}
330
29
100
AcDbVisualStyle
  2
Wireframe
 70
     5
177
     3
291
     0
 70
    58
 90
        0
176
     1
 90
        2
176
     1
 90
        0
176
     1
 90
        0
176
     1
 40
0.6
176
     1
 40
30.0
176
     1
 62
     7
420
 16777215
176
     1
 90
        1
176
     1
 90
        4
176
     1
 62
     7
176
     1
 62
   257
176
     1
 90
        1
176
     1
 90
        1
176
     1
 40
1.0
176
     1
 90
        0
176
     1
 62
   257
176
     1
 40
1.0
176
     1
 90
        1
176
     1
 90
        6
176
     1
 90
        2
176
     1
 62
     7
176
     1
 90
        3
176
     1
 90
        0
176
     1
 90
        0
176
     1
290
     0
176
     1
 90
        1
176
     1
 40
0.0
176
     1
 90
        0
176
     1
290
     0
176
     1
290
     1
176
     1
290
     1
176
     1
290
     0
176
     1
290
     0
176
     1
290
     0
176
     1
290
     0
176
     1
290
     0
176
     1
290
     0
176
     1
 90
       50
176
     1
 40
0.0
176
     1
 40
1.0
176
     1
 90
        0
176
     1
 62
    18
176
     1
 90
       50
176
     1
 90
        3
176
     1
 62
     5
420
      255
176
     1
290
     0
176
     1
 90
       50
176
     1
 90
       50
176
     1
 90
       50
176
     1
290
     0
176
     1
 90
       50
176
     1
 62
   256
176
     0
 40
1.0
176
     0
 90
        2
176
     1
  1
strokes_ogs.tif
176
     1
290
     0
176
     1
 40
1.0
176
     1
 40
1.0
176
     1
1001
ACAD
1000
AcDbSavedByObjectVersion
1070
     0
  0
VISUALSTYLE
  5
3C
102
{ACAD_REACTORS
330
29
102
}
330
29
100
AcDbVisualStyle
  2
X-Ray
 70
    25
177
     3
291
     0
 70
    58
 90
        2
176
     1
 90
        2
176
     1
 90
        1
176
     1
 90
        1
176
     1
 40
0.5
176
     1
 40
30.0
176
     1
 62
     7
420
 16777215
176
     1
 90
        1
176
     1
 90
        0
176
     1
 62
     7
176
     1
 62
   257
176
     1
 90
        1
176
     1
 90
        1
176
     1
 40
1.0
176
     1
 90
        8
176
     1
 62
     7
176
     1
 40
1.0
176
     1
 90
        1
176
     1
 90
        6
176
     1
 90
        2
176
     1
 62
     7
176
     1
 90
        3
176
     1
 90
        0
176
     1
 90
        0
176
     1
290
     0
176
     1
 90
       13
176
     1
 40
0.0
176
     1
 90
        0
176
     1
290
     0
176
     1
290
     1
176
     1
290
     1
176
     1
290
     0
176
     1
290
     0
176
     1
290
     0
176
     1
290
     0
176
     1
290
     0
176
     1
290
     0
176
     1
 90
       50
176
     1
 40
0.0
176
     1
 40
1.0
176
     1
 90
        0
176
     1
 62
    18
176
     1
 90
       50
176
     1
 90
        3
176
     1
 62
     5
420
      255
176
     1
290
     0
176
     1
 90
       50
176
     1
 90
       50
176
     1
 90
       50
176
     1
290
     0
176
     1
 90
       50
176
     1
 62
   256
176
     0
 40
1.0
176
     0
 90
        2
176
     1
  1
strokes_ogs.tif
176
     1
290
     0
176
     1
 40
1.0
176
     1
 40
1.0
176
     1
1001
ACAD
1000
AcDbSavedByObjectVersion
1070
     0
  0
DICTIONARYVAR
  5
18C
102
{ACAD_REACTORS
330
187
102
}
330
187
100
DictionaryVariables
280
     0
  1
1:1
  0
DICTIONARYVAR
  5
189
102
{ACAD_REACTORS
330
187
102
}
330
187
100
DictionaryVariables
280
     0
  1
STANDARD
  0
DICTIONARYVAR
  5
188
102
{ACAD_REACTORS
330
187
102
}
330
187
100
DictionaryVariables
280
     0
  1
STANDARD
  0
DICTIONARYVAR
  5
18A
102
{ACAD_REACTORS
330
187
102
}
330
187
100
DictionaryVariables
280
     0
  1
Imperial24
  0
DICTIONARYVAR
  5
18B
102
{ACAD_REACTORS
330
187
102
}
330
187
100
DictionaryVariables
280
     0
  1
Imperial24
  0
DICTIONARY
  5
24C
330
6B
100
AcDbDictionary
280
     1
281
     1
  3
ACAD_XREC_ROUNDTRIP
360
24D
  0
DICTIONARY
  5
1A
330
19
100
AcDbDictionary
280
     1
281
     1
  3
BUMPTILE
360
1C
  3
DIFFUSETILE
360
1B
  3
OPACITYTILE
360
1F
  3
REFLECTIONTILE
360
1E
  3
REFRACTIONTILE
360
20
  3
SPECULARTILE
360
1D
  0
DICTIONARY
  5
12
330
11
100
AcDbDictionary
280
     1
281
     1
  3
BUMPTILE
360
14
  3
DIFFUSETILE
360
13
  3
OPACITYTILE
360
17
  3
REFLECTIONTILE
360
16
  3
REFRACTIONTILE
360
18
  3
SPECULARTILE
360
15
  0
DICTIONARY
  5
22
330
21
100
AcDbDictionary
280
     1
281
     1
  3
BUMPTILE
360
24
  3
DIFFUSETILE
360
23
  3
OPACITYTILE
360
27
  3
REFLECTIONTILE
360
26
  3
REFRACTIONTILE
360
28
  3
SPECULARTILE
360
25
  0
DICTIONARY
  5
24A
330
69
100
AcDbDictionary
280
     1
281
     1
  3
ACAD_XREC_ROUNDTRIP
360
24B
  0
DICTIONARY
  5
230
330
65
100
AcDbDictionary
280
     1
281
     1
  3
ACAD_ROUNDTRIP_2008_TABLESTYLE_CELLSTYLEMAP
360
248
  0
XRECORD
  5
24D
102
{ACAD_REACTORS
330
24C
102
}
330
24C
100
AcDbXrecord
280
     1
102
DISPLAYNAME
  1
Imperial24
102
FLAGS
 90
        0
  0
XRECORD
  5
1C
102
{ACAD_REACTORS
330
1A
102
}
330
1A
100
AcDbXrecord
280
     1
270
     1
271
     1
  0
XRECORD
  5
1B
102
{ACAD_REACTORS
330
1A
102
}
330
1A
100
AcDbXrecord
280
     1
270
     1
271
     1
  0
XRECORD
  5
1F
102
{ACAD_REACTORS
330
1A
102
}
330
1A
100
AcDbXrecord
280
     1
270
     1
271
     1
  0
XRECORD
  5
1E
102
{ACAD_REACTORS
330
1A
102
}
330
1A
100
AcDbXrecord
280
     1
270
     1
271
     1
  0
XRECORD
  5
20
102
{ACAD_REACTORS
330
1A
102
}
330
1A
100
AcDbXrecord
280
     1
270
     1
271
     1
  0
XRECORD
  5
1D
102
{ACAD_REACTORS
330
1A
102
}
330
1A
100
AcDbXrecord
280
     1
270
     1
271
     1
  0
XRECORD
  5
14
102
{ACAD_REACTORS
330
12
102
}
330
12
100
AcDbXrecord
280
     1
270
     1
271
     1
  0
XRECORD
  5
13
102
{ACAD_REACTORS
330
12
102
}
330
12
100
AcDbXrecord
280
     1
270
     1
271
     1
  0
XRECORD
  5
17
102
{ACAD_REACTORS
330
12
102
}
330
12
100
AcDbXrecord
280
     1
270
     1
271
     1
  0
XRECORD
  5
16
102
{ACAD_REACTORS
330
12
102
}
330
12
100
AcDbXrecord
280
     1
270
     1
271
     1
  0
XRECORD
  5
18
102
{ACAD_REACTORS
330
12
102
}
330
12
100
AcDbXrecord
280
     1
270
     1
271
     1
  0
XRECORD
  5
15
102
{ACAD_REACTORS
330
12
102
}
330
12
100
AcDbXrecord
280
     1
270
     1
271
     1
  0
XRECORD
  5
24
102
{ACAD_REACTORS
330
22
102
}
330
22
100
AcDbXrecord
280
     1
270
     1
271
     1
  0
XRECORD
  5
23
102
{ACAD_REACTORS
330
22
102
}
330
22
100
AcDbXrecord
280
     1
270
     1
271
     1
  0
XRECORD
  5
27
102
{ACAD_REACTORS
330
22
102
}
330
22
100
AcDbXrecord
280
     1
270
     1
271
     1
  0
XRECORD
  5
26
102
{ACAD_REACTORS
330
22
102
}
330
22
100
AcDbXrecord
280
     1
270
     1
271
     1
  0
XRECORD
  5
28
102
{ACAD_REACTORS
330
22
102
}
330
22
100
AcDbXrecord
280
     1
270
     1
271
     1
  0
XRECORD
  5
25
102
{ACAD_REACTORS
330
22
102
}
330
22
100
AcDbXrecord
280
     1
270
     1
271
     1
  0
XRECORD
  5
24B
102
{ACAD_REACTORS
330
24A
102
}
330
24A
100
AcDbXrecord
280
     1
102
DISPLAYNAME
  1
Imperial24
102
FLAGS
 90
        0
  0
CELLSTYLEMAP
  5
248
102
{ACAD_REACTORS
330
230
102
}
330
230
100
AcDbCellStyleMap
 90
        3
300
CELLSTYLE
  1
TABLEFORMAT_BEGIN
 90
        5
170
     1
 91
        0
 92
    32768
 62
   257
 93
        1
300
CONTENTFORMAT
  1
CONTENTFORMAT_BEGIN
 90
        0
 91
        0
 92
      512
 93
        0
300

 40
0.0
140
1.0
 94
        5
 62
     0
340
55
144
0.25
309
CONTENTFORMAT_END
171
     1
301
MARGIN
  1
CELLMARGIN_BEGIN
 40
0.06
 40
0.06
 40
0.06
 40
0.06
 40
0.18
 40
0.18
309
CELLMARGIN_END
 94
        6
 95
        1
302
GRIDFORMAT
  1
GRIDFORMAT_BEGIN
 90
        0
 91
        1
 62
     0
 92
       -2
340
0
 93
        0
 40
0.045
309
GRIDFORMAT_END
 95
        2
302
GRIDFORMAT
  1
GRIDFORMAT_BEGIN
 90
        0
 91
        1
 62
     0
 92
       -2
340
0
 93
        0
 40
0.045
309
GRIDFORMAT_END
 95
        4
302
GRIDFORMAT
  1
GRIDFORMAT_BEGIN
 90
        0
 91
        1
 62
     0
 92
       -2
340
0
 93
        0
 40
0.045
309
GRIDFORMAT_END
 95
        8
302
GRIDFORMAT
  1
GRIDFORMAT_BEGIN
 90
        0
 91
        1
 62
     0
 92
       -2
340
0
 93
        0
 40
0.045
309
GRIDFORMAT_END
 95
       16
302
GRIDFORMAT
  1
GRIDFORMAT_BEGIN
 90
        0
 91
        1
 62
     0
 92
       -2
340
0
 93
        0
 40
0.045
309
GRIDFORMAT_END
 95
       32
302
GRIDFORMAT
  1
GRIDFORMAT_BEGIN
 90
        0
 91
        1
 62
     0
 92
       -2
340
0
 93
        0
 40
0.045
309
GRIDFORMAT_END
309
TABLEFORMAT_END
  1
CELLSTYLE_BEGIN
 90
        1
 91
        1
300
_TITLE
309
CELLSTYLE_END
300
CELLSTYLE
  1
TABLEFORMAT_BEGIN
 90
        5
170
     1
 91
        0
 92
        0
 62
   257
 93
        1
300
CONTENTFORMAT
  1
CONTENTFORMAT_BEGIN
 90
        0
 91
        0
 92
      512
 93
        0
300

 40
0.0
140
1.0
 94
        5
 62
     0
340
55
144
0.18
309
CONTENTFORMAT_END
171
     1
301
MARGIN
  1
CELLMARGIN_BEGIN
 40
0.06
 40
0.06
 40
0.06
 40
0.06
 40
0.18
 40
0.18
309
CELLMARGIN_END
 94
        6
 95
        1
302
GRIDFORMAT
  1
GRIDFORMAT_BEGIN
 90
        0
 91
        1
 62
     0
 92
       -2
340
0
 93
        0
 40
0.045
309
GRIDFORMAT_END
 95
        2
302
GRIDFORMAT
  1
GRIDFORMAT_BEGIN
 90
        0
 91
        1
 62
     0
 92
       -2
340
0
 93
        0
 40
0.045
309
GRIDFORMAT_END
 95
        4
302
GRIDFORMAT
  1
GRIDFORMAT_BEGIN
 90
        0
 91
        1
 62
     0
 92
       -2
340
0
 93
        0
 40
0.045
309
GRIDFORMAT_END
 95
        8
302
GRIDFORMAT
  1
GRIDFORMAT_BEGIN
 90
        0
 91
        1
 62
     0
 92
       -2
340
0
 93
        0
 40
0.045
309
GRIDFORMAT_END
 95
       16
302
GRIDFORMAT
  1
GRIDFORMAT_BEGIN
 90
        0
 91
        1
 62
     0
 92
       -2
340
0
 93
        0
 40
0.045
309
GRIDFORMAT_END
 95
       32
302
GRIDFORMAT
  1
GRIDFORMAT_BEGIN
 90
        0
 91
        1
 62
     0
 92
       -2
340
0
 93
        0
 40
0.045
309
GRIDFORMAT_END
309
TABLEFORMAT_END
  1
CELLSTYLE_BEGIN
 90
        2
 91
        1
300
_HEADER
309
CELLSTYLE_END
300
CELLSTYLE
  1
TABLEFORMAT_BEGIN
 90
        5
170
     1
 91
        0
 92
        0
 62
   257
 93
        1
300
CONTENTFORMAT
  1
CONTENTFORMAT_BEGIN
 90
        0
 91
        0
 92
      512
 93
        0
300

 40
0.0
140
1.0
 94
        2
 62
     0
340
55
144
0.18
309
CONTENTFORMAT_END
171
     1
301
MARGIN
  1
CELLMARGIN_BEGIN
 40
0.06
 40
0.06
 40
0.06
 40
0.06
 40
0.18
 40
0.18
309
CELLMARGIN_END
 94
        6
 95
        1
302
GRIDFORMAT
  1
GRIDFORMAT_BEGIN
 90
        0
 91
        1
 62
     0
 92
       -2
340
0
 93
        0
 40
0.045
309
GRIDFORMAT_END
 95
        2
302
GRIDFORMAT
  1
GRIDFORMAT_BEGIN
 90
        0
 91
        1
 62
     0
 92
       -2
340
0
 93
        0
 40
0.045
309
GRIDFORMAT_END
 95
        4
302
GRIDFORMAT
  1
GRIDFORMAT_BEGIN
 90
        0
 91
        1
 62
     0
 92
       -2
340
0
 93
        0
 40
0.045
309
GRIDFORMAT_END
 95
        8
302
GRIDFORMAT
  1
GRIDFORMAT_BEGIN
 90
        0
 91
        1
 62
     0
 92
       -2
340
0
 93
        0
 40
0.045
309
GRIDFORMAT_END
 95
       16
302
GRIDFORMAT
  1
GRIDFORMAT_BEGIN
 90
        0
 91
        1
 62
     0
 92
       -2
340
0
 93
        0
 40
0.045
309
GRIDFORMAT_END
 95
       32
302
GRIDFORMAT
  1
GRIDFORMAT_BEGIN
 90
        0
 91
        1
 62
     0
 92
       -2
340
0
 93
        0
 40
0.045
309
GRIDFORMAT_END
309
TABLEFORMAT_END
  1
CELLSTYLE_BEGIN
 90
        3
 91
        2
300
_DATA
309
CELLSTYLE_END
  0
ENDSEC
  0
EOF
